ISO-10303-21;
HEADER;
FILE_DESCRIPTION (( 'STEP AP203' ),
    '1' );
FILE_NAME ('54807.step',
    '2021-09-02T13:38:26',
    ( '' ),
    ( '' ),
    'SwSTEP 2.0',
    'SolidWorks 2019',
    '' );
FILE_SCHEMA (( 'CONFIG_CONTROL_DESIGN' ));
ENDSEC;

DATA;
#1 =( LENGTH_UNIT ( ) NAMED_UNIT ( * ) SI_UNIT ( .MILLI., .METRE. ) );
#2 = CARTESIAN_POINT ( 'NONE',  ( 8.266365894244591932E-16, -6.749999999999988454, -8.266365894244648138E-16 ) ) ;
#3 = DIRECTION ( 'NONE',  ( -3.491481338843133355E-15, 1.224646799147353207E-16, -1.000000000000000000 ) ) ;
#4 = CONICAL_SURFACE ( 'NONE', #183, 6.749999999999982236, 1.029744258676649649 ) ;
#5 = FACE_OUTER_BOUND ( 'NONE', #162, .T. ) ;
#6 = CARTESIAN_POINT ( 'NONE',  ( 1.498741864984268884E-14, 6.749999999999981348, 4.055809178436066809 ) ) ;
#7 = PLANE ( 'NONE',  #117 ) ;
#8 = EDGE_CURVE ( 'NONE', #187, #186, #62, .T. ) ;
#9 = ORIENTED_EDGE ( 'NONE', *, *, #285, .F. ) ;
#10 = PRODUCT_DEFINITION_FORMATION_WITH_SPECIFIED_SOURCE ( 'ANY', '', #155, .NOT_KNOWN. ) ;
#11 = EDGE_CURVE ( 'NONE', #135, #186, #15, .T. ) ;
#12 = CIRCLE ( 'NONE', #264, 6.750000000000000888 ) ;
#13 = ORIENTED_EDGE ( 'NONE', *, *, #218, .F. ) ;
#14 = MECHANICAL_CONTEXT ( 'NONE', #227, 'mechanical' ) ;
#15 = LINE ( 'NONE', #280, #267 ) ;
#16 = PERSON_AND_ORGANIZATION ( #89, #307 ) ;
#17 = DIRECTION ( 'NONE',  ( 0.0000000000000000000, 1.000000000000000000, 0.0000000000000000000 ) ) ;
#18 = ORIENTED_EDGE ( 'NONE', *, *, #218, .T. ) ;
#19 = ORIENTED_EDGE ( 'NONE', *, *, #24, .F. ) ;
#20 = CARTESIAN_POINT ( 'NONE',  ( 3.770799845950584024E-13, -1.322618543079141493E-14, 108.0000000000000000 ) ) ;
#21 = PERSON_AND_ORGANIZATION ( #89, #307 ) ;
#22 = FACE_OUTER_BOUND ( 'NONE', #301, .T. ) ;
#23 = DIRECTION ( 'NONE',  ( 1.000000000000000000, 0.0000000000000000000, 0.0000000000000000000 ) ) ;
#24 = EDGE_CURVE ( 'NONE', #197, #304, #256, .T. ) ;
#25 = DIRECTION ( 'NONE',  ( -3.491481338843133355E-15, 1.224646799147353207E-16, -1.000000000000000000 ) ) ;
#26 = FACE_OUTER_BOUND ( 'NONE', #167, .T. ) ;
#27 = DIRECTION ( 'NONE',  ( 0.0000000000000000000, 1.000000000000000000, 0.0000000000000000000 ) ) ;
#28 = DIRECTION ( 'NONE',  ( -3.491481338843133355E-15, 1.224646799147353207E-16, -1.000000000000000000 ) ) ;
#29 = EDGE_CURVE ( 'NONE', #250, #187, #146, .T. ) ;
#30 = EDGE_LOOP ( 'NONE', ( #99, #268, #41, #63 ) ) ;
#31 = MANIFOLD_SOLID_BREP ( 'Corps-Déplacer/Copier1[1]', #48 ) ;
#32 = ORIENTED_EDGE ( 'NONE', *, *, #11, .T. ) ;
#33 = APPROVAL_PERSON_ORGANIZATION ( #300, #142, #66 ) ;
#34 = VECTOR ( 'NONE', #277, 999.9999999999998863 ) ;
#35 = DIRECTION ( 'NONE',  ( 4.565167275584571450E-31, 1.000000000000000000, 1.284980352575416150E-16 ) ) ;
#36 = PERSON_AND_ORGANIZATION_ROLE ( 'design_supplier' ) ;
#37 = EDGE_CURVE ( 'NONE', #296, #269, #12, .T. ) ;
#38 = AXIS2_PLACEMENT_3D ( 'NONE', #201, #120, #259 ) ;
#39 = CARTESIAN_POINT ( 'NONE',  ( 5.551455328760582161E-13, -1.947188410644291696E-14, 159.0000000000000000 ) ) ;
#40 = COORDINATED_UNIVERSAL_TIME_OFFSET ( 1, 0, .AHEAD. ) ;
#41 = ORIENTED_EDGE ( 'NONE', *, *, #37, .F. ) ;
#42 = AXIS2_PLACEMENT_3D ( 'NONE', #200, #171, #130 ) ;
#43 = CC_DESIGN_PERSON_AND_ORGANIZATION_ASSIGNMENT ( #330, #36, ( #10 ) ) ;
#44 = CARTESIAN_POINT ( 'NONE',  ( 1.416078206041822343E-14, -4.966933728324183681E-16, 4.055809178436065920 ) ) ;
#45 = AXIS2_PLACEMENT_3D ( 'NONE', #237, #321, #84 ) ;
#46 = CARTESIAN_POINT ( 'NONE',  ( 1.498741864984268884E-14, 6.749999999999981348, 4.055809178436066809 ) ) ;
#47 = CARTESIAN_POINT ( 'NONE',  ( 4.669393953249826642E-13, -6.750000000000020428, 159.0000000000000000 ) ) ;
#48 = CLOSED_SHELL ( 'NONE', ( #148, #336, #251, #258, #312, #306 ) ) ;
#49 = CYLINDRICAL_SURFACE ( 'NONE', #38, 6.749999999999997335 ) ;
#50 = DIRECTION ( 'NONE',  ( -3.491481338843133355E-15, 1.224646799147353207E-16, -1.000000000000000000 ) ) ;
#51 = CALENDAR_DATE ( 2021, 2, 9 ) ;
#52 = CARTESIAN_POINT ( 'NONE',  ( 1.964470199171624533E-13, -6.750000000000007994, 108.0000000000000000 ) ) ;
#53 = LOCAL_TIME ( 15, 38, 26.00000000000000000, #213 ) ;
#54 = CARTESIAN_POINT ( 'NONE',  ( 0.0000000000000000000, 0.0000000000000000000, 0.0000000000000000000 ) ) ;
#55 = AXIS2_PLACEMENT_3D ( 'NONE', #39, #147, #143 ) ;
#56 = DIRECTION ( 'NONE',  ( -3.491481338843133355E-15, 1.224646799147353207E-16, -1.000000000000000000 ) ) ;
#57 = CARTESIAN_POINT ( 'NONE',  ( 5.576566777949469280E-13, -5.750000000000021316, 160.0000000000000000 ) ) ;
#58 = CC_DESIGN_DATE_AND_TIME_ASSIGNMENT ( #152, #217, ( #160 ) ) ;
#59 = VECTOR ( 'NONE', #82, 1000.000000000000000 ) ;
#60 =( GEOMETRIC_REPRESENTATION_CONTEXT ( 3 ) GLOBAL_UNCERTAINTY_ASSIGNED_CONTEXT ( ( #255 ) ) GLOBAL_UNIT_ASSIGNED_CONTEXT ( ( #1, #224, #75 ) ) REPRESENTATION_CONTEXT ( 'NONE', 'WORKASPACE' ) );
#61 = APPROVAL_DATE_TIME ( #326, #142 ) ;
#62 = CIRCLE ( 'NONE', #105, 6.749999999999982236 ) ;
#63 = ORIENTED_EDGE ( 'NONE', *, *, #192, .F. ) ;
#64 = DATE_AND_TIME ( #302, #313 ) ;
#65 = EDGE_CURVE ( 'NONE', #85, #134, #299, .T. ) ;
#66 = APPROVAL_ROLE ( '' ) ;
#67 = ORIENTED_EDGE ( 'NONE', *, *, #65, .F. ) ;
#68 = CALENDAR_DATE ( 2021, 2, 9 ) ;
#69 = ORIENTED_EDGE ( 'NONE', *, *, #208, .T. ) ;
#70 = ADVANCED_FACE ( 'NONE', ( #170 ), #248, .T. ) ;
#71 = EDGE_LOOP ( 'NONE', ( #273, #333, #309, #121 ) ) ;
#72 = CIRCLE ( 'NONE', #239, 6.749999999999994671 ) ;
#73 = DIRECTION ( 'NONE',  ( 0.0000000000000000000, 1.000000000000000000, 0.0000000000000000000 ) ) ;
#74 = APPROVAL_PERSON_ORGANIZATION ( #21, #103, #314 ) ;
#75 =( NAMED_UNIT ( * ) SI_UNIT ( $, .STERADIAN. ) SOLID_ANGLE_UNIT ( ) );
#76 = DIRECTION ( 'NONE',  ( 3.491481338843133355E-15, -1.224646799147353207E-16, 1.000000000000000000 ) ) ;
#77 = CALENDAR_DATE ( 2021, 2, 9 ) ;
#78 = DIRECTION ( 'NONE',  ( -3.491481338843133355E-15, 1.224646799147353207E-16, -1.000000000000000000 ) ) ;
#79 = CC_DESIGN_PERSON_AND_ORGANIZATION_ASSIGNMENT ( #163, #274, ( #10 ) ) ;
#80 = CARTESIAN_POINT ( 'NONE',  ( 0.0000000000000000000, 0.0000000000000000000, 0.0000000000000000000 ) ) ;
#81 = CYLINDRICAL_SURFACE ( 'NONE', #228, 6.749999999999997335 ) ;
#82 = DIRECTION ( 'NONE',  ( -2.468850131082267710E-15, 0.7071067811865470176, -0.7071067811865481278 ) ) ;
#83 = VECTOR ( 'NONE', #102, 1000.000000000000000 ) ;
#84 = DIRECTION ( 'NONE',  ( 0.0000000000000000000, 1.000000000000000000, 0.0000000000000000000 ) ) ;
#85 = VERTEX_POINT ( 'NONE', #282 ) ;
#86 = CC_DESIGN_PERSON_AND_ORGANIZATION_ASSIGNMENT ( #174, #140, ( #160 ) ) ;
#87 = EDGE_LOOP ( 'NONE', ( #145, #180, #334 ) ) ;
#88 = ORIENTED_EDGE ( 'NONE', *, *, #285, .T. ) ;
#89 = PERSON ( 'UNSPECIFIED', 'UNSPECIFIED', 'UNSPECIFIED', ('UNSPECIFIED'), ('UNSPECIFIED'), ('UNSPECIFIED') ) ;
#90 = ADVANCED_FACE ( 'NONE', ( #164 ), #94, .T. ) ;
#91 = DIRECTION ( 'NONE',  ( 3.491481338843133355E-15, -1.224646799147353207E-16, 1.000000000000000000 ) ) ;
#92 = APPROVAL_STATUS ( 'not_yet_approved' ) ;
#93 = VECTOR ( 'NONE', #260, 1000.000000000000000 ) ;
#94 = PLANE ( 'NONE',  #303 ) ;
#95 = DIRECTION ( 'NONE',  ( 0.0000000000000000000, 1.000000000000000000, 0.0000000000000000000 ) ) ;
#96 = ORIENTED_EDGE ( 'NONE', *, *, #29, .T. ) ;
#97 = APPLICATION_PROTOCOL_DEFINITION ( 'international standard', 'config_control_design', 1994, #129 ) ;
#98 = DIRECTION ( 'NONE',  ( -4.275831445896958607E-31, -1.000000000000000000, -1.224646799147353207E-16 ) ) ;
#99 = ORIENTED_EDGE ( 'NONE', *, *, #24, .T. ) ;
#100 = AXIS2_PLACEMENT_3D ( 'NONE', #80, #3, #317 ) ;
#101 = DIRECTION ( 'NONE',  ( 4.275831445896958607E-31, 1.000000000000000000, 1.224646799147353207E-16 ) ) ;
#102 = DIRECTION ( 'NONE',  ( -3.491481338843133355E-15, 1.224646799147353207E-16, -1.000000000000000000 ) ) ;
#103 = APPROVAL ( #125, 'UNSPECIFIED' ) ;
#104 = LINE ( 'NONE', #289, #93 ) ;
#105 = AXIS2_PLACEMENT_3D ( 'NONE', #44, #308, #35 ) ;
#106 = CARTESIAN_POINT ( 'NONE',  ( 0.0000000000000000000, 0.0000000000000000000, 0.0000000000000000000 ) ) ;
#107 = PRODUCT_DEFINITION_SHAPE ( 'NONE', 'NONE',  #160 ) ;
#108 = CARTESIAN_POINT ( 'NONE',  ( 5.586370142149013368E-13, 5.749999999999981348, 160.0000000000000000 ) ) ;
#109 = DIRECTION ( 'NONE',  ( 4.275831445896958607E-31, 1.000000000000000000, 1.224646799147353207E-16 ) ) ;
#110 = AXIS2_PLACEMENT_3D ( 'NONE', #20, #216, #73 ) ;
#111 = EDGE_LOOP ( 'NONE', ( #182, #88, #67, #114 ) ) ;
#112 = ORIENTED_EDGE ( 'NONE', *, *, #8, .F. ) ;
#113 = VECTOR ( 'NONE', #257, 1000.000000000000000 ) ;
#114 = ORIENTED_EDGE ( 'NONE', *, *, #271, .F. ) ;
#115 = EDGE_CURVE ( 'NONE', #135, #187, #119, .T. ) ;
#116 = APPLICATION_PROTOCOL_DEFINITION ( 'international standard', 'config_control_design', 1994, #227 ) ;
#117 = AXIS2_PLACEMENT_3D ( 'NONE', #158, #28, #109 ) ;
#118 = ORIENTED_EDGE ( 'NONE', *, *, #124, .T. ) ;
#119 = LINE ( 'NONE', #46, #34 ) ;
#120 = DIRECTION ( 'NONE',  ( -3.491481338843133355E-15, 1.224646799147353207E-16, -1.000000000000000000 ) ) ;
#121 = ORIENTED_EDGE ( 'NONE', *, *, #124, .F. ) ;
#122 = EDGE_LOOP ( 'NONE', ( #226, #185 ) ) ;
#123 = FACE_OUTER_BOUND ( 'NONE', #87, .T. ) ;
#124 = EDGE_CURVE ( 'NONE', #269, #296, #235, .T. ) ;
#125 = APPROVAL_STATUS ( 'not_yet_approved' ) ;
#126 = LINE ( 'NONE', #2, #83 ) ;
#127 = CC_DESIGN_SECURITY_CLASSIFICATION ( #196, ( #10 ) ) ;
#128 = LINE ( 'NONE', #108, #59 ) ;
#129 = APPLICATION_CONTEXT ( 'configuration controlled 3d designs of mechanical parts and assemblies' ) ;
#130 = DIRECTION ( 'NONE',  ( -4.275831445896958607E-31, -1.000000000000000000, -1.224646799147353207E-16 ) ) ;
#131 = CYLINDRICAL_SURFACE ( 'NONE', #100, 6.749999999999988454 ) ;
#132 = FACE_OUTER_BOUND ( 'NONE', #71, .T. ) ;
#133 = APPROVAL ( #92, 'UNSPECIFIED' ) ;
#134 = VERTEX_POINT ( 'NONE', #207 ) ;
#135 = VERTEX_POINT ( 'NONE', #54 ) ;
#136 = CC_DESIGN_APPROVAL ( #142, ( #196 ) ) ;
#137 = ADVANCED_FACE ( 'NONE', ( #22 ), #131, .T. ) ;
#138 = VECTOR ( 'NONE', #78, 1000.000000000000000 ) ;
#139 = DIRECTION ( 'NONE',  ( -3.491481338843133355E-15, 1.224646799147353207E-16, -1.000000000000000000 ) ) ;
#140 = PERSON_AND_ORGANIZATION_ROLE ( 'creator' ) ;
#141 = CONICAL_SURFACE ( 'NONE', #45, 5.750000000000001776, 0.7853981633974473908 ) ;
#142 = APPROVAL ( #189, 'UNSPECIFIED' ) ;
#143 = DIRECTION ( 'NONE',  ( 0.0000000000000000000, 1.000000000000000000, 0.0000000000000000000 ) ) ;
#144 = AXIS2_PLACEMENT_3D ( 'NONE', #205, #337, #101 ) ;
#145 = ORIENTED_EDGE ( 'NONE', *, *, #11, .F. ) ;
#146 = LINE ( 'NONE', #254, #221 ) ;
#147 = DIRECTION ( 'NONE',  ( -3.491481338843133355E-15, 1.224646799147353207E-16, -1.000000000000000000 ) ) ;
#148 = ADVANCED_FACE ( 'NONE', ( #263 ), #324, .T. ) ;
#149 = LINE ( 'NONE', #292, #113 ) ;
#150 = DIRECTION ( 'NONE',  ( 0.0000000000000000000, 1.000000000000000000, 0.0000000000000000000 ) ) ;
#151 = CC_DESIGN_APPROVAL ( #133, ( #10 ) ) ;
#152 = DATE_AND_TIME ( #77, #266 ) ;
#153 = CARTESIAN_POINT ( 'NONE',  ( 3.770799845950584024E-13, -1.322618543079141493E-14, 108.0000000000000000 ) ) ;
#154 = DIRECTION ( 'NONE',  ( 0.0000000000000000000, 1.000000000000000000, 0.0000000000000000000 ) ) ;
#155 = PRODUCT ( '54807', '54807', '', ( #14 ) ) ;
#156 = AXIS2_PLACEMENT_3D ( 'NONE', #153, #25, #178 ) ;
#157 = CARTESIAN_POINT ( 'NONE',  ( 3.770799845950584024E-13, 6.749999999999981348, 108.0000000000000000 ) ) ;
#158 = CARTESIAN_POINT ( 'NONE',  ( 5.586370142149013368E-13, 4.311809375152812432E-32, 160.0000000000000000 ) ) ;
#159 = ORIENTED_EDGE ( 'NONE', *, *, #318, .T. ) ;
#160 = PRODUCT_DEFINITION ( 'UNKNOWN', '', #10, #198 ) ;
#161 = ORIENTED_EDGE ( 'NONE', *, *, #65, .T. ) ;
#162 = EDGE_LOOP ( 'NONE', ( #9, #118, #241, #210 ) ) ;
#163 = PERSON_AND_ORGANIZATION ( #89, #307 ) ;
#164 = FACE_OUTER_BOUND ( 'NONE', #122, .T. ) ;
#165 = DATE_AND_TIME ( #68, #253 ) ;
#166 = CIRCLE ( 'NONE', #290, 6.749999999999994671 ) ;
#167 = EDGE_LOOP ( 'NONE', ( #161, #219 ) ) ;
#168 = AXIS2_PLACEMENT_3D ( 'NONE', #175, #293, #27 ) ;
#169 = VERTEX_POINT ( 'NONE', #52 ) ;
#170 = FACE_OUTER_BOUND ( 'NONE', #270, .T. ) ;
#171 = DIRECTION ( 'NONE',  ( 3.491481338843133355E-15, -1.224646799147353207E-16, 1.000000000000000000 ) ) ;
#172 = DIRECTION ( 'NONE',  ( 0.0000000000000000000, 0.0000000000000000000, 1.000000000000000000 ) ) ;
#173 = CARTESIAN_POINT ( 'NONE',  ( 5.551455328760582161E-13, 6.749999999999981348, 159.0000000000000000 ) ) ;
#174 = PERSON_AND_ORGANIZATION ( #89, #307 ) ;
#175 = CARTESIAN_POINT ( 'NONE',  ( 5.586370142149013368E-13, -1.959434878635765210E-14, 160.0000000000000000 ) ) ;
#176 = AXIS2_PLACEMENT_3D ( 'NONE', #287, #50, #150 ) ;
#177 = DIRECTION ( 'NONE',  ( -3.491481338843133355E-15, 1.224646799147353207E-16, -1.000000000000000000 ) ) ;
#178 = DIRECTION ( 'NONE',  ( 0.0000000000000000000, 1.000000000000000000, 0.0000000000000000000 ) ) ;
#179 = CARTESIAN_POINT ( 'NONE',  ( 3.770799845950584024E-13, -1.322618543079141493E-14, 108.0000000000000000 ) ) ;
#180 = ORIENTED_EDGE ( 'NONE', *, *, #115, .T. ) ;
#181 = EDGE_CURVE ( 'NONE', #134, #85, #72, .T. ) ;
#182 = ORIENTED_EDGE ( 'NONE', *, *, #37, .T. ) ;
#183 = AXIS2_PLACEMENT_3D ( 'NONE', #319, #76, #234 ) ;
#184 = ADVANCED_FACE ( 'NONE', ( #236 ), #233, .T. ) ;
#185 = ORIENTED_EDGE ( 'NONE', *, *, #318, .F. ) ;
#186 = VERTEX_POINT ( 'NONE', #206 ) ;
#187 = VERTEX_POINT ( 'NONE', #6 ) ;
#188 = APPROVAL_ROLE ( '' ) ;
#189 = APPROVAL_STATUS ( 'not_yet_approved' ) ;
#190 = CARTESIAN_POINT ( 'NONE',  ( 3.770799845950584024E-13, 5.061689266483745615E-32, 108.0000000000000000 ) ) ;
#191 = PERSON_AND_ORGANIZATION_ROLE ( 'classification_officer' ) ;
#192 = EDGE_CURVE ( 'NONE', #197, #296, #128, .T. ) ;
#193 = DIRECTION ( 'NONE',  ( -3.491481338843133355E-15, 1.224646799147353207E-16, -1.000000000000000000 ) ) ;
#194 = CIRCLE ( 'NONE', #176, 5.750000000000001776 ) ;
#195 = FACE_OUTER_BOUND ( 'NONE', #111, .T. ) ;
#196 = SECURITY_CLASSIFICATION ( '', '', #245 ) ;
#197 = VERTEX_POINT ( 'NONE', #265 ) ;
#198 = DESIGN_CONTEXT ( 'detailed design', #129, 'design' ) ;
#199 = DIRECTION ( 'NONE',  ( 1.798245827342160317E-15, -0.8571673007021098911, 0.5150380749100582634 ) ) ;
#200 = CARTESIAN_POINT ( 'NONE',  ( 3.770799845950584024E-13, 5.061689266483745615E-32, 108.0000000000000000 ) ) ;
#201 = CARTESIAN_POINT ( 'NONE',  ( 0.0000000000000000000, 0.0000000000000000000, 0.0000000000000000000 ) ) ;
#202 = LINE ( 'NONE', #315, #138 ) ;
#203 = CC_DESIGN_DATE_AND_TIME_ASSIGNMENT ( #165, #278, ( #196 ) ) ;
#204 = PERSON_AND_ORGANIZATION_ROLE ( 'design_owner' ) ;
#205 = CARTESIAN_POINT ( 'NONE',  ( 0.0000000000000000000, 0.0000000000000000000, 0.0000000000000000000 ) ) ;
#206 = CARTESIAN_POINT ( 'NONE',  ( 1.416078206041822028E-14, -6.749999999999983125, 4.055809178436065032 ) ) ;
#207 = CARTESIAN_POINT ( 'NONE',  ( 4.669393953249827652E-13, -6.750000000000007994, 108.0000000000000000 ) ) ;
#208 = EDGE_CURVE ( 'NONE', #250, #169, #294, .T. ) ;
#209 = FACE_OUTER_BOUND ( 'NONE', #297, .T. ) ;
#210 = ORIENTED_EDGE ( 'NONE', *, *, #181, .F. ) ;
#211 = EDGE_CURVE ( 'NONE', #304, #269, #104, .T. ) ;
#212 = AXIS2_PLACEMENT_3D ( 'NONE', #329, #193, #17 ) ;
#213 = COORDINATED_UNIVERSAL_TIME_OFFSET ( 1, 0, .AHEAD. ) ;
#214 = CALENDAR_DATE ( 2021, 2, 9 ) ;
#215 = AXIS2_PLACEMENT_3D ( 'NONE', #283, #172, #23 ) ;
#216 = DIRECTION ( 'NONE',  ( -3.491481338843133355E-15, 1.224646799147353207E-16, -1.000000000000000000 ) ) ;
#217 = DATE_TIME_ROLE ( 'creation_date' ) ;
#218 = EDGE_CURVE ( 'NONE', #186, #187, #286, .T. ) ;
#219 = ORIENTED_EDGE ( 'NONE', *, *, #181, .T. ) ;
#220 = COORDINATED_UNIVERSAL_TIME_OFFSET ( 1, 0, .AHEAD. ) ;
#221 = VECTOR ( 'NONE', #139, 1000.000000000000000 ) ;
#222 = AXIS2_PLACEMENT_3D ( 'NONE', #320, #56, #262 ) ;
#223 = ORIENTED_EDGE ( 'NONE', *, *, #29, .F. ) ;
#224 =( NAMED_UNIT ( * ) PLANE_ANGLE_UNIT ( ) SI_UNIT ( $, .RADIAN. ) );
#225 = DIRECTION ( 'NONE',  ( -4.565167275584571450E-31, -1.000000000000000000, -1.284980352575416150E-16 ) ) ;
#226 = ORIENTED_EDGE ( 'NONE', *, *, #208, .F. ) ;
#227 = APPLICATION_CONTEXT ( 'configuration controlled 3d designs of mechanical parts and assemblies' ) ;
#228 = AXIS2_PLACEMENT_3D ( 'NONE', #106, #177, #284 ) ;
#229 = PLANE ( 'NONE',  #42 ) ;
#230 = DATE_AND_TIME ( #51, #276 ) ;
#231 = DIRECTION ( 'NONE',  ( -3.491481338843133355E-15, 1.224646799147353207E-16, -1.000000000000000000 ) ) ;
#232 = APPROVAL_PERSON_ORGANIZATION ( #328, #133, #188 ) ;
#233 = CYLINDRICAL_SURFACE ( 'NONE', #144, 6.749999999999988454 ) ;
#234 = DIRECTION ( 'NONE',  ( -4.565167275584571450E-31, -1.000000000000000000, -1.284980352575416150E-16 ) ) ;
#235 = CIRCLE ( 'NONE', #55, 6.750000000000000888 ) ;
#236 = FACE_OUTER_BOUND ( 'NONE', #281, .T. ) ;
#237 = CARTESIAN_POINT ( 'NONE',  ( 5.586370142149013368E-13, -1.959434878635765210E-14, 160.0000000000000000 ) ) ;
#238 = ORIENTED_EDGE ( 'NONE', *, *, #298, .F. ) ;
#239 = AXIS2_PLACEMENT_3D ( 'NONE', #311, #231, #154 ) ;
#240 = PRODUCT_RELATED_PRODUCT_CATEGORY ( 'detail', '', ( #155 ) ) ;
#241 = ORIENTED_EDGE ( 'NONE', *, *, #271, .T. ) ;
#242 = ORIENTED_EDGE ( 'NONE', *, *, #279, .F. ) ;
#243 = ADVANCED_FACE ( 'NONE', ( #123 ), #4, .T. ) ;
#244 = DIRECTION ( 'NONE',  ( -3.491481338843133355E-15, 1.224646799147353207E-16, -1.000000000000000000 ) ) ;
#245 = SECURITY_CLASSIFICATION_LEVEL ( 'unclassified' ) ;
#246 = DIRECTION ( 'NONE',  ( 3.491481338843133355E-15, -1.224646799147353207E-16, 1.000000000000000000 ) ) ;
#247 = APPROVAL_DATE_TIME ( #64, #133 ) ;
#248 = CONICAL_SURFACE ( 'NONE', #335, 6.749999999999982236, 1.029744258676649649 ) ;
#249 = CLOSED_SHELL ( 'NONE', ( #137, #243, #70, #184, #90 ) ) ;
#250 = VERTEX_POINT ( 'NONE', #157 ) ;
#251 = ADVANCED_FACE ( 'NONE', ( #26 ), #229, .F. ) ;
#252 = ORIENTED_EDGE ( 'NONE', *, *, #279, .T. ) ;
#253 = LOCAL_TIME ( 15, 38, 26.00000000000000000, #305 ) ;
#254 = CARTESIAN_POINT ( 'NONE',  ( 2.886186225980442024E-30, 6.749999999999988454, 8.266365894244620528E-16 ) ) ;
#255 = UNCERTAINTY_MEASURE_WITH_UNIT (LENGTH_MEASURE( 1.000000000000000082E-05 ), #1, 'distance_accuracy_value', 'NONE');
#256 = CIRCLE ( 'NONE', #212, 5.750000000000001776 ) ;
#257 = DIRECTION ( 'NONE',  ( -3.491481338843133355E-15, 1.224646799147353207E-16, -1.000000000000000000 ) ) ;
#258 = ADVANCED_FACE ( 'NONE', ( #5 ), #81, .T. ) ;
#259 = DIRECTION ( 'NONE',  ( 4.275831445896958607E-31, 1.000000000000000000, 1.224646799147353207E-16 ) ) ;
#260 = DIRECTION ( 'NONE',  ( -2.382254525458719047E-15, -0.7071067811865467956, -0.7071067811865483499 ) ) ;
#261 = MANIFOLD_SOLID_BREP ( 'Corps-Déplacer/Copier1[2]', #249 ) ;
#262 = DIRECTION ( 'NONE',  ( 4.565167275584571450E-31, 1.000000000000000000, 1.284980352575416150E-16 ) ) ;
#263 = FACE_OUTER_BOUND ( 'NONE', #30, .T. ) ;
#264 = AXIS2_PLACEMENT_3D ( 'NONE', #310, #244, #331 ) ;
#265 = CARTESIAN_POINT ( 'NONE',  ( 5.586370142149013368E-13, 5.749999999999981348, 160.0000000000000000 ) ) ;
#266 = LOCAL_TIME ( 15, 38, 26.00000000000000000, #288 ) ;
#267 = VECTOR ( 'NONE', #199, 1000.000000000000000 ) ;
#268 = ORIENTED_EDGE ( 'NONE', *, *, #211, .T. ) ;
#269 = VERTEX_POINT ( 'NONE', #47 ) ;
#270 = EDGE_LOOP ( 'NONE', ( #323, #32, #18 ) ) ;
#271 = EDGE_CURVE ( 'NONE', #296, #85, #149, .T. ) ;
#272 = ADVANCED_BREP_SHAPE_REPRESENTATION ( '54807', ( #31, #261, #215 ), #60 ) ;
#273 = ORIENTED_EDGE ( 'NONE', *, *, #211, .F. ) ;
#274 = PERSON_AND_ORGANIZATION_ROLE ( 'creator' ) ;
#275 = SHAPE_DEFINITION_REPRESENTATION ( #107, #272 ) ;
#276 = LOCAL_TIME ( 15, 38, 26.00000000000000000, #40 ) ;
#277 = DIRECTION ( 'NONE',  ( 1.903218546456022717E-15, 0.8571673007021097801, 0.5150380749100585964 ) ) ;
#278 = DATE_TIME_ROLE ( 'classification_date' ) ;
#279 = EDGE_CURVE ( 'NONE', #169, #186, #126, .T. ) ;
#280 = CARTESIAN_POINT ( 'NONE',  ( 1.416078206041822028E-14, -6.749999999999983125, 4.055809178436065032 ) ) ;
#281 = EDGE_LOOP ( 'NONE', ( #242, #159, #96, #13 ) ) ;
#282 = CARTESIAN_POINT ( 'NONE',  ( 3.770799845950584024E-13, 6.749999999999981348, 108.0000000000000000 ) ) ;
#283 = CARTESIAN_POINT ( 'NONE',  ( 0.0000000000000000000, 0.0000000000000000000, 0.0000000000000000000 ) ) ;
#284 = DIRECTION ( 'NONE',  ( 4.275831445896958607E-31, 1.000000000000000000, 1.224646799147353207E-16 ) ) ;
#285 = EDGE_CURVE ( 'NONE', #269, #134, #202, .T. ) ;
#286 = CIRCLE ( 'NONE', #222, 6.749999999999982236 ) ;
#287 = CARTESIAN_POINT ( 'NONE',  ( 5.586370142149013368E-13, -1.959434878635765210E-14, 160.0000000000000000 ) ) ;
#288 = COORDINATED_UNIVERSAL_TIME_OFFSET ( 1, 0, .AHEAD. ) ;
#289 = CARTESIAN_POINT ( 'NONE',  ( 5.593411861244110576E-13, -5.750000000000021316, 160.0000000000000000 ) ) ;
#290 = AXIS2_PLACEMENT_3D ( 'NONE', #179, #295, #95 ) ;
#291 = CC_DESIGN_PERSON_AND_ORGANIZATION_ASSIGNMENT ( #332, #204, ( #155 ) ) ;
#292 = CARTESIAN_POINT ( 'NONE',  ( 2.886186225980445877E-30, 6.749999999999997335, 8.266365894244631375E-16 ) ) ;
#293 = DIRECTION ( 'NONE',  ( -3.491481338843133355E-15, 1.224646799147353207E-16, -1.000000000000000000 ) ) ;
#294 = CIRCLE ( 'NONE', #156, 6.749999999999994671 ) ;
#295 = DIRECTION ( 'NONE',  ( -3.491481338843133355E-15, 1.224646799147353207E-16, -1.000000000000000000 ) ) ;
#296 = VERTEX_POINT ( 'NONE', #173 ) ;
#297 = EDGE_LOOP ( 'NONE', ( #19, #238 ) ) ;
#298 = EDGE_CURVE ( 'NONE', #304, #197, #194, .T. ) ;
#299 = CIRCLE ( 'NONE', #110, 6.749999999999994671 ) ;
#300 = PERSON_AND_ORGANIZATION ( #89, #307 ) ;
#301 = EDGE_LOOP ( 'NONE', ( #69, #252, #112, #223 ) ) ;
#302 = CALENDAR_DATE ( 2021, 2, 9 ) ;
#303 = AXIS2_PLACEMENT_3D ( 'NONE', #190, #91, #98 ) ;
#304 = VERTEX_POINT ( 'NONE', #57 ) ;
#305 = COORDINATED_UNIVERSAL_TIME_OFFSET ( 1, 0, .AHEAD. ) ;
#306 = ADVANCED_FACE ( 'NONE', ( #209 ), #7, .F. ) ;
#307 = ORGANIZATION ( 'UNSPECIFIED', 'UNSPECIFIED', '' ) ;
#308 = DIRECTION ( 'NONE',  ( -3.491481338843133355E-15, 1.224646799147353207E-16, -1.000000000000000000 ) ) ;
#309 = ORIENTED_EDGE ( 'NONE', *, *, #192, .T. ) ;
#310 = CARTESIAN_POINT ( 'NONE',  ( 5.551455328760582161E-13, -1.947188410644291696E-14, 159.0000000000000000 ) ) ;
#311 = CARTESIAN_POINT ( 'NONE',  ( 3.770799845950584024E-13, -1.322618543079141493E-14, 108.0000000000000000 ) ) ;
#312 = ADVANCED_FACE ( 'NONE', ( #132 ), #141, .T. ) ;
#313 = LOCAL_TIME ( 15, 38, 26.00000000000000000, #220 ) ;
#314 = APPROVAL_ROLE ( '' ) ;
#315 = CARTESIAN_POINT ( 'NONE',  ( 8.266365894244602779E-16, -6.749999999999997335, -8.266365894244658985E-16 ) ) ;
#316 = APPROVAL_DATE_TIME ( #230, #103 ) ;
#317 = DIRECTION ( 'NONE',  ( 4.275831445896958607E-31, 1.000000000000000000, 1.224646799147353207E-16 ) ) ;
#318 = EDGE_CURVE ( 'NONE', #169, #250, #166, .T. ) ;
#319 = CARTESIAN_POINT ( 'NONE',  ( 1.416078206041822343E-14, -4.966933728324183681E-16, 4.055809178436065920 ) ) ;
#320 = CARTESIAN_POINT ( 'NONE',  ( 1.416078206041822343E-14, -4.966933728324183681E-16, 4.055809178436065920 ) ) ;
#321 = DIRECTION ( 'NONE',  ( -3.491481338843133355E-15, 1.224646799147353207E-16, -1.000000000000000000 ) ) ;
#322 = CC_DESIGN_APPROVAL ( #103, ( #160 ) ) ;
#323 = ORIENTED_EDGE ( 'NONE', *, *, #115, .F. ) ;
#324 = CONICAL_SURFACE ( 'NONE', #168, 5.750000000000001776, 0.7853981633974473908 ) ;
#325 = CC_DESIGN_PERSON_AND_ORGANIZATION_ASSIGNMENT ( #16, #191, ( #196 ) ) ;
#326 = DATE_AND_TIME ( #214, #53 ) ;
#327 = CARTESIAN_POINT ( 'NONE',  ( 1.416078206041822343E-14, -4.966933728324183681E-16, 4.055809178436065920 ) ) ;
#328 = PERSON_AND_ORGANIZATION ( #89, #307 ) ;
#329 = CARTESIAN_POINT ( 'NONE',  ( 5.586370142149013368E-13, -1.959434878635765210E-14, 160.0000000000000000 ) ) ;
#330 = PERSON_AND_ORGANIZATION ( #89, #307 ) ;
#331 = DIRECTION ( 'NONE',  ( 0.0000000000000000000, 1.000000000000000000, 0.0000000000000000000 ) ) ;
#332 = PERSON_AND_ORGANIZATION ( #89, #307 ) ;
#333 = ORIENTED_EDGE ( 'NONE', *, *, #298, .T. ) ;
#334 = ORIENTED_EDGE ( 'NONE', *, *, #8, .T. ) ;
#335 = AXIS2_PLACEMENT_3D ( 'NONE', #327, #246, #225 ) ;
#336 = ADVANCED_FACE ( 'NONE', ( #195 ), #49, .T. ) ;
#337 = DIRECTION ( 'NONE',  ( -3.491481338843133355E-15, 1.224646799147353207E-16, -1.000000000000000000 ) ) ;
ENDSEC;
END-ISO-10303-21;
