ISO-10303-21;
HEADER;
FILE_DESCRIPTION (( 'STEP AP203' ),
    '1' );
FILE_NAME ('54804.step',
    '2021-09-02T13:38:26',
    ( '' ),
    ( '' ),
    'SwSTEP 2.0',
    'SolidWorks 2019',
    '' );
FILE_SCHEMA (( 'CONFIG_CONTROL_DESIGN' ));
ENDSEC;

DATA;
#1 = COORDINATED_UNIVERSAL_TIME_OFFSET ( 1, 0, .AHEAD. ) ;
#2 = LINE ( 'NONE', #233, #240 ) ;
#3 = DATE_AND_TIME ( #26, #225 ) ;
#4 = CARTESIAN_POINT ( 'NONE',  ( 0.0000000000000000000, 0.0000000000000000000, 0.0000000000000000000 ) ) ;
#5 = AXIS2_PLACEMENT_3D ( 'NONE', #74, #98, #308 ) ;
#6 = AXIS2_PLACEMENT_3D ( 'NONE', #313, #52, #156 ) ;
#7 = CARTESIAN_POINT ( 'NONE',  ( 5.272136821653131493E-13, 5.499999999999981348, 151.0000000000000000 ) ) ;
#8 = CARTESIAN_POINT ( 'NONE',  ( 0.0000000000000000000, 0.0000000000000000000, 0.0000000000000000000 ) ) ;
#9 = EDGE_CURVE ( 'NONE', #38, #148, #117, .T. ) ;
#10 = CARTESIAN_POINT ( 'NONE',  ( 3.526396152231565067E-13, -1.236893267138826732E-14, 101.0000000000000000 ) ) ;
#11 = AXIS2_PLACEMENT_3D ( 'NONE', #237, #170, #43 ) ;
#12 = EDGE_CURVE ( 'NONE', #67, #148, #299, .T. ) ;
#13 = CIRCLE ( 'NONE', #130, 6.499999999999993783 ) ;
#14 = CALENDAR_DATE ( 2021, 2, 9 ) ;
#15 = DIRECTION ( 'NONE',  ( -4.275831445896958607E-31, -1.000000000000000000, -1.224646799147353207E-16 ) ) ;
#16 = ORIENTED_EDGE ( 'NONE', *, *, #108, .T. ) ;
#17 = CIRCLE ( 'NONE', #5, 6.500000000000000000 ) ;
#18 = AXIS2_PLACEMENT_3D ( 'NONE', #8, #81, #105 ) ;
#19 = ORIENTED_EDGE ( 'NONE', *, *, #310, .F. ) ;
#20 = VECTOR ( 'NONE', #73, 1000.000000000000000 ) ;
#21 = FACE_OUTER_BOUND ( 'NONE', #48, .T. ) ;
#22 = ORIENTED_EDGE ( 'NONE', *, *, #193, .T. ) ;
#23 = PERSON_AND_ORGANIZATION ( #267, #232 ) ;
#24 = DIRECTION ( 'NONE',  ( -3.491481338843133355E-15, 1.224646799147353207E-16, -1.000000000000000000 ) ) ;
#25 = ADVANCED_FACE ( 'NONE', ( #21 ), #230, .T. ) ;
#26 = CALENDAR_DATE ( 2021, 2, 9 ) ;
#27 = FACE_OUTER_BOUND ( 'NONE', #92, .T. ) ;
#28 = DIRECTION ( 'NONE',  ( -2.382254525458717469E-15, -0.7071067811865471286, -0.7071067811865479058 ) ) ;
#29 = APPROVAL_PERSON_ORGANIZATION ( #23, #120, #123 ) ;
#30 = APPLICATION_CONTEXT ( 'configuration controlled 3d designs of mechanical parts and assemblies' ) ;
#31 = CARTESIAN_POINT ( 'NONE',  ( 5.272136821653131493E-13, -1.849216666712503261E-14, 151.0000000000000000 ) ) ;
#32 = EDGE_CURVE ( 'NONE', #38, #138, #111, .T. ) ;
#33 = DIRECTION ( 'NONE',  ( -3.491481338843133355E-15, 1.224646799147353207E-16, -1.000000000000000000 ) ) ;
#34 = EDGE_CURVE ( 'NONE', #70, #38, #65, .T. ) ;
#35 = APPROVAL_ROLE ( '' ) ;
#36 = CIRCLE ( 'NONE', #319, 6.499999999999982236 ) ;
#37 = PERSON_AND_ORGANIZATION ( #267, #232 ) ;
#38 = VERTEX_POINT ( 'NONE', #79 ) ;
#39 = DIRECTION ( 'NONE',  ( -4.740750632337824266E-31, -1.000000000000000000, -1.334402673828316790E-16 ) ) ;
#40 = DESIGN_CONTEXT ( 'detailed design', #184, 'design' ) ;
#41 = PERSON_AND_ORGANIZATION ( #267, #232 ) ;
#42 = ORIENTED_EDGE ( 'NONE', *, *, #34, .T. ) ;
#43 = DIRECTION ( 'NONE',  ( 1.000000000000000000, 0.0000000000000000000, 0.0000000000000000000 ) ) ;
#44 = CC_DESIGN_PERSON_AND_ORGANIZATION_ASSIGNMENT ( #54, #151, ( #256 ) ) ;
#45 = ORIENTED_EDGE ( 'NONE', *, *, #141, .F. ) ;
#46 = PRODUCT_DEFINITION_FORMATION_WITH_SPECIFIED_SOURCE ( 'ANY', '', #247, .NOT_KNOWN. ) ;
#47 = DIRECTION ( 'NONE',  ( 0.0000000000000000000, 1.000000000000000000, 0.0000000000000000000 ) ) ;
#48 = EDGE_LOOP ( 'NONE', ( #19, #320 ) ) ;
#49 = SHAPE_DEFINITION_REPRESENTATION ( #329, #50 ) ;
#50 = ADVANCED_BREP_SHAPE_REPRESENTATION ( '54804', ( #155, #158, #11 ), #335 ) ;
#51 = PERSON_AND_ORGANIZATION ( #267, #232 ) ;
#52 = DIRECTION ( 'NONE',  ( 3.491481338843133355E-15, -1.224646799147353207E-16, 1.000000000000000000 ) ) ;
#53 = APPROVAL_PERSON_ORGANIZATION ( #162, #201, #35 ) ;
#54 = PERSON_AND_ORGANIZATION ( #267, #232 ) ;
#55 = DIRECTION ( 'NONE',  ( -3.491481338843133355E-15, 1.224646799147353207E-16, -1.000000000000000000 ) ) ;
#56 = FACE_OUTER_BOUND ( 'NONE', #163, .T. ) ;
#57 = FACE_OUTER_BOUND ( 'NONE', #326, .T. ) ;
#58 = ADVANCED_FACE ( 'NONE', ( #261 ), #287, .T. ) ;
#59 = CARTESIAN_POINT ( 'NONE',  ( 5.272136821653131493E-13, -1.849216666712503261E-14, 151.0000000000000000 ) ) ;
#60 = DIRECTION ( 'NONE',  ( 0.0000000000000000000, 1.000000000000000000, 0.0000000000000000000 ) ) ;
#61 = EDGE_LOOP ( 'NONE', ( #277, #215 ) ) ;
#62 = APPROVAL ( #218, 'UNSPECIFIED' ) ;
#63 = PERSON_AND_ORGANIZATION_ROLE ( 'creator' ) ;
#64 = AXIS2_PLACEMENT_3D ( 'NONE', #187, #76, #180 ) ;
#65 = LINE ( 'NONE', #181, #331 ) ;
#66 = APPROVAL_ROLE ( '' ) ;
#67 = VERTEX_POINT ( 'NONE', #7 ) ;
#68 = EDGE_CURVE ( 'NONE', #148, #272, #259, .T. ) ;
#69 = ORIENTED_EDGE ( 'NONE', *, *, #91, .F. ) ;
#70 = VERTEX_POINT ( 'NONE', #75 ) ;
#71 = SECURITY_CLASSIFICATION ( '', '', #290 ) ;
#72 = AXIS2_PLACEMENT_3D ( 'NONE', #59, #24, #154 ) ;
#73 = DIRECTION ( 'NONE',  ( -3.491481338843133355E-15, 1.224646799147353207E-16, -1.000000000000000000 ) ) ;
#74 = CARTESIAN_POINT ( 'NONE',  ( 5.237222008264700285E-13, -1.836970198721029747E-14, 150.0000000000000000 ) ) ;
#75 = CARTESIAN_POINT ( 'NONE',  ( 5.262027295753799998E-13, -5.500000000000017764, 151.0000000000000000 ) ) ;
#76 = DIRECTION ( 'NONE',  ( -3.491481338843133355E-15, 1.224646799147353207E-16, -1.000000000000000000 ) ) ;
#77 = PLANE ( 'NONE',  #190 ) ;
#78 = DIRECTION ( 'NONE',  ( -3.491481338843133355E-15, 1.224646799147353207E-16, -1.000000000000000000 ) ) ;
#79 = CARTESIAN_POINT ( 'NONE',  ( 4.389769284442589578E-13, -6.500000000000018652, 150.0000000000000000 ) ) ;
#80 = DIRECTION ( 'NONE',  ( -3.491481338843133355E-15, 1.224646799147353207E-16, -1.000000000000000000 ) ) ;
#81 = DIRECTION ( 'NONE',  ( -3.491481338843133355E-15, 1.224646799147353207E-16, -1.000000000000000000 ) ) ;
#82 = CIRCLE ( 'NONE', #64, 6.499999999999993783 ) ;
#83 = DIRECTION ( 'NONE',  ( 0.0000000000000000000, 1.000000000000000000, 0.0000000000000000000 ) ) ;
#84 = CC_DESIGN_APPROVAL ( #120, ( #256 ) ) ;
#85 = VECTOR ( 'NONE', #316, 1000.000000000000000 ) ;
#86 = ORIENTED_EDGE ( 'NONE', *, *, #268, .T. ) ;
#87 = ADVANCED_FACE ( 'NONE', ( #56 ), #291, .T. ) ;
#88 = ORIENTED_EDGE ( 'NONE', *, *, #141, .T. ) ;
#89 = DIRECTION ( 'NONE',  ( -3.491481338843133355E-15, 1.224646799147353207E-16, -1.000000000000000000 ) ) ;
#90 = ORIENTED_EDGE ( 'NONE', *, *, #9, .F. ) ;
#91 = EDGE_CURVE ( 'NONE', #67, #70, #210, .T. ) ;
#92 = EDGE_LOOP ( 'NONE', ( #199, #229, #274, #174 ) ) ;
#93 = APPROVAL_STATUS ( 'not_yet_approved' ) ;
#94 = ORIENTED_EDGE ( 'NONE', *, *, #32, .T. ) ;
#95 = DIRECTION ( 'NONE',  ( 3.491481338843133355E-15, -1.224646799147353207E-16, 1.000000000000000000 ) ) ;
#96 = ADVANCED_FACE ( 'NONE', ( #239 ), #185, .F. ) ;
#97 = DIRECTION ( 'NONE',  ( -3.491481338843133355E-15, 1.224646799147353207E-16, -1.000000000000000000 ) ) ;
#98 = DIRECTION ( 'NONE',  ( -3.491481338843133355E-15, 1.224646799147353207E-16, -1.000000000000000000 ) ) ;
#99 = CARTESIAN_POINT ( 'NONE',  ( 3.526396152231565067E-13, 6.499999999999981348, 101.0000000000000000 ) ) ;
#100 = DIRECTION ( 'NONE',  ( 4.740750632337824266E-31, 1.000000000000000000, 1.334402673828316790E-16 ) ) ;
#101 = CARTESIAN_POINT ( 'NONE',  ( 4.389769284442590587E-13, -6.500000000000005329, 101.0000000000000000 ) ) ;
#102 = ADVANCED_FACE ( 'NONE', ( #262 ), #103, .T. ) ;
#103 = CONICAL_SURFACE ( 'NONE', #136, 5.500000000000000000, 0.7853981633974479459 ) ;
#104 = CARTESIAN_POINT ( 'NONE',  ( 2.779290439833021956E-30, 6.499999999999997335, 7.960204194457792519E-16 ) ) ;
#105 = DIRECTION ( 'NONE',  ( 4.275831445896958607E-31, 1.000000000000000000, 1.224646799147353207E-16 ) ) ;
#106 = DIRECTION ( 'NONE',  ( -3.491481338843133355E-15, 1.224646799147353207E-16, -1.000000000000000000 ) ) ;
#107 = AXIS2_PLACEMENT_3D ( 'NONE', #200, #139, #39 ) ;
#108 = EDGE_CURVE ( 'NONE', #145, #321, #236, .T. ) ;
#109 = COORDINATED_UNIVERSAL_TIME_OFFSET ( 1, 0, .AHEAD. ) ;
#110 = AXIS2_PLACEMENT_3D ( 'NONE', #4, #33, #293 ) ;
#111 = LINE ( 'NONE', #204, #20 ) ;
#112 = FACE_OUTER_BOUND ( 'NONE', #114, .T. ) ;
#113 = AXIS2_PLACEMENT_3D ( 'NONE', #265, #97, #309 ) ;
#114 = EDGE_LOOP ( 'NONE', ( #253, #88, #223 ) ) ;
#115 = CARTESIAN_POINT ( 'NONE',  ( 1.839339823564103179E-13, -6.500000000000005329, 101.0000000000000000 ) ) ;
#116 = ORIENTED_EDGE ( 'NONE', *, *, #91, .T. ) ;
#117 = CIRCLE ( 'NONE', #182, 6.500000000000000000 ) ;
#118 = AXIS2_PLACEMENT_3D ( 'NONE', #334, #95, #15 ) ;
#119 = ORIENTED_EDGE ( 'NONE', *, *, #12, .T. ) ;
#120 = APPROVAL ( #93, 'UNSPECIFIED' ) ;
#121 = DIRECTION ( 'NONE',  ( 1.903218546456021928E-15, 0.8571673007021098911, 0.5150380749100583744 ) ) ;
#122 = LOCAL_TIME ( 15, 38, 26.00000000000000000, #1 ) ;
#123 = APPROVAL_ROLE ( '' ) ;
#124 = DIRECTION ( 'NONE',  ( 3.491481338843133355E-15, -1.224646799147353207E-16, 1.000000000000000000 ) ) ;
#125 = CARTESIAN_POINT ( 'NONE',  ( 1.443232907021888064E-14, 6.499999999999981348, 3.905594023679173965 ) ) ;
#126 = CYLINDRICAL_SURFACE ( 'NONE', #110, 6.499999999999988454 ) ;
#127 = CC_DESIGN_PERSON_AND_ORGANIZATION_ASSIGNMENT ( #51, #258, ( #247 ) ) ;
#128 = DIRECTION ( 'NONE',  ( -3.491481338843133355E-15, 1.224646799147353207E-16, -1.000000000000000000 ) ) ;
#129 = AXIS2_PLACEMENT_3D ( 'NONE', #194, #275, #278 ) ;
#130 = AXIS2_PLACEMENT_3D ( 'NONE', #10, #106, #60 ) ;
#131 = DIRECTION ( 'NONE',  ( -3.491481338843133355E-15, 1.224646799147353207E-16, -1.000000000000000000 ) ) ;
#132 = CARTESIAN_POINT ( 'NONE',  ( 2.779290439833018102E-30, 6.499999999999988454, 7.960204194457781672E-16 ) ) ;
#133 = EDGE_CURVE ( 'NONE', #332, #171, #314, .T. ) ;
#134 = CC_DESIGN_DATE_AND_TIME_ASSIGNMENT ( #167, #297, ( #71 ) ) ;
#135 = COORDINATED_UNIVERSAL_TIME_OFFSET ( 1, 0, .AHEAD. ) ;
#136 = AXIS2_PLACEMENT_3D ( 'NONE', #238, #128, #266 ) ;
#137 = PERSON_AND_ORGANIZATION_ROLE ( 'classification_officer' ) ;
#138 = VERTEX_POINT ( 'NONE', #101 ) ;
#139 = DIRECTION ( 'NONE',  ( 3.491481338843133355E-15, -1.224646799147353207E-16, 1.000000000000000000 ) ) ;
#140 = PERSON_AND_ORGANIZATION_ROLE ( 'design_supplier' ) ;
#141 = EDGE_CURVE ( 'NONE', #145, #171, #2, .T. ) ;
#142 = ORIENTED_EDGE ( 'NONE', *, *, #9, .T. ) ;
#143 =( NAMED_UNIT ( * ) SI_UNIT ( $, .STERADIAN. ) SOLID_ANGLE_UNIT ( ) );
#144 = AXIS2_PLACEMENT_3D ( 'NONE', #31, #131, #205 ) ;
#145 = VERTEX_POINT ( 'NONE', #315 ) ;
#146 = CARTESIAN_POINT ( 'NONE',  ( 5.272136821653131493E-13, 5.499999999999981348, 151.0000000000000000 ) ) ;
#147 = CC_DESIGN_PERSON_AND_ORGANIZATION_ASSIGNMENT ( #322, #63, ( #46 ) ) ;
#148 = VERTEX_POINT ( 'NONE', #208 ) ;
#149 = FACE_OUTER_BOUND ( 'NONE', #165, .T. ) ;
#150 = CC_DESIGN_PERSON_AND_ORGANIZATION_ASSIGNMENT ( #37, #137, ( #71 ) ) ;
#151 = PERSON_AND_ORGANIZATION_ROLE ( 'creator' ) ;
#152 = DIRECTION ( 'NONE',  ( 4.275831445896958607E-31, 1.000000000000000000, 1.224646799147353207E-16 ) ) ;
#153 = VECTOR ( 'NONE', #254, 999.9999999999998863 ) ;
#154 = DIRECTION ( 'NONE',  ( 0.0000000000000000000, 1.000000000000000000, 0.0000000000000000000 ) ) ;
#155 = MANIFOLD_SOLID_BREP ( 'Corps-Déplacer/Copier1[1]', #330 ) ;
#156 = DIRECTION ( 'NONE',  ( -4.740750632337824266E-31, -1.000000000000000000, -1.334402673828316790E-16 ) ) ;
#157 = CONICAL_SURFACE ( 'NONE', #107, 6.499999999999982236, 1.029744258676649871 ) ;
#158 = MANIFOLD_SOLID_BREP ( 'Corps-Déplacer/Copier1[2]', #288 ) ;
#159 = DIRECTION ( 'NONE',  ( -4.275831445896958607E-31, -1.000000000000000000, -1.224646799147353207E-16 ) ) ;
#160 = LINE ( 'NONE', #132, #85 ) ;
#161 = ADVANCED_FACE ( 'NONE', ( #149 ), #245, .T. ) ;
#162 = PERSON_AND_ORGANIZATION ( #267, #232 ) ;
#163 = EDGE_LOOP ( 'NONE', ( #86, #94, #327, #303 ) ) ;
#164 = CC_DESIGN_APPROVAL ( #201, ( #71 ) ) ;
#165 = EDGE_LOOP ( 'NONE', ( #45, #16, #281 ) ) ;
#166 =( NAMED_UNIT ( * ) PLANE_ANGLE_UNIT ( ) SI_UNIT ( $, .RADIAN. ) );
#167 = DATE_AND_TIME ( #14, #317 ) ;
#168 = DATE_AND_TIME ( #220, #311 ) ;
#169 = ORIENTED_EDGE ( 'NONE', *, *, #133, .T. ) ;
#170 = DIRECTION ( 'NONE',  ( 0.0000000000000000000, 0.0000000000000000000, 1.000000000000000000 ) ) ;
#171 = VERTEX_POINT ( 'NONE', #289 ) ;
#172 = CC_DESIGN_APPROVAL ( #62, ( #46 ) ) ;
#173 = AXIS2_PLACEMENT_3D ( 'NONE', #214, #242, #83 ) ;
#174 = ORIENTED_EDGE ( 'NONE', *, *, #294, .F. ) ;
#175 = EDGE_LOOP ( 'NONE', ( #255, #169, #302, #191 ) ) ;
#176 = DIRECTION ( 'NONE',  ( 0.0000000000000000000, 1.000000000000000000, 0.0000000000000000000 ) ) ;
#177 = DIRECTION ( 'NONE',  ( -3.491481338843133355E-15, 1.224646799147353207E-16, -1.000000000000000000 ) ) ;
#178 = DATE_AND_TIME ( #206, #122 ) ;
#179 = CARTESIAN_POINT ( 'NONE',  ( 1.443232907021888064E-14, 6.499999999999981348, 3.905594023679173965 ) ) ;
#180 = DIRECTION ( 'NONE',  ( 0.0000000000000000000, 1.000000000000000000, 0.0000000000000000000 ) ) ;
#181 = CARTESIAN_POINT ( 'NONE',  ( 5.278872379048442304E-13, -5.500000000000017764, 151.0000000000000000 ) ) ;
#182 = AXIS2_PLACEMENT_3D ( 'NONE', #221, #280, #47 ) ;
#183 = CARTESIAN_POINT ( 'NONE',  ( 7.960204194457754062E-16, -6.499999999999988454, -7.960204194457809282E-16 ) ) ;
#184 = APPLICATION_CONTEXT ( 'configuration controlled 3d designs of mechanical parts and assemblies' ) ;
#185 = PLANE ( 'NONE',  #252 ) ;
#186 = VECTOR ( 'NONE', #307, 1000.000000000000000 ) ;
#187 = CARTESIAN_POINT ( 'NONE',  ( 3.526396152231565067E-13, -1.236893267138826732E-14, 101.0000000000000000 ) ) ;
#188 = ADVANCED_FACE ( 'NONE', ( #57 ), #337, .T. ) ;
#189 = CIRCLE ( 'NONE', #195, 6.499999999999982236 ) ;
#190 = AXIS2_PLACEMENT_3D ( 'NONE', #285, #55, #152 ) ;
#191 = ORIENTED_EDGE ( 'NONE', *, *, #244, .F. ) ;
#192 = ORIENTED_EDGE ( 'NONE', *, *, #34, .F. ) ;
#193 = EDGE_CURVE ( 'NONE', #70, #67, #217, .T. ) ;
#194 = CARTESIAN_POINT ( 'NONE',  ( 5.272136821653131493E-13, -1.849216666712503261E-14, 151.0000000000000000 ) ) ;
#195 = AXIS2_PLACEMENT_3D ( 'NONE', #224, #312, #100 ) ;
#196 = PERSON_AND_ORGANIZATION ( #267, #232 ) ;
#197 = VERTEX_POINT ( 'NONE', #99 ) ;
#198 = MECHANICAL_CONTEXT ( 'NONE', #30, 'mechanical' ) ;
#199 = ORIENTED_EDGE ( 'NONE', *, *, #133, .F. ) ;
#200 = CARTESIAN_POINT ( 'NONE',  ( 1.363630865077310060E-14, -4.782973219867731009E-16, 3.905594023679173077 ) ) ;
#201 = APPROVAL ( #270, 'UNSPECIFIED' ) ;
#202 = ORIENTED_EDGE ( 'NONE', *, *, #12, .F. ) ;
#203 = VECTOR ( 'NONE', #177, 1000.000000000000000 ) ;
#204 = CARTESIAN_POINT ( 'NONE',  ( 7.960204194457764908E-16, -6.499999999999997335, -7.960204194457819143E-16 ) ) ;
#205 = DIRECTION ( 'NONE',  ( 0.0000000000000000000, 1.000000000000000000, 0.0000000000000000000 ) ) ;
#206 = CALENDAR_DATE ( 2021, 2, 9 ) ;
#207 = FACE_OUTER_BOUND ( 'NONE', #301, .T. ) ;
#208 = CARTESIAN_POINT ( 'NONE',  ( 5.237222008264700285E-13, 6.499999999999981348, 150.0000000000000000 ) ) ;
#209 = LOCAL_TIME ( 15, 38, 26.00000000000000000, #135 ) ;
#210 = CIRCLE ( 'NONE', #72, 5.500000000000000000 ) ;
#211 = CARTESIAN_POINT ( 'NONE',  ( 0.0000000000000000000, 0.0000000000000000000, 0.0000000000000000000 ) ) ;
#212 = ADVANCED_FACE ( 'NONE', ( #207 ), #77, .F. ) ;
#213 = CARTESIAN_POINT ( 'NONE',  ( 3.526396152231565067E-13, 4.874219293651014235E-32, 101.0000000000000000 ) ) ;
#214 = CARTESIAN_POINT ( 'NONE',  ( 3.526396152231565067E-13, -1.236893267138826732E-14, 101.0000000000000000 ) ) ;
#215 = ORIENTED_EDGE ( 'NONE', *, *, #246, .T. ) ;
#216 = APPROVAL_PERSON_ORGANIZATION ( #196, #62, #66 ) ;
#217 = CIRCLE ( 'NONE', #144, 5.500000000000000000 ) ;
#218 = APPROVAL_STATUS ( 'not_yet_approved' ) ;
#219 = EDGE_LOOP ( 'NONE', ( #192, #22, #119, #90 ) ) ;
#220 = CALENDAR_DATE ( 2021, 2, 9 ) ;
#221 = CARTESIAN_POINT ( 'NONE',  ( 5.237222008264700285E-13, -1.836970198721029747E-14, 150.0000000000000000 ) ) ;
#222 = CARTESIAN_POINT ( 'NONE',  ( 3.526396152231565067E-13, 6.499999999999981348, 101.0000000000000000 ) ) ;
#223 = ORIENTED_EDGE ( 'NONE', *, *, #294, .T. ) ;
#224 = CARTESIAN_POINT ( 'NONE',  ( 1.363630865077310060E-14, -4.782973219867731009E-16, 3.905594023679173077 ) ) ;
#225 = LOCAL_TIME ( 15, 38, 26.00000000000000000, #260 ) ;
#226 = ORIENTED_EDGE ( 'NONE', *, *, #68, .T. ) ;
#227 = APPLICATION_PROTOCOL_DEFINITION ( 'international standard', 'config_control_design', 1994, #184 ) ;
#228 = ADVANCED_FACE ( 'NONE', ( #27 ), #126, .T. ) ;
#229 = ORIENTED_EDGE ( 'NONE', *, *, #263, .T. ) ;
#230 = PLANE ( 'NONE',  #118 ) ;
#231 = UNCERTAINTY_MEASURE_WITH_UNIT (LENGTH_MEASURE( 1.000000000000000082E-05 ), #235, 'distance_accuracy_value', 'NONE');
#232 = ORGANIZATION ( 'UNSPECIFIED', 'UNSPECIFIED', '' ) ;
#233 = CARTESIAN_POINT ( 'NONE',  ( 1.363630865077309744E-14, -6.499999999999983125, 3.905594023679172633 ) ) ;
#234 = PRODUCT_RELATED_PRODUCT_CATEGORY ( 'detail', '', ( #247 ) ) ;
#235 =( LENGTH_UNIT ( ) NAMED_UNIT ( * ) SI_UNIT ( .MILLI., .METRE. ) );
#236 = LINE ( 'NONE', #179, #296 ) ;
#237 = CARTESIAN_POINT ( 'NONE',  ( 0.0000000000000000000, 0.0000000000000000000, 0.0000000000000000000 ) ) ;
#238 = CARTESIAN_POINT ( 'NONE',  ( 5.272136821653131493E-13, -1.849216666712503261E-14, 151.0000000000000000 ) ) ;
#239 = FACE_OUTER_BOUND ( 'NONE', #61, .T. ) ;
#240 = VECTOR ( 'NONE', #282, 1000.000000000000000 ) ;
#241 = DIRECTION ( 'NONE',  ( 4.275831445896958607E-31, 1.000000000000000000, 1.224646799147353207E-16 ) ) ;
#242 = DIRECTION ( 'NONE',  ( -3.491481338843133355E-15, 1.224646799147353207E-16, -1.000000000000000000 ) ) ;
#243 = CC_DESIGN_SECURITY_CLASSIFICATION ( #71, ( #46 ) ) ;
#244 = EDGE_CURVE ( 'NONE', #197, #321, #160, .T. ) ;
#245 = CONICAL_SURFACE ( 'NONE', #6, 6.499999999999982236, 1.029744258676649871 ) ;
#246 = EDGE_CURVE ( 'NONE', #138, #272, #13, .T. ) ;
#247 = PRODUCT ( '54804', '54804', '', ( #198 ) ) ;
#248 = ORIENTED_EDGE ( 'NONE', *, *, #268, .F. ) ;
#249 = DIRECTION ( 'NONE',  ( 4.740750632337824266E-31, 1.000000000000000000, 1.334402673828316790E-16 ) ) ;
#250 = EDGE_CURVE ( 'NONE', #272, #138, #292, .T. ) ;
#251 = ORIENTED_EDGE ( 'NONE', *, *, #32, .F. ) ;
#252 = AXIS2_PLACEMENT_3D ( 'NONE', #213, #124, #159 ) ;
#253 = ORIENTED_EDGE ( 'NONE', *, *, #108, .F. ) ;
#254 = DIRECTION ( 'NONE',  ( -2.468850131082266527E-15, 0.7071067811865473507, -0.7071067811865477948 ) ) ;
#255 = ORIENTED_EDGE ( 'NONE', *, *, #310, .T. ) ;
#256 = PRODUCT_DEFINITION ( 'UNKNOWN', '', #46, #40 ) ;
#257 = CIRCLE ( 'NONE', #273, 6.499999999999993783 ) ;
#258 = PERSON_AND_ORGANIZATION_ROLE ( 'design_owner' ) ;
#259 = LINE ( 'NONE', #104, #203 ) ;
#260 = COORDINATED_UNIVERSAL_TIME_OFFSET ( 1, 0, .AHEAD. ) ;
#261 = FACE_OUTER_BOUND ( 'NONE', #175, .T. ) ;
#262 = FACE_OUTER_BOUND ( 'NONE', #219, .T. ) ;
#263 = EDGE_CURVE ( 'NONE', #332, #197, #82, .T. ) ;
#264 = CALENDAR_DATE ( 2021, 2, 9 ) ;
#265 = CARTESIAN_POINT ( 'NONE',  ( 0.0000000000000000000, 0.0000000000000000000, 0.0000000000000000000 ) ) ;
#266 = DIRECTION ( 'NONE',  ( 0.0000000000000000000, 1.000000000000000000, 0.0000000000000000000 ) ) ;
#267 = PERSON ( 'UNSPECIFIED', 'UNSPECIFIED', 'UNSPECIFIED', ('UNSPECIFIED'), ('UNSPECIFIED'), ('UNSPECIFIED') ) ;
#268 = EDGE_CURVE ( 'NONE', #148, #38, #17, .T. ) ;
#269 = COORDINATED_UNIVERSAL_TIME_OFFSET ( 1, 0, .AHEAD. ) ;
#270 = APPROVAL_STATUS ( 'not_yet_approved' ) ;
#271 = ADVANCED_FACE ( 'NONE', ( #112 ), #157, .T. ) ;
#272 = VERTEX_POINT ( 'NONE', #222 ) ;
#273 = AXIS2_PLACEMENT_3D ( 'NONE', #300, #78, #176 ) ;
#274 = ORIENTED_EDGE ( 'NONE', *, *, #244, .T. ) ;
#275 = DIRECTION ( 'NONE',  ( -3.491481338843133355E-15, 1.224646799147353207E-16, -1.000000000000000000 ) ) ;
#276 = APPROVAL_DATE_TIME ( #168, #62 ) ;
#277 = ORIENTED_EDGE ( 'NONE', *, *, #250, .T. ) ;
#278 = DIRECTION ( 'NONE',  ( 0.0000000000000000000, 1.000000000000000000, 0.0000000000000000000 ) ) ;
#279 = EDGE_LOOP ( 'NONE', ( #116, #42, #248, #202 ) ) ;
#280 = DIRECTION ( 'NONE',  ( -3.491481338843133355E-15, 1.224646799147353207E-16, -1.000000000000000000 ) ) ;
#281 = ORIENTED_EDGE ( 'NONE', *, *, #333, .T. ) ;
#282 = DIRECTION ( 'NONE',  ( 1.798245827342159528E-15, -0.8571673007021100021, 0.5150380749100580413 ) ) ;
#283 = CONICAL_SURFACE ( 'NONE', #129, 5.500000000000000000, 0.7853981633974479459 ) ;
#284 = APPROVAL_DATE_TIME ( #178, #120 ) ;
#285 = CARTESIAN_POINT ( 'NONE',  ( 5.272136821653131493E-13, 4.124339402320081052E-32, 151.0000000000000000 ) ) ;
#286 = ADVANCED_FACE ( 'NONE', ( #324 ), #283, .T. ) ;
#287 = CYLINDRICAL_SURFACE ( 'NONE', #336, 6.499999999999988454 ) ;
#288 = CLOSED_SHELL ( 'NONE', ( #58, #161, #271, #228, #25 ) ) ;
#289 = CARTESIAN_POINT ( 'NONE',  ( 1.363630865077309744E-14, -6.499999999999983125, 3.905594023679172633 ) ) ;
#290 = SECURITY_CLASSIFICATION_LEVEL ( 'unclassified' ) ;
#291 = CYLINDRICAL_SURFACE ( 'NONE', #18, 6.499999999999997335 ) ;
#292 = CIRCLE ( 'NONE', #173, 6.499999999999993783 ) ;
#293 = DIRECTION ( 'NONE',  ( 4.275831445896958607E-31, 1.000000000000000000, 1.224646799147353207E-16 ) ) ;
#294 = EDGE_CURVE ( 'NONE', #171, #321, #189, .T. ) ;
#295 = DATE_AND_TIME ( #264, #209 ) ;
#296 = VECTOR ( 'NONE', #121, 1000.000000000000114 ) ;
#297 = DATE_TIME_ROLE ( 'classification_date' ) ;
#298 = DATE_TIME_ROLE ( 'creation_date' ) ;
#299 = LINE ( 'NONE', #146, #153 ) ;
#300 = CARTESIAN_POINT ( 'NONE',  ( 3.526396152231565067E-13, -1.236893267138826732E-14, 101.0000000000000000 ) ) ;
#301 = EDGE_LOOP ( 'NONE', ( #69, #305 ) ) ;
#302 = ORIENTED_EDGE ( 'NONE', *, *, #333, .F. ) ;
#303 = ORIENTED_EDGE ( 'NONE', *, *, #68, .F. ) ;
#304 = CC_DESIGN_DATE_AND_TIME_ASSIGNMENT ( #3, #298, ( #256 ) ) ;
#305 = ORIENTED_EDGE ( 'NONE', *, *, #193, .F. ) ;
#306 = APPLICATION_PROTOCOL_DEFINITION ( 'international standard', 'config_control_design', 1994, #30 ) ;
#307 = DIRECTION ( 'NONE',  ( -3.491481338843133355E-15, 1.224646799147353207E-16, -1.000000000000000000 ) ) ;
#308 = DIRECTION ( 'NONE',  ( 0.0000000000000000000, 1.000000000000000000, 0.0000000000000000000 ) ) ;
#309 = DIRECTION ( 'NONE',  ( 4.275831445896958607E-31, 1.000000000000000000, 1.224646799147353207E-16 ) ) ;
#310 = EDGE_CURVE ( 'NONE', #197, #332, #257, .T. ) ;
#311 = LOCAL_TIME ( 15, 38, 26.00000000000000000, #269 ) ;
#312 = DIRECTION ( 'NONE',  ( -3.491481338843133355E-15, 1.224646799147353207E-16, -1.000000000000000000 ) ) ;
#313 = CARTESIAN_POINT ( 'NONE',  ( 1.363630865077310060E-14, -4.782973219867731009E-16, 3.905594023679173077 ) ) ;
#314 = LINE ( 'NONE', #183, #186 ) ;
#315 = CARTESIAN_POINT ( 'NONE',  ( 0.0000000000000000000, 0.0000000000000000000, 0.0000000000000000000 ) ) ;
#316 = DIRECTION ( 'NONE',  ( -3.491481338843133355E-15, 1.224646799147353207E-16, -1.000000000000000000 ) ) ;
#317 = LOCAL_TIME ( 15, 38, 26.00000000000000000, #109 ) ;
#318 = CC_DESIGN_PERSON_AND_ORGANIZATION_ASSIGNMENT ( #41, #140, ( #46 ) ) ;
#319 = AXIS2_PLACEMENT_3D ( 'NONE', #328, #89, #249 ) ;
#320 = ORIENTED_EDGE ( 'NONE', *, *, #263, .F. ) ;
#321 = VERTEX_POINT ( 'NONE', #125 ) ;
#322 = PERSON_AND_ORGANIZATION ( #267, #232 ) ;
#323 = ORIENTED_EDGE ( 'NONE', *, *, #246, .F. ) ;
#324 = FACE_OUTER_BOUND ( 'NONE', #279, .T. ) ;
#325 = APPROVAL_DATE_TIME ( #295, #201 ) ;
#326 = EDGE_LOOP ( 'NONE', ( #251, #142, #226, #323 ) ) ;
#327 = ORIENTED_EDGE ( 'NONE', *, *, #250, .F. ) ;
#328 = CARTESIAN_POINT ( 'NONE',  ( 1.363630865077310060E-14, -4.782973219867731009E-16, 3.905594023679173077 ) ) ;
#329 = PRODUCT_DEFINITION_SHAPE ( 'NONE', 'NONE',  #256 ) ;
#330 = CLOSED_SHELL ( 'NONE', ( #286, #87, #96, #188, #102, #212 ) ) ;
#331 = VECTOR ( 'NONE', #28, 1000.000000000000000 ) ;
#332 = VERTEX_POINT ( 'NONE', #115 ) ;
#333 = EDGE_CURVE ( 'NONE', #321, #171, #36, .T. ) ;
#334 = CARTESIAN_POINT ( 'NONE',  ( 3.526396152231565067E-13, 4.874219293651014235E-32, 101.0000000000000000 ) ) ;
#335 =( GEOMETRIC_REPRESENTATION_CONTEXT ( 3 ) GLOBAL_UNCERTAINTY_ASSIGNED_CONTEXT ( ( #231 ) ) GLOBAL_UNIT_ASSIGNED_CONTEXT ( ( #235, #166, #143 ) ) REPRESENTATION_CONTEXT ( 'NONE', 'WORKASPACE' ) );
#336 = AXIS2_PLACEMENT_3D ( 'NONE', #211, #80, #241 ) ;
#337 = CYLINDRICAL_SURFACE ( 'NONE', #113, 6.499999999999997335 ) ;
ENDSEC;
END-ISO-10303-21;
