ISO-10303-21;
HEADER;
FILE_DESCRIPTION (( 'STEP AP203' ),
    '1' );
FILE_NAME ('54798.step',
    '2021-09-02T13:38:24',
    ( '' ),
    ( '' ),
    'SwSTEP 2.0',
    'SolidWorks 2019',
    '' );
FILE_SCHEMA (( 'CONFIG_CONTROL_DESIGN' ));
ENDSEC;

DATA;
#1 = ORIENTED_EDGE ( 'NONE', *, *, #95, .T. ) ;
#2 = CIRCLE ( 'NONE', #136, 5.999999999999984013 ) ;
#3 = VERTEX_POINT ( 'NONE', #47 ) ;
#4 = DIRECTION ( 'NONE',  ( 0.0000000000000000000, 1.000000000000000000, 0.0000000000000000000 ) ) ;
#5 = EDGE_CURVE ( 'NONE', #153, #67, #43, .T. ) ;
#6 = AXIS2_PLACEMENT_3D ( 'NONE', #177, #223, #101 ) ;
#7 = DIRECTION ( 'NONE',  ( -3.491481338843133355E-15, 1.224646799147353207E-16, -1.000000000000000000 ) ) ;
#8 = CLOSED_SHELL ( 'NONE', ( #231, #323, #137, #242, #37, #85 ) ) ;
#9 = AXIS2_PLACEMENT_3D ( 'NONE', #12, #325, #87 ) ;
#10 =( GEOMETRIC_REPRESENTATION_CONTEXT ( 3 ) GLOBAL_UNCERTAINTY_ASSIGNED_CONTEXT ( ( #159 ) ) GLOBAL_UNIT_ASSIGNED_CONTEXT ( ( #41, #330, #70 ) ) REPRESENTATION_CONTEXT ( 'NONE', 'WORKASPACE' ) );
#11 = CARTESIAN_POINT ( 'NONE',  ( 1.258736183148285966E-14, -5.999999999999984901, 3.605163714165390054 ) ) ;
#12 = CARTESIAN_POINT ( 'NONE',  ( 3.526396152231565067E-13, -1.236893267138826732E-14, 101.0000000000000000 ) ) ;
#13 = DIRECTION ( 'NONE',  ( 3.491481338843133355E-15, -1.224646799147353207E-16, 1.000000000000000000 ) ) ;
#14 = CIRCLE ( 'NONE', #316, 6.000000000000000888 ) ;
#15 = ORIENTED_EDGE ( 'NONE', *, *, #26, .T. ) ;
#16 = APPROVAL_ROLE ( '' ) ;
#17 = APPROVAL ( #65, 'UNSPECIFIED' ) ;
#18 = APPLICATION_PROTOCOL_DEFINITION ( 'international standard', 'config_control_design', 1994, #162 ) ;
#19 = CARTESIAN_POINT ( 'NONE',  ( 3.526396152231565067E-13, 5.999999999999983125, 101.0000000000000000 ) ) ;
#20 = ADVANCED_BREP_SHAPE_REPRESENTATION ( '54798', ( #129, #239, #59 ), #10 ) ;
#21 = FACE_OUTER_BOUND ( 'NONE', #276, .T. ) ;
#22 = CC_DESIGN_PERSON_AND_ORGANIZATION_ASSIGNMENT ( #105, #213, ( #233 ) ) ;
#23 = EDGE_LOOP ( 'NONE', ( #285, #283, #164, #124 ) ) ;
#24 = CARTESIAN_POINT ( 'NONE',  ( 0.0000000000000000000, 0.0000000000000000000, 0.0000000000000000000 ) ) ;
#25 = AXIS2_PLACEMENT_3D ( 'NONE', #189, #13, #270 ) ;
#26 = EDGE_CURVE ( 'NONE', #3, #198, #292, .T. ) ;
#27 = VERTEX_POINT ( 'NONE', #307 ) ;
#28 = ORIENTED_EDGE ( 'NONE', *, *, #119, .T. ) ;
#29 = CARTESIAN_POINT ( 'NONE',  ( 5.272136821653131493E-13, 3.749399456654617198E-32, 151.0000000000000000 ) ) ;
#30 = LOCAL_TIME ( 15, 38, 24.00000000000000000, #178 ) ;
#31 = AXIS2_PLACEMENT_3D ( 'NONE', #250, #222, #253 ) ;
#32 = ORIENTED_EDGE ( 'NONE', *, *, #135, .F. ) ;
#33 = FACE_OUTER_BOUND ( 'NONE', #63, .T. ) ;
#34 = CARTESIAN_POINT ( 'NONE',  ( 1.258736183148286282E-14, -4.415052202954829117E-16, 3.605163714165390942 ) ) ;
#35 = ORIENTED_EDGE ( 'NONE', *, *, #100, .F. ) ;
#36 = PERSON_AND_ORGANIZATION ( #96, #108 ) ;
#37 = ADVANCED_FACE ( 'NONE', ( #202 ), #185, .T. ) ;
#38 = FACE_OUTER_BOUND ( 'NONE', #244, .T. ) ;
#39 = PLANE ( 'NONE',  #88 ) ;
#40 = DIRECTION ( 'NONE',  ( 0.0000000000000000000, 1.000000000000000000, 0.0000000000000000000 ) ) ;
#41 =( LENGTH_UNIT ( ) NAMED_UNIT ( * ) SI_UNIT ( .MILLI., .METRE. ) );
#42 = EDGE_CURVE ( 'NONE', #67, #27, #293, .T. ) ;
#43 = CIRCLE ( 'NONE', #50, 5.000000000000000888 ) ;
#44 = CC_DESIGN_DATE_AND_TIME_ASSIGNMENT ( #272, #331, ( #75 ) ) ;
#45 = LOCAL_TIME ( 15, 38, 24.00000000000000000, #199 ) ;
#46 = CARTESIAN_POINT ( 'NONE',  ( 5.237222008264700285E-13, -1.836970198721029747E-14, 150.0000000000000000 ) ) ;
#47 = CARTESIAN_POINT ( 'NONE',  ( 4.389156961043016785E-13, -6.000000000000007105, 101.0000000000000000 ) ) ;
#48 = DIRECTION ( 'NONE',  ( 0.0000000000000000000, 1.000000000000000000, 0.0000000000000000000 ) ) ;
#49 = VERTEX_POINT ( 'NONE', #243 ) ;
#50 = AXIS2_PLACEMENT_3D ( 'NONE', #262, #256, #128 ) ;
#51 = ORIENTED_EDGE ( 'NONE', *, *, #171, .T. ) ;
#52 = AXIS2_PLACEMENT_3D ( 'NONE', #275, #91, #120 ) ;
#53 = EDGE_LOOP ( 'NONE', ( #304, #97, #195, #227 ) ) ;
#54 = FACE_OUTER_BOUND ( 'NONE', #127, .T. ) ;
#55 = COORDINATED_UNIVERSAL_TIME_OFFSET ( 1, 0, .AHEAD. ) ;
#56 = SHAPE_DEFINITION_REPRESENTATION ( #252, #20 ) ;
#57 = ADVANCED_FACE ( 'NONE', ( #54 ), #107, .T. ) ;
#58 = CARTESIAN_POINT ( 'NONE',  ( 7.347880794884092126E-16, -5.999999999999998224, -7.347880794884142416E-16 ) ) ;
#59 = AXIS2_PLACEMENT_3D ( 'NONE', #122, #241, #218 ) ;
#60 = ORIENTED_EDGE ( 'NONE', *, *, #42, .F. ) ;
#61 = DIRECTION ( 'NONE',  ( -3.491481338843133355E-15, 1.224646799147353207E-16, -1.000000000000000000 ) ) ;
#62 = PRODUCT ( '54798', '54798', '', ( #298 ) ) ;
#63 = EDGE_LOOP ( 'NONE', ( #300, #152, #206, #35 ) ) ;
#64 = PERSON_AND_ORGANIZATION_ROLE ( 'creator' ) ;
#65 = APPROVAL_STATUS ( 'not_yet_approved' ) ;
#66 = AXIS2_PLACEMENT_3D ( 'NONE', #151, #257, #48 ) ;
#67 = VERTEX_POINT ( 'NONE', #192 ) ;
#68 = CARTESIAN_POINT ( 'NONE',  ( 3.526396152231565067E-13, 4.499279347985551476E-32, 101.0000000000000000 ) ) ;
#69 = CARTESIAN_POINT ( 'NONE',  ( 5.272136821653131493E-13, -1.849216666712503261E-14, 151.0000000000000000 ) ) ;
#70 =( NAMED_UNIT ( * ) SI_UNIT ( $, .STERADIAN. ) SOLID_ANGLE_UNIT ( ) );
#71 = EDGE_CURVE ( 'NONE', #313, #314, #284, .T. ) ;
#72 = CARTESIAN_POINT ( 'NONE',  ( 7.347880794884082265E-16, -5.999999999999989342, -7.347880794884131569E-16 ) ) ;
#73 = ORIENTED_EDGE ( 'NONE', *, *, #290, .F. ) ;
#74 = EDGE_LOOP ( 'NONE', ( #280, #15 ) ) ;
#75 = PRODUCT_DEFINITION ( 'UNKNOWN', '', #233, #109 ) ;
#76 = ORIENTED_EDGE ( 'NONE', *, *, #5, .F. ) ;
#77 = PERSON_AND_ORGANIZATION ( #96, #108 ) ;
#78 = ORIENTED_EDGE ( 'NONE', *, *, #251, .F. ) ;
#79 = CIRCLE ( 'NONE', #9, 5.999999999999994671 ) ;
#80 = LINE ( 'NONE', #217, #260 ) ;
#81 = DIRECTION ( 'NONE',  ( -3.491481338843133355E-15, 1.224646799147353207E-16, -1.000000000000000000 ) ) ;
#82 = SECURITY_CLASSIFICATION_LEVEL ( 'unclassified' ) ;
#83 = CC_DESIGN_APPROVAL ( #334, ( #315 ) ) ;
#84 = APPROVAL_STATUS ( 'not_yet_approved' ) ;
#85 = ADVANCED_FACE ( 'NONE', ( #234 ), #273, .F. ) ;
#86 = LINE ( 'NONE', #163, #176 ) ;
#87 = DIRECTION ( 'NONE',  ( 0.0000000000000000000, 1.000000000000000000, 0.0000000000000000000 ) ) ;
#88 = AXIS2_PLACEMENT_3D ( 'NONE', #68, #92, #116 ) ;
#89 = LOCAL_TIME ( 15, 38, 24.00000000000000000, #245 ) ;
#90 = ORIENTED_EDGE ( 'NONE', *, *, #183, .F. ) ;
#91 = DIRECTION ( 'NONE',  ( -3.491481338843133355E-15, 1.224646799147353207E-16, -1.000000000000000000 ) ) ;
#92 = DIRECTION ( 'NONE',  ( 3.491481338843133355E-15, -1.224646799147353207E-16, 1.000000000000000000 ) ) ;
#93 = DIRECTION ( 'NONE',  ( -3.491481338843133355E-15, 1.224646799147353207E-16, -1.000000000000000000 ) ) ;
#94 = CALENDAR_DATE ( 2021, 2, 9 ) ;
#95 = EDGE_CURVE ( 'NONE', #314, #313, #2, .T. ) ;
#96 = PERSON ( 'UNSPECIFIED', 'UNSPECIFIED', 'UNSPECIFIED', ('UNSPECIFIED'), ('UNSPECIFIED'), ('UNSPECIFIED') ) ;
#97 = ORIENTED_EDGE ( 'NONE', *, *, #183, .T. ) ;
#98 = DIRECTION ( 'NONE',  ( -3.491481338843133355E-15, 1.224646799147353207E-16, -1.000000000000000000 ) ) ;
#99 = DIRECTION ( 'NONE',  ( -3.491481338843133355E-15, 1.224646799147353207E-16, -1.000000000000000000 ) ) ;
#100 = EDGE_CURVE ( 'NONE', #49, #198, #80, .T. ) ;
#101 = DIRECTION ( 'NONE',  ( 0.0000000000000000000, 1.000000000000000000, 0.0000000000000000000 ) ) ;
#102 = CIRCLE ( 'NONE', #52, 5.999999999999994671 ) ;
#103 = DATE_AND_TIME ( #322, #326 ) ;
#104 = ORIENTED_EDGE ( 'NONE', *, *, #71, .F. ) ;
#105 = PERSON_AND_ORGANIZATION ( #96, #108 ) ;
#106 = DIRECTION ( 'NONE',  ( -3.491481338843133355E-15, 1.224646799147353207E-16, -1.000000000000000000 ) ) ;
#107 = CONICAL_SURFACE ( 'NONE', #25, 5.999999999999984013, 1.029744258676649649 ) ;
#108 = ORGANIZATION ( 'UNSPECIFIED', 'UNSPECIFIED', '' ) ;
#109 = DESIGN_CONTEXT ( 'detailed design', #139, 'design' ) ;
#110 = DIRECTION ( 'NONE',  ( -3.491481338843133355E-15, 1.224646799147353207E-16, -1.000000000000000000 ) ) ;
#111 = PERSON_AND_ORGANIZATION_ROLE ( 'creator' ) ;
#112 = AXIS2_PLACEMENT_3D ( 'NONE', #69, #278, #40 ) ;
#113 = ADVANCED_FACE ( 'NONE', ( #38 ), #204, .T. ) ;
#114 = DIRECTION ( 'NONE',  ( 1.903218546456022717E-15, 0.8571673007021097801, 0.5150380749100585964 ) ) ;
#115 = ORIENTED_EDGE ( 'NONE', *, *, #173, .T. ) ;
#116 = DIRECTION ( 'NONE',  ( -4.275831445896958607E-31, -1.000000000000000000, -1.224646799147353207E-16 ) ) ;
#117 = PERSON_AND_ORGANIZATION ( #96, #108 ) ;
#118 = FACE_OUTER_BOUND ( 'NONE', #23, .T. ) ;
#119 = EDGE_CURVE ( 'NONE', #259, #314, #329, .T. ) ;
#120 = DIRECTION ( 'NONE',  ( 0.0000000000000000000, 1.000000000000000000, 0.0000000000000000000 ) ) ;
#121 = CIRCLE ( 'NONE', #311, 5.999999999999994671 ) ;
#122 = CARTESIAN_POINT ( 'NONE',  ( 0.0000000000000000000, 0.0000000000000000000, 0.0000000000000000000 ) ) ;
#123 = DIRECTION ( 'NONE',  ( -3.491481338843133355E-15, 1.224646799147353207E-16, -1.000000000000000000 ) ) ;
#124 = ORIENTED_EDGE ( 'NONE', *, *, #171, .F. ) ;
#125 = ORIENTED_EDGE ( 'NONE', *, *, #173, .F. ) ;
#126 = CARTESIAN_POINT ( 'NONE',  ( 1.833482766068077912E-13, -6.000000000000007105, 101.0000000000000000 ) ) ;
#127 = EDGE_LOOP ( 'NONE', ( #32, #228, #336 ) ) ;
#128 = DIRECTION ( 'NONE',  ( 0.0000000000000000000, 1.000000000000000000, 0.0000000000000000000 ) ) ;
#129 = MANIFOLD_SOLID_BREP ( 'Corps-Déplacer/Copier1[1]', #8 ) ;
#130 = ORIENTED_EDGE ( 'NONE', *, *, #135, .T. ) ;
#131 = EDGE_CURVE ( 'NONE', #27, #3, #165, .T. ) ;
#132 = DIRECTION ( 'NONE',  ( -4.275831445896958607E-31, -1.000000000000000000, -1.224646799147353207E-16 ) ) ;
#133 = AXIS2_PLACEMENT_3D ( 'NONE', #34, #61, #168 ) ;
#134 = LINE ( 'NONE', #11, #181 ) ;
#135 = EDGE_CURVE ( 'NONE', #271, #314, #209, .T. ) ;
#136 = AXIS2_PLACEMENT_3D ( 'NONE', #214, #263, #268 ) ;
#137 = ADVANCED_FACE ( 'NONE', ( #319 ), #180, .F. ) ;
#138 = CARTESIAN_POINT ( 'NONE',  ( 1.258736183148286282E-14, -4.415052202954829117E-16, 3.605163714165390942 ) ) ;
#139 = APPLICATION_CONTEXT ( 'configuration controlled 3d designs of mechanical parts and assemblies' ) ;
#140 = DIRECTION ( 'NONE',  ( 4.275831445896958607E-31, 1.000000000000000000, 1.224646799147353207E-16 ) ) ;
#141 = APPROVAL_STATUS ( 'not_yet_approved' ) ;
#142 = DIRECTION ( 'NONE',  ( 0.0000000000000000000, 1.000000000000000000, 0.0000000000000000000 ) ) ;
#143 = CARTESIAN_POINT ( 'NONE',  ( 0.0000000000000000000, 0.0000000000000000000, 0.0000000000000000000 ) ) ;
#144 = DIRECTION ( 'NONE',  ( 0.0000000000000000000, 1.000000000000000000, 0.0000000000000000000 ) ) ;
#145 = FACE_OUTER_BOUND ( 'NONE', #53, .T. ) ;
#146 = AXIS2_PLACEMENT_3D ( 'NONE', #221, #98, #4 ) ;
#147 = FACE_OUTER_BOUND ( 'NONE', #295, .T. ) ;
#148 = AXIS2_PLACEMENT_3D ( 'NONE', #138, #156, #320 ) ;
#149 = EDGE_LOOP ( 'NONE', ( #76, #78 ) ) ;
#150 = CYLINDRICAL_SURFACE ( 'NONE', #246, 5.999999999999989342 ) ;
#151 = CARTESIAN_POINT ( 'NONE',  ( 5.272136821653131493E-13, -1.849216666712503261E-14, 151.0000000000000000 ) ) ;
#152 = ORIENTED_EDGE ( 'NONE', *, *, #131, .T. ) ;
#153 = VERTEX_POINT ( 'NONE', #212 ) ;
#154 = APPROVAL_DATE_TIME ( #266, #334 ) ;
#155 = DIRECTION ( 'NONE',  ( 3.491481338843133355E-15, -1.224646799147353207E-16, 1.000000000000000000 ) ) ;
#156 = DIRECTION ( 'NONE',  ( 3.491481338843133355E-15, -1.224646799147353207E-16, 1.000000000000000000 ) ) ;
#157 = VECTOR ( 'NONE', #7, 1000.000000000000000 ) ;
#158 = EDGE_CURVE ( 'NONE', #271, #313, #134, .T. ) ;
#159 = UNCERTAINTY_MEASURE_WITH_UNIT (LENGTH_MEASURE( 1.000000000000000082E-05 ), #41, 'distance_accuracy_value', 'NONE');
#160 = DATE_TIME_ROLE ( 'classification_date' ) ;
#161 = CLOSED_SHELL ( 'NONE', ( #211, #113, #57, #207, #321 ) ) ;
#162 = APPLICATION_CONTEXT ( 'configuration controlled 3d designs of mechanical parts and assemblies' ) ;
#163 = CARTESIAN_POINT ( 'NONE',  ( 5.272136821653131493E-13, 4.999999999999983125, 151.0000000000000000 ) ) ;
#164 = ORIENTED_EDGE ( 'NONE', *, *, #197, .F. ) ;
#165 = LINE ( 'NONE', #58, #332 ) ;
#166 = CC_DESIGN_DATE_AND_TIME_ASSIGNMENT ( #103, #160, ( #315 ) ) ;
#167 = CALENDAR_DATE ( 2021, 2, 9 ) ;
#168 = DIRECTION ( 'NONE',  ( 5.135813185032642663E-31, 1.000000000000000000, 1.445602896647343107E-16 ) ) ;
#169 = CYLINDRICAL_SURFACE ( 'NONE', #289, 5.999999999999998224 ) ;
#170 = CC_DESIGN_SECURITY_CLASSIFICATION ( #315, ( #233 ) ) ;
#171 = EDGE_CURVE ( 'NONE', #153, #49, #86, .T. ) ;
#172 = PERSON_AND_ORGANIZATION_ROLE ( 'design_owner' ) ;
#173 = EDGE_CURVE ( 'NONE', #274, #259, #79, .T. ) ;
#174 = CALENDAR_DATE ( 2021, 2, 9 ) ;
#175 = DIRECTION ( 'NONE',  ( -3.491481338843133355E-15, 1.224646799147353207E-16, -1.000000000000000000 ) ) ;
#176 = VECTOR ( 'NONE', #240, 999.9999999999998863 ) ;
#177 = CARTESIAN_POINT ( 'NONE',  ( 5.272136821653131493E-13, -1.849216666712503261E-14, 151.0000000000000000 ) ) ;
#178 = COORDINATED_UNIVERSAL_TIME_OFFSET ( 1, 0, .AHEAD. ) ;
#179 = ORIENTED_EDGE ( 'NONE', *, *, #158, .F. ) ;
#180 = PLANE ( 'NONE',  #226 ) ;
#181 = VECTOR ( 'NONE', #324, 1000.000000000000000 ) ;
#182 = APPROVAL_ROLE ( '' ) ;
#183 = EDGE_CURVE ( 'NONE', #274, #313, #303, .T. ) ;
#184 = DIRECTION ( 'NONE',  ( 4.275831445896958607E-31, 1.000000000000000000, 1.224646799147353207E-16 ) ) ;
#185 = CONICAL_SURFACE ( 'NONE', #6, 5.000000000000000888, 0.7853981633974479459 ) ;
#186 = ORIENTED_EDGE ( 'NONE', *, *, #238, .F. ) ;
#187 = CONICAL_SURFACE ( 'NONE', #112, 5.000000000000000888, 0.7853981633974479459 ) ;
#188 = APPROVAL_PERSON_ORGANIZATION ( #117, #17, #279 ) ;
#189 = CARTESIAN_POINT ( 'NONE',  ( 1.258736183148286282E-14, -4.415052202954829117E-16, 3.605163714165390942 ) ) ;
#190 = ORIENTED_EDGE ( 'NONE', *, *, #251, .T. ) ;
#191 = CARTESIAN_POINT ( 'NONE',  ( 5.237222008264700285E-13, -1.836970198721029747E-14, 150.0000000000000000 ) ) ;
#192 = CARTESIAN_POINT ( 'NONE',  ( 5.261414972354226196E-13, -5.000000000000019540, 151.0000000000000000 ) ) ;
#193 = CARTESIAN_POINT ( 'NONE',  ( 0.0000000000000000000, 0.0000000000000000000, 0.0000000000000000000 ) ) ;
#194 = DIRECTION ( 'NONE',  ( -3.491481338843133355E-15, 1.224646799147353207E-16, -1.000000000000000000 ) ) ;
#195 = ORIENTED_EDGE ( 'NONE', *, *, #95, .F. ) ;
#196 = CARTESIAN_POINT ( 'NONE',  ( 1.332214991097127529E-14, 5.999999999999983125, 3.605163714165391831 ) ) ;
#197 = EDGE_CURVE ( 'NONE', #49, #27, #267, .T. ) ;
#198 = VERTEX_POINT ( 'NONE', #19 ) ;
#199 = COORDINATED_UNIVERSAL_TIME_OFFSET ( 1, 0, .AHEAD. ) ;
#200 = DIRECTION ( 'NONE',  ( -3.491481338843133355E-15, 1.224646799147353207E-16, -1.000000000000000000 ) ) ;
#201 = APPROVAL ( #141, 'UNSPECIFIED' ) ;
#202 = FACE_OUTER_BOUND ( 'NONE', #282, .T. ) ;
#203 = CARTESIAN_POINT ( 'NONE',  ( 3.526396152231565067E-13, -1.236893267138826732E-14, 101.0000000000000000 ) ) ;
#204 = CONICAL_SURFACE ( 'NONE', #148, 5.999999999999984013, 1.029744258676649649 ) ;
#205 = ORIENTED_EDGE ( 'NONE', *, *, #100, .T. ) ;
#206 = ORIENTED_EDGE ( 'NONE', *, *, #309, .F. ) ;
#207 = ADVANCED_FACE ( 'NONE', ( #337 ), #150, .T. ) ;
#208 = EDGE_LOOP ( 'NONE', ( #90, #115, #28, #104 ) ) ;
#209 = LINE ( 'NONE', #264, #220 ) ;
#210 = APPROVAL_PERSON_ORGANIZATION ( #36, #201, #16 ) ;
#211 = ADVANCED_FACE ( 'NONE', ( #145 ), #255, .T. ) ;
#212 = CARTESIAN_POINT ( 'NONE',  ( 5.272136821653131493E-13, 4.999999999999983125, 151.0000000000000000 ) ) ;
#213 = PERSON_AND_ORGANIZATION_ROLE ( 'design_supplier' ) ;
#214 = CARTESIAN_POINT ( 'NONE',  ( 1.258736183148286282E-14, -4.415052202954829117E-16, 3.605163714165390942 ) ) ;
#215 = CARTESIAN_POINT ( 'NONE',  ( 5.278260055648867493E-13, -5.000000000000019540, 151.0000000000000000 ) ) ;
#216 = PERSON_AND_ORGANIZATION ( #96, #108 ) ;
#217 = CARTESIAN_POINT ( 'NONE',  ( 2.565498867538174463E-30, 5.999999999999998224, 7.347880794884117764E-16 ) ) ;
#218 = DIRECTION ( 'NONE',  ( 1.000000000000000000, 0.0000000000000000000, 0.0000000000000000000 ) ) ;
#219 = DIRECTION ( 'NONE',  ( 4.275831445896959482E-31, 1.000000000000000000, 1.224646799147353207E-16 ) ) ;
#220 = VECTOR ( 'NONE', #114, 999.9999999999998863 ) ;
#221 = CARTESIAN_POINT ( 'NONE',  ( 3.526396152231565067E-13, -1.236893267138826732E-14, 101.0000000000000000 ) ) ;
#222 = DIRECTION ( 'NONE',  ( -3.491481338843133355E-15, 1.224646799147353207E-16, -1.000000000000000000 ) ) ;
#223 = DIRECTION ( 'NONE',  ( -3.491481338843133355E-15, 1.224646799147353207E-16, -1.000000000000000000 ) ) ;
#224 = CARTESIAN_POINT ( 'NONE',  ( 3.526396152231565067E-13, 5.999999999999983125, 101.0000000000000000 ) ) ;
#225 = APPROVAL_PERSON_ORGANIZATION ( #287, #334, #182 ) ;
#226 = AXIS2_PLACEMENT_3D ( 'NONE', #286, #155, #132 ) ;
#227 = ORIENTED_EDGE ( 'NONE', *, *, #119, .F. ) ;
#228 = ORIENTED_EDGE ( 'NONE', *, *, #158, .T. ) ;
#229 = APPROVAL_DATE_TIME ( #281, #201 ) ;
#230 = CARTESIAN_POINT ( 'NONE',  ( 2.565498867538170960E-30, 5.999999999999989342, 7.347880794884106917E-16 ) ) ;
#231 = ADVANCED_FACE ( 'NONE', ( #118 ), #187, .T. ) ;
#232 = CIRCLE ( 'NONE', #66, 5.000000000000000888 ) ;
#233 = PRODUCT_DEFINITION_FORMATION_WITH_SPECIFIED_SOURCE ( 'ANY', '', #62, .NOT_KNOWN. ) ;
#234 = FACE_OUTER_BOUND ( 'NONE', #149, .T. ) ;
#235 = CC_DESIGN_PERSON_AND_ORGANIZATION_ASSIGNMENT ( #318, #236, ( #315 ) ) ;
#236 = PERSON_AND_ORGANIZATION_ROLE ( 'classification_officer' ) ;
#237 = VECTOR ( 'NONE', #297, 1000.000000000000000 ) ;
#238 = EDGE_CURVE ( 'NONE', #259, #274, #121, .T. ) ;
#239 = MANIFOLD_SOLID_BREP ( 'Corps-Déplacer/Copier1[2]', #161 ) ;
#240 = DIRECTION ( 'NONE',  ( -2.468850131082266527E-15, 0.7071067811865473507, -0.7071067811865477948 ) ) ;
#241 = DIRECTION ( 'NONE',  ( 0.0000000000000000000, 0.0000000000000000000, 1.000000000000000000 ) ) ;
#242 = ADVANCED_FACE ( 'NONE', ( #21 ), #306, .T. ) ;
#243 = CARTESIAN_POINT ( 'NONE',  ( 5.237222008264700285E-13, 5.999999999999983125, 150.0000000000000000 ) ) ;
#244 = EDGE_LOOP ( 'NONE', ( #179, #130, #1 ) ) ;
#245 = COORDINATED_UNIVERSAL_TIME_OFFSET ( 1, 0, .AHEAD. ) ;
#246 = AXIS2_PLACEMENT_3D ( 'NONE', #193, #200, #219 ) ;
#247 = DIRECTION ( 'NONE',  ( 0.0000000000000000000, 1.000000000000000000, 0.0000000000000000000 ) ) ;
#248 = DIRECTION ( 'NONE',  ( 4.275831445896958607E-31, 1.000000000000000000, 1.224646799147353207E-16 ) ) ;
#249 = CARTESIAN_POINT ( 'NONE',  ( 1.258736183148285966E-14, -5.999999999999984901, 3.605163714165390054 ) ) ;
#250 = CARTESIAN_POINT ( 'NONE',  ( 0.0000000000000000000, 0.0000000000000000000, 0.0000000000000000000 ) ) ;
#251 = EDGE_CURVE ( 'NONE', #67, #153, #232, .T. ) ;
#252 = PRODUCT_DEFINITION_SHAPE ( 'NONE', 'NONE',  #75 ) ;
#253 = DIRECTION ( 'NONE',  ( 4.275831445896959482E-31, 1.000000000000000000, 1.224646799147353207E-16 ) ) ;
#254 = LOCAL_TIME ( 15, 38, 24.00000000000000000, #301 ) ;
#255 = CYLINDRICAL_SURFACE ( 'NONE', #31, 5.999999999999989342 ) ;
#256 = DIRECTION ( 'NONE',  ( -3.491481338843133355E-15, 1.224646799147353207E-16, -1.000000000000000000 ) ) ;
#257 = DIRECTION ( 'NONE',  ( -3.491481338843133355E-15, 1.224646799147353207E-16, -1.000000000000000000 ) ) ;
#258 = CC_DESIGN_PERSON_AND_ORGANIZATION_ASSIGNMENT ( #335, #172, ( #62 ) ) ;
#259 = VERTEX_POINT ( 'NONE', #224 ) ;
#260 = VECTOR ( 'NONE', #110, 1000.000000000000000 ) ;
#261 = PRODUCT_RELATED_PRODUCT_CATEGORY ( 'detail', '', ( #62 ) ) ;
#262 = CARTESIAN_POINT ( 'NONE',  ( 5.272136821653131493E-13, -1.849216666712503261E-14, 151.0000000000000000 ) ) ;
#263 = DIRECTION ( 'NONE',  ( -3.491481338843133355E-15, 1.224646799147353207E-16, -1.000000000000000000 ) ) ;
#264 = CARTESIAN_POINT ( 'NONE',  ( 1.332214991097127529E-14, 5.999999999999983125, 3.605163714165391831 ) ) ;
#265 = CC_DESIGN_PERSON_AND_ORGANIZATION_ASSIGNMENT ( #216, #64, ( #75 ) ) ;
#266 = DATE_AND_TIME ( #291, #30 ) ;
#267 = CIRCLE ( 'NONE', #327, 6.000000000000000888 ) ;
#268 = DIRECTION ( 'NONE',  ( 5.135813185032642663E-31, 1.000000000000000000, 1.445602896647343107E-16 ) ) ;
#269 = ORIENTED_EDGE ( 'NONE', *, *, #131, .F. ) ;
#270 = DIRECTION ( 'NONE',  ( -5.135813185032642663E-31, -1.000000000000000000, -1.445602896647343107E-16 ) ) ;
#271 = VERTEX_POINT ( 'NONE', #24 ) ;
#272 = DATE_AND_TIME ( #167, #254 ) ;
#273 = PLANE ( 'NONE',  #294 ) ;
#274 = VERTEX_POINT ( 'NONE', #126 ) ;
#275 = CARTESIAN_POINT ( 'NONE',  ( 3.526396152231565067E-13, -1.236893267138826732E-14, 101.0000000000000000 ) ) ;
#276 = EDGE_LOOP ( 'NONE', ( #269, #333, #205, #310 ) ) ;
#277 = DIRECTION ( 'NONE',  ( -3.491481338843133355E-15, 1.224646799147353207E-16, -1.000000000000000000 ) ) ;
#278 = DIRECTION ( 'NONE',  ( -3.491481338843133355E-15, 1.224646799147353207E-16, -1.000000000000000000 ) ) ;
#279 = APPROVAL_ROLE ( '' ) ;
#280 = ORIENTED_EDGE ( 'NONE', *, *, #309, .T. ) ;
#281 = DATE_AND_TIME ( #94, #89 ) ;
#282 = EDGE_LOOP ( 'NONE', ( #60, #190, #51, #73 ) ) ;
#283 = ORIENTED_EDGE ( 'NONE', *, *, #42, .T. ) ;
#284 = CIRCLE ( 'NONE', #133, 5.999999999999984013 ) ;
#285 = ORIENTED_EDGE ( 'NONE', *, *, #5, .T. ) ;
#286 = CARTESIAN_POINT ( 'NONE',  ( 3.526396152231565067E-13, 4.499279347985551476E-32, 101.0000000000000000 ) ) ;
#287 = PERSON_AND_ORGANIZATION ( #96, #108 ) ;
#288 = CC_DESIGN_APPROVAL ( #201, ( #233 ) ) ;
#289 = AXIS2_PLACEMENT_3D ( 'NONE', #305, #277, #140 ) ;
#290 = EDGE_CURVE ( 'NONE', #27, #49, #14, .T. ) ;
#291 = CALENDAR_DATE ( 2021, 2, 9 ) ;
#292 = CIRCLE ( 'NONE', #146, 5.999999999999994671 ) ;
#293 = LINE ( 'NONE', #215, #237 ) ;
#294 = AXIS2_PLACEMENT_3D ( 'NONE', #29, #106, #184 ) ;
#295 = EDGE_LOOP ( 'NONE', ( #186, #125 ) ) ;
#296 = CC_DESIGN_APPROVAL ( #17, ( #75 ) ) ;
#297 = DIRECTION ( 'NONE',  ( -2.382254525458717469E-15, -0.7071067811865471286, -0.7071067811865479058 ) ) ;
#298 = MECHANICAL_CONTEXT ( 'NONE', #162, 'mechanical' ) ;
#299 = APPLICATION_PROTOCOL_DEFINITION ( 'international standard', 'config_control_design', 1994, #139 ) ;
#300 = ORIENTED_EDGE ( 'NONE', *, *, #197, .T. ) ;
#301 = COORDINATED_UNIVERSAL_TIME_OFFSET ( 1, 0, .AHEAD. ) ;
#302 = AXIS2_PLACEMENT_3D ( 'NONE', #143, #123, #248 ) ;
#303 = LINE ( 'NONE', #72, #317 ) ;
#304 = ORIENTED_EDGE ( 'NONE', *, *, #238, .T. ) ;
#305 = CARTESIAN_POINT ( 'NONE',  ( 0.0000000000000000000, 0.0000000000000000000, 0.0000000000000000000 ) ) ;
#306 = CYLINDRICAL_SURFACE ( 'NONE', #302, 5.999999999999998224 ) ;
#307 = CARTESIAN_POINT ( 'NONE',  ( 4.389156961043015776E-13, -6.000000000000019540, 150.0000000000000000 ) ) ;
#308 = DATE_AND_TIME ( #174, #45 ) ;
#309 = EDGE_CURVE ( 'NONE', #198, #3, #102, .T. ) ;
#310 = ORIENTED_EDGE ( 'NONE', *, *, #26, .F. ) ;
#311 = AXIS2_PLACEMENT_3D ( 'NONE', #203, #99, #247 ) ;
#312 = CC_DESIGN_PERSON_AND_ORGANIZATION_ASSIGNMENT ( #77, #111, ( #233 ) ) ;
#313 = VERTEX_POINT ( 'NONE', #249 ) ;
#314 = VERTEX_POINT ( 'NONE', #196 ) ;
#315 = SECURITY_CLASSIFICATION ( '', '', #82 ) ;
#316 = AXIS2_PLACEMENT_3D ( 'NONE', #191, #194, #144 ) ;
#317 = VECTOR ( 'NONE', #93, 1000.000000000000000 ) ;
#318 = PERSON_AND_ORGANIZATION ( #96, #108 ) ;
#319 = FACE_OUTER_BOUND ( 'NONE', #74, .T. ) ;
#320 = DIRECTION ( 'NONE',  ( -5.135813185032642663E-31, -1.000000000000000000, -1.445602896647343107E-16 ) ) ;
#321 = ADVANCED_FACE ( 'NONE', ( #147 ), #39, .T. ) ;
#322 = CALENDAR_DATE ( 2021, 2, 9 ) ;
#323 = ADVANCED_FACE ( 'NONE', ( #33 ), #169, .T. ) ;
#324 = DIRECTION ( 'NONE',  ( 1.798245827342160317E-15, -0.8571673007021098911, 0.5150380749100582634 ) ) ;
#325 = DIRECTION ( 'NONE',  ( -3.491481338843133355E-15, 1.224646799147353207E-16, -1.000000000000000000 ) ) ;
#326 = LOCAL_TIME ( 15, 38, 24.00000000000000000, #55 ) ;
#327 = AXIS2_PLACEMENT_3D ( 'NONE', #46, #175, #142 ) ;
#328 = APPROVAL_DATE_TIME ( #308, #17 ) ;
#329 = LINE ( 'NONE', #230, #157 ) ;
#330 =( NAMED_UNIT ( * ) PLANE_ANGLE_UNIT ( ) SI_UNIT ( $, .RADIAN. ) );
#331 = DATE_TIME_ROLE ( 'creation_date' ) ;
#332 = VECTOR ( 'NONE', #81, 1000.000000000000000 ) ;
#333 = ORIENTED_EDGE ( 'NONE', *, *, #290, .T. ) ;
#334 = APPROVAL ( #84, 'UNSPECIFIED' ) ;
#335 = PERSON_AND_ORGANIZATION ( #96, #108 ) ;
#336 = ORIENTED_EDGE ( 'NONE', *, *, #71, .T. ) ;
#337 = FACE_OUTER_BOUND ( 'NONE', #208, .T. ) ;
ENDSEC;
END-ISO-10303-21;
