ISO-10303-21;
HEADER;
FILE_DESCRIPTION (( 'STEP AP203' ),
    '1' );
FILE_NAME ('54795.step',
    '2021-09-02T13:38:24',
    ( '' ),
    ( '' ),
    'SwSTEP 2.0',
    'SolidWorks 2019',
    '' );
FILE_SCHEMA (( 'CONFIG_CONTROL_DESIGN' ));
ENDSEC;

DATA;
#1 = LOCAL_TIME ( 15, 38, 24.00000000000000000, #59 ) ;
#2 =( NAMED_UNIT ( * ) PLANE_ANGLE_UNIT ( ) SI_UNIT ( $, .RADIAN. ) );
#3 = VECTOR ( 'NONE', #118, 999.9999999999998863 ) ;
#4 = CYLINDRICAL_SURFACE ( 'NONE', #23, 5.749999999999987566 ) ;
#5 = CC_DESIGN_DATE_AND_TIME_ASSIGNMENT ( #233, #56, ( #239 ) ) ;
#6 = CARTESIAN_POINT ( 'NONE',  ( 0.0000000000000000000, 0.0000000000000000000, 0.0000000000000000000 ) ) ;
#7 = COORDINATED_UNIVERSAL_TIME_OFFSET ( 1, 0, .AHEAD. ) ;
#8 = VECTOR ( 'NONE', #223, 1000.000000000000000 ) ;
#9 = AXIS2_PLACEMENT_3D ( 'NONE', #142, #302, #145 ) ;
#10 = DATE_AND_TIME ( #40, #1 ) ;
#11 = CARTESIAN_POINT ( 'NONE',  ( 3.281992458512545606E-13, -1.151167991198512128E-14, 94.00000000000000000 ) ) ;
#12 = DIRECTION ( 'NONE',  ( -3.491481338843133355E-15, 1.224646799147353207E-16, -1.000000000000000000 ) ) ;
#13 = DIRECTION ( 'NONE',  ( 5.359109410468846993E-31, 1.000000000000000000, 1.508455196501576113E-16 ) ) ;
#14 = CARTESIAN_POINT ( 'NONE',  ( 3.281992458512545606E-13, 4.311809375152819548E-32, 94.00000000000000000 ) ) ;
#15 = VECTOR ( 'NONE', #250, 1000.000000000000000 ) ;
#16 = CARTESIAN_POINT ( 'NONE',  ( 1.276706033134746867E-14, 5.749999999999982236, 3.454948559408499875 ) ) ;
#17 = CARTESIAN_POINT ( 'NONE',  ( 4.957903501157248607E-13, -1.738998454789241313E-14, 142.0000000000000000 ) ) ;
#18 = ADVANCED_FACE ( 'NONE', ( #101 ), #222, .T. ) ;
#19 = DIRECTION ( 'NONE',  ( 0.0000000000000000000, 1.000000000000000000, 0.0000000000000000000 ) ) ;
#20 = VERTEX_POINT ( 'NONE', #301 ) ;
#21 = ORIENTED_EDGE ( 'NONE', *, *, #37, .F. ) ;
#22 = ORIENTED_EDGE ( 'NONE', *, *, #287, .F. ) ;
#23 = AXIS2_PLACEMENT_3D ( 'NONE', #6, #109, #214 ) ;
#24 = DIRECTION ( 'NONE',  ( 3.491481338843133355E-15, -1.224646799147353207E-16, 1.000000000000000000 ) ) ;
#25 = CONICAL_SURFACE ( 'NONE', #93, 5.749999999999982236, 1.029744258676649649 ) ;
#26 = VERTEX_POINT ( 'NONE', #330 ) ;
#27 = ADVANCED_FACE ( 'NONE', ( #171 ), #241, .F. ) ;
#28 = CALENDAR_DATE ( 2021, 2, 9 ) ;
#29 = ORIENTED_EDGE ( 'NONE', *, *, #259, .T. ) ;
#30 = APPROVAL_PERSON_ORGANIZATION ( #77, #115, #234 ) ;
#31 = APPROVAL ( #87, 'UNSPECIFIED' ) ;
#32 = AXIS2_PLACEMENT_3D ( 'NONE', #143, #45, #299 ) ;
#33 = EDGE_CURVE ( 'NONE', #203, #248, #309, .T. ) ;
#34 = COORDINATED_UNIVERSAL_TIME_OFFSET ( 1, 0, .AHEAD. ) ;
#35 = PERSON_AND_ORGANIZATION ( #173, #89 ) ;
#36 = PERSON_AND_ORGANIZATION ( #173, #89 ) ;
#37 = EDGE_CURVE ( 'NONE', #151, #144, #117, .T. ) ;
#38 = PRODUCT_DEFINITION_SHAPE ( 'NONE', 'NONE',  #239 ) ;
#39 = AXIS2_PLACEMENT_3D ( 'NONE', #44, #98, #163 ) ;
#40 = CALENDAR_DATE ( 2021, 2, 9 ) ;
#41 = APPROVAL_ROLE ( '' ) ;
#42 = DIRECTION ( 'NONE',  ( 0.0000000000000000000, 1.000000000000000000, 0.0000000000000000000 ) ) ;
#43 = ORIENTED_EDGE ( 'NONE', *, *, #33, .T. ) ;
#44 = CARTESIAN_POINT ( 'NONE',  ( 3.281992458512545606E-13, -1.151167991198512128E-14, 94.00000000000000000 ) ) ;
#45 = DIRECTION ( 'NONE',  ( -3.491481338843133355E-15, 1.224646799147353207E-16, -1.000000000000000000 ) ) ;
#46 = EDGE_CURVE ( 'NONE', #194, #144, #68, .T. ) ;
#47 = CYLINDRICAL_SURFACE ( 'NONE', #189, 5.749999999999987566 ) ;
#48 = DIRECTION ( 'NONE',  ( 0.0000000000000000000, 1.000000000000000000, 0.0000000000000000000 ) ) ;
#49 = EDGE_LOOP ( 'NONE', ( #249, #278, #150, #177 ) ) ;
#50 = DIRECTION ( 'NONE',  ( -3.491481338843133355E-15, 1.224646799147353207E-16, -1.000000000000000000 ) ) ;
#51 = DIRECTION ( 'NONE',  ( -3.491481338843133355E-15, 1.224646799147353207E-16, -1.000000000000000000 ) ) ;
#52 = ADVANCED_FACE ( 'NONE', ( #191 ), #167, .T. ) ;
#53 = EDGE_LOOP ( 'NONE', ( #155, #76, #43, #305 ) ) ;
#54 = EDGE_LOOP ( 'NONE', ( #70, #328, #276, #119 ) ) ;
#55 = ORIENTED_EDGE ( 'NONE', *, *, #135, .F. ) ;
#56 = DATE_TIME_ROLE ( 'creation_date' ) ;
#57 = CIRCLE ( 'NONE', #237, 5.749999999999982236 ) ;
#58 = SHAPE_DEFINITION_REPRESENTATION ( #38, #251 ) ;
#59 = COORDINATED_UNIVERSAL_TIME_OFFSET ( 1, 0, .AHEAD. ) ;
#60 = PERSON_AND_ORGANIZATION ( #173, #89 ) ;
#61 = CC_DESIGN_PERSON_AND_ORGANIZATION_ASSIGNMENT ( #281, #260, ( #239 ) ) ;
#62 = CARTESIAN_POINT ( 'NONE',  ( 3.281992458512545606E-13, 5.749999999999982236, 94.00000000000000000 ) ) ;
#63 = CYLINDRICAL_SURFACE ( 'NONE', #9, 5.749999999999996447 ) ;
#64 = CARTESIAN_POINT ( 'NONE',  ( 3.281992458512545606E-13, 5.749999999999982236, 94.00000000000000000 ) ) ;
#65 = CARTESIAN_POINT ( 'NONE',  ( 4.922988687768817400E-13, -1.726751986797767798E-14, 141.0000000000000000 ) ) ;
#66 = EDGE_LOOP ( 'NONE', ( #95, #230 ) ) ;
#67 = LOCAL_TIME ( 15, 38, 24.00000000000000000, #227 ) ;
#68 = CIRCLE ( 'NONE', #197, 5.750000000000000000 ) ;
#69 = CARTESIAN_POINT ( 'NONE',  ( 3.281992458512545606E-13, -1.151167991198512128E-14, 94.00000000000000000 ) ) ;
#70 = ORIENTED_EDGE ( 'NONE', *, *, #46, .T. ) ;
#71 = ORIENTED_EDGE ( 'NONE', *, *, #293, .T. ) ;
#72 = DIRECTION ( 'NONE',  ( -3.491481338843133355E-15, 1.224646799147353207E-16, -1.000000000000000000 ) ) ;
#73 = EDGE_CURVE ( 'NONE', #122, #151, #286, .T. ) ;
#74 = PLANE ( 'NONE',  #32 ) ;
#75 = APPROVAL_PERSON_ORGANIZATION ( #35, #31, #41 ) ;
#76 = ORIENTED_EDGE ( 'NONE', *, *, #175, .T. ) ;
#77 = PERSON_AND_ORGANIZATION ( #173, #89 ) ;
#78 = CONICAL_SURFACE ( 'NONE', #86, 4.750000000000000000, 0.7853981633974479459 ) ;
#79 = APPROVAL_STATUS ( 'not_yet_approved' ) ;
#80 = EDGE_CURVE ( 'NONE', #178, #20, #128, .T. ) ;
#81 = DIRECTION ( 'NONE',  ( 0.0000000000000000000, 1.000000000000000000, 0.0000000000000000000 ) ) ;
#82 = APPLICATION_PROTOCOL_DEFINITION ( 'international standard', 'config_control_design', 1994, #324 ) ;
#83 =( NAMED_UNIT ( * ) SI_UNIT ( $, .STERADIAN. ) SOLID_ANGLE_UNIT ( ) );
#84 = DIRECTION ( 'NONE',  ( -3.491481338843133355E-15, 1.224646799147353207E-16, -1.000000000000000000 ) ) ;
#85 = CC_DESIGN_APPROVAL ( #124, ( #239 ) ) ;
#86 = AXIS2_PLACEMENT_3D ( 'NONE', #17, #206, #81 ) ;
#87 = APPROVAL_STATUS ( 'not_yet_approved' ) ;
#88 = MANIFOLD_SOLID_BREP ( 'Corps-Déplacer/Copier1[1]', #152 ) ;
#89 = ORGANIZATION ( 'UNSPECIFIED', 'UNSPECIFIED', '' ) ;
#90 = PRODUCT_RELATED_PRODUCT_CATEGORY ( 'detail', '', ( #180 ) ) ;
#91 = ADVANCED_FACE ( 'NONE', ( #125 ), #74, .F. ) ;
#92 = DIRECTION ( 'NONE',  ( 5.359109410468846993E-31, 1.000000000000000000, 1.508455196501576113E-16 ) ) ;
#93 = AXIS2_PLACEMENT_3D ( 'NONE', #192, #272, #120 ) ;
#94 = FACE_OUTER_BOUND ( 'NONE', #53, .T. ) ;
#95 = ORIENTED_EDGE ( 'NONE', *, *, #73, .F. ) ;
#96 = ORIENTED_EDGE ( 'NONE', *, *, #265, .F. ) ;
#97 = VERTEX_POINT ( 'NONE', #64 ) ;
#98 = DIRECTION ( 'NONE',  ( -3.491481338843133355E-15, 1.224646799147353207E-16, -1.000000000000000000 ) ) ;
#99 = DIRECTION ( 'NONE',  ( -4.275831445896958607E-31, -1.000000000000000000, -1.224646799147353207E-16 ) ) ;
#100 = DIRECTION ( 'NONE',  ( 0.0000000000000000000, 1.000000000000000000, 0.0000000000000000000 ) ) ;
#101 = FACE_OUTER_BOUND ( 'NONE', #49, .T. ) ;
#102 = ADVANCED_FACE ( 'NONE', ( #269 ), #78, .T. ) ;
#103 = DIRECTION ( 'NONE',  ( 3.491481338843133355E-15, -1.224646799147353207E-16, 1.000000000000000000 ) ) ;
#104 =( LENGTH_UNIT ( ) NAMED_UNIT ( * ) SI_UNIT ( .MILLI., .METRE. ) );
#105 = CC_DESIGN_PERSON_AND_ORGANIZATION_ASSIGNMENT ( #60, #182, ( #290 ) ) ;
#106 = ORIENTED_EDGE ( 'NONE', *, *, #235, .T. ) ;
#107 = ADVANCED_FACE ( 'NONE', ( #280 ), #4, .T. ) ;
#108 = CONICAL_SURFACE ( 'NONE', #232, 5.749999999999982236, 1.029744258676649649 ) ;
#109 = DIRECTION ( 'NONE',  ( -3.491481338843133355E-15, 1.224646799147353207E-16, -1.000000000000000000 ) ) ;
#110 = SECURITY_CLASSIFICATION_LEVEL ( 'unclassified' ) ;
#111 = CONICAL_SURFACE ( 'NONE', #153, 4.750000000000000000, 0.7853981633974479459 ) ;
#112 = UNCERTAINTY_MEASURE_WITH_UNIT (LENGTH_MEASURE( 1.000000000000000082E-05 ), #104, 'distance_accuracy_value', 'NONE');
#113 = LINE ( 'NONE', #321, #8 ) ;
#114 = AXIS2_PLACEMENT_3D ( 'NONE', #275, #103, #202 ) ;
#115 = APPROVAL ( #213, 'UNSPECIFIED' ) ;
#116 = FACE_OUTER_BOUND ( 'NONE', #252, .T. ) ;
#117 = LINE ( 'NONE', #220, #161 ) ;
#118 = DIRECTION ( 'NONE',  ( 1.903218546456022717E-15, 0.8571673007021097801, 0.5150380749100585964 ) ) ;
#119 = ORIENTED_EDGE ( 'NONE', *, *, #137, .F. ) ;
#120 = DIRECTION ( 'NONE',  ( -5.359109410468846993E-31, -1.000000000000000000, -1.508455196501576113E-16 ) ) ;
#121 = ORIENTED_EDGE ( 'NONE', *, *, #80, .T. ) ;
#122 = VERTEX_POINT ( 'NONE', #282 ) ;
#123 = DIRECTION ( 'NONE',  ( 3.491481338843133355E-15, -1.224646799147353207E-16, 1.000000000000000000 ) ) ;
#124 = APPROVAL ( #79, 'UNSPECIFIED' ) ;
#125 = FACE_OUTER_BOUND ( 'NONE', #66, .T. ) ;
#126 = CIRCLE ( 'NONE', #292, 5.749999999999982236 ) ;
#127 = DIRECTION ( 'NONE',  ( -3.491481338843133355E-15, 1.224646799147353207E-16, -1.000000000000000000 ) ) ;
#128 = LINE ( 'NONE', #149, #15 ) ;
#129 = ORIENTED_EDGE ( 'NONE', *, *, #33, .F. ) ;
#130 = PERSON_AND_ORGANIZATION_ROLE ( 'design_owner' ) ;
#131 = ORIENTED_EDGE ( 'NONE', *, *, #235, .F. ) ;
#132 = CALENDAR_DATE ( 2021, 2, 9 ) ;
#133 = CALENDAR_DATE ( 2021, 2, 9 ) ;
#134 = DATE_AND_TIME ( #183, #270 ) ;
#135 = EDGE_CURVE ( 'NONE', #122, #194, #157, .T. ) ;
#136 = VECTOR ( 'NONE', #313, 999.9999999999998863 ) ;
#137 = EDGE_CURVE ( 'NONE', #194, #97, #285, .T. ) ;
#138 = CIRCLE ( 'NONE', #245, 5.749999999999993783 ) ;
#139 = EDGE_CURVE ( 'NONE', #244, #97, #217, .T. ) ;
#140 = CARTESIAN_POINT ( 'NONE',  ( 1.206288842183774156E-14, -4.231091694498377431E-16, 3.454948559408498987 ) ) ;
#141 = ORIENTED_EDGE ( 'NONE', *, *, #287, .T. ) ;
#142 = CARTESIAN_POINT ( 'NONE',  ( 0.0000000000000000000, 0.0000000000000000000, 0.0000000000000000000 ) ) ;
#143 = CARTESIAN_POINT ( 'NONE',  ( 4.957903501157248607E-13, 3.561929483821885818E-32, 142.0000000000000000 ) ) ;
#144 = VERTEX_POINT ( 'NONE', #288 ) ;
#145 = DIRECTION ( 'NONE',  ( 4.275831445896958607E-31, 1.000000000000000000, 1.224646799147353207E-16 ) ) ;
#146 = EDGE_LOOP ( 'NONE', ( #22, #207 ) ) ;
#147 = EDGE_LOOP ( 'NONE', ( #29, #258 ) ) ;
#148 = FACE_OUTER_BOUND ( 'NONE', #256, .T. ) ;
#149 = CARTESIAN_POINT ( 'NONE',  ( 7.041719095097242423E-16, -5.749999999999987566, -7.041719095097290740E-16 ) ) ;
#150 = ORIENTED_EDGE ( 'NONE', *, *, #137, .T. ) ;
#151 = VERTEX_POINT ( 'NONE', #289 ) ;
#152 = CLOSED_SHELL ( 'NONE', ( #322, #320, #27, #18, #102, #91 ) ) ;
#153 = AXIS2_PLACEMENT_3D ( 'NONE', #170, #247, #19 ) ;
#154 = DIRECTION ( 'NONE',  ( 1.000000000000000000, 0.0000000000000000000, 0.0000000000000000000 ) ) ;
#155 = ORIENTED_EDGE ( 'NONE', *, *, #80, .F. ) ;
#156 = ORIENTED_EDGE ( 'NONE', *, *, #73, .T. ) ;
#157 = LINE ( 'NONE', #261, #136 ) ;
#158 = AXIS2_PLACEMENT_3D ( 'NONE', #327, #221, #42 ) ;
#159 = DATE_AND_TIME ( #28, #67 ) ;
#160 = CC_DESIGN_APPROVAL ( #115, ( #176 ) ) ;
#161 = VECTOR ( 'NONE', #326, 1000.000000000000000 ) ;
#162 = CIRCLE ( 'NONE', #158, 5.749999999999993783 ) ;
#163 = DIRECTION ( 'NONE',  ( 0.0000000000000000000, 1.000000000000000000, 0.0000000000000000000 ) ) ;
#164 = FACE_OUTER_BOUND ( 'NONE', #54, .T. ) ;
#165 = DIRECTION ( 'NONE',  ( 0.0000000000000000000, 1.000000000000000000, 0.0000000000000000000 ) ) ;
#166 = DIRECTION ( 'NONE',  ( 0.0000000000000000000, 1.000000000000000000, 0.0000000000000000000 ) ) ;
#167 = PLANE ( 'NONE',  #114 ) ;
#168 = APPROVAL_PERSON_ORGANIZATION ( #283, #124, #334 ) ;
#169 = EDGE_CURVE ( 'NONE', #144, #244, #113, .T. ) ;
#170 = CARTESIAN_POINT ( 'NONE',  ( 4.957903501157248607E-13, -1.738998454789241313E-14, 142.0000000000000000 ) ) ;
#171 = FACE_OUTER_BOUND ( 'NONE', #147, .T. ) ;
#172 = CARTESIAN_POINT ( 'NONE',  ( 4.922988687768817400E-13, 5.749999999999982236, 141.0000000000000000 ) ) ;
#173 = PERSON ( 'UNSPECIFIED', 'UNSPECIFIED', 'UNSPECIFIED', ('UNSPECIFIED'), ('UNSPECIFIED'), ('UNSPECIFIED') ) ;
#174 = ORIENTED_EDGE ( 'NONE', *, *, #46, .F. ) ;
#175 = EDGE_CURVE ( 'NONE', #178, #203, #138, .T. ) ;
#176 = PRODUCT_DEFINITION_FORMATION_WITH_SPECIFIED_SOURCE ( 'ANY', '', #180, .NOT_KNOWN. ) ;
#177 = ORIENTED_EDGE ( 'NONE', *, *, #139, .F. ) ;
#178 = VERTEX_POINT ( 'NONE', #331 ) ;
#179 = CIRCLE ( 'NONE', #304, 4.750000000000000000 ) ;
#180 = PRODUCT ( '54795', '54795', '', ( #211 ) ) ;
#181 = PERSON_AND_ORGANIZATION ( #173, #89 ) ;
#182 = PERSON_AND_ORGANIZATION_ROLE ( 'classification_officer' ) ;
#183 = CALENDAR_DATE ( 2021, 2, 9 ) ;
#184 = AXIS2_PLACEMENT_3D ( 'NONE', #224, #72, #255 ) ;
#185 = MANIFOLD_SOLID_BREP ( 'Corps-Déplacer/Copier1[2]', #333 ) ;
#186 = ADVANCED_FACE ( 'NONE', ( #148 ), #108, .T. ) ;
#187 = CARTESIAN_POINT ( 'NONE',  ( 1.276706033134746867E-14, 5.749999999999982236, 3.454948559408499875 ) ) ;
#188 = CIRCLE ( 'NONE', #39, 5.749999999999993783 ) ;
#189 = AXIS2_PLACEMENT_3D ( 'NONE', #190, #268, #298 ) ;
#190 = CARTESIAN_POINT ( 'NONE',  ( 0.0000000000000000000, 0.0000000000000000000, 0.0000000000000000000 ) ) ;
#191 = FACE_OUTER_BOUND ( 'NONE', #146, .T. ) ;
#192 = CARTESIAN_POINT ( 'NONE',  ( 1.206288842183774156E-14, -4.231091694498377431E-16, 3.454948559408498987 ) ) ;
#193 = ORIENTED_EDGE ( 'NONE', *, *, #204, .T. ) ;
#194 = VERTEX_POINT ( 'NONE', #172 ) ;
#195 = FACE_OUTER_BOUND ( 'NONE', #246, .T. ) ;
#196 = DIRECTION ( 'NONE',  ( -3.491481338843133355E-15, 1.224646799147353207E-16, -1.000000000000000000 ) ) ;
#197 = AXIS2_PLACEMENT_3D ( 'NONE', #332, #303, #165 ) ;
#198 = DIRECTION ( 'NONE',  ( -5.359109410468846993E-31, -1.000000000000000000, -1.508455196501576113E-16 ) ) ;
#199 = ORIENTED_EDGE ( 'NONE', *, *, #200, .F. ) ;
#200 = EDGE_CURVE ( 'NONE', #144, #194, #262, .T. ) ;
#201 = PERSON_AND_ORGANIZATION_ROLE ( 'creator' ) ;
#202 = DIRECTION ( 'NONE',  ( -4.275831445896958607E-31, -1.000000000000000000, -1.224646799147353207E-16 ) ) ;
#203 = VERTEX_POINT ( 'NONE', #62 ) ;
#204 = EDGE_CURVE ( 'NONE', #151, #122, #179, .T. ) ;
#205 = PERSON_AND_ORGANIZATION ( #173, #89 ) ;
#206 = DIRECTION ( 'NONE',  ( -3.491481338843133355E-15, 1.224646799147353207E-16, -1.000000000000000000 ) ) ;
#207 = ORIENTED_EDGE ( 'NONE', *, *, #175, .F. ) ;
#208 = AXIS2_PLACEMENT_3D ( 'NONE', #11, #12, #218 ) ;
#209 = APPLICATION_PROTOCOL_DEFINITION ( 'international standard', 'config_control_design', 1994, #294 ) ;
#210 = CC_DESIGN_DATE_AND_TIME_ASSIGNMENT ( #10, #238, ( #290 ) ) ;
#211 = MECHANICAL_CONTEXT ( 'NONE', #324, 'mechanical' ) ;
#212 = CC_DESIGN_PERSON_AND_ORGANIZATION_ASSIGNMENT ( #205, #130, ( #180 ) ) ;
#213 = APPROVAL_STATUS ( 'not_yet_approved' ) ;
#214 = DIRECTION ( 'NONE',  ( 4.275831445896958607E-31, 1.000000000000000000, 1.224646799147353207E-16 ) ) ;
#215 = CC_DESIGN_SECURITY_CLASSIFICATION ( #290, ( #176 ) ) ;
#216 = CC_DESIGN_PERSON_AND_ORGANIZATION_ASSIGNMENT ( #181, #201, ( #176 ) ) ;
#217 = CIRCLE ( 'NONE', #208, 5.749999999999993783 ) ;
#218 = DIRECTION ( 'NONE',  ( 0.0000000000000000000, 1.000000000000000000, 0.0000000000000000000 ) ) ;
#219 = CARTESIAN_POINT ( 'NONE',  ( 1.206288842183773841E-14, -5.749999999999982236, 3.454948559408498099 ) ) ;
#220 = CARTESIAN_POINT ( 'NONE',  ( 4.963720573453199221E-13, -4.750000000000016875, 142.0000000000000000 ) ) ;
#221 = DIRECTION ( 'NONE',  ( -3.491481338843133355E-15, 1.224646799147353207E-16, -1.000000000000000000 ) ) ;
#222 = CYLINDRICAL_SURFACE ( 'NONE', #184, 5.749999999999996447 ) ;
#223 = DIRECTION ( 'NONE',  ( -3.491481338843133355E-15, 1.224646799147353207E-16, -1.000000000000000000 ) ) ;
#224 = CARTESIAN_POINT ( 'NONE',  ( 0.0000000000000000000, 0.0000000000000000000, 0.0000000000000000000 ) ) ;
#225 = ORIENTED_EDGE ( 'NONE', *, *, #254, .F. ) ;
#226 = CARTESIAN_POINT ( 'NONE',  ( 2.458603081390745988E-30, 5.749999999999987566, 7.041719095097266088E-16 ) ) ;
#227 = COORDINATED_UNIVERSAL_TIME_OFFSET ( 1, 0, .AHEAD. ) ;
#228 = EDGE_LOOP ( 'NONE', ( #21, #193, #337, #199 ) ) ;
#229 = CARTESIAN_POINT ( 'NONE',  ( 0.0000000000000000000, 0.0000000000000000000, 0.0000000000000000000 ) ) ;
#230 = ORIENTED_EDGE ( 'NONE', *, *, #204, .F. ) ;
#231 = AXIS2_PLACEMENT_3D ( 'NONE', #229, #279, #154 ) ;
#232 = AXIS2_PLACEMENT_3D ( 'NONE', #274, #123, #198 ) ;
#233 = DATE_AND_TIME ( #132, #323 ) ;
#234 = APPROVAL_ROLE ( '' ) ;
#235 = EDGE_CURVE ( 'NONE', #248, #20, #126, .T. ) ;
#236 = AXIS2_PLACEMENT_3D ( 'NONE', #273, #51, #48 ) ;
#237 = AXIS2_PLACEMENT_3D ( 'NONE', #140, #240, #13 ) ;
#238 = DATE_TIME_ROLE ( 'classification_date' ) ;
#239 = PRODUCT_DEFINITION ( 'UNKNOWN', '', #176, #319 ) ;
#240 = DIRECTION ( 'NONE',  ( -3.491481338843133355E-15, 1.224646799147353207E-16, -1.000000000000000000 ) ) ;
#241 = PLANE ( 'NONE',  #317 ) ;
#242 = CC_DESIGN_PERSON_AND_ORGANIZATION_ASSIGNMENT ( #36, #264, ( #176 ) ) ;
#243 = DIRECTION ( 'NONE',  ( -3.491481338843133355E-15, 1.224646799147353207E-16, -1.000000000000000000 ) ) ;
#244 = VERTEX_POINT ( 'NONE', #329 ) ;
#245 = AXIS2_PLACEMENT_3D ( 'NONE', #69, #243, #100 ) ;
#246 = EDGE_LOOP ( 'NONE', ( #156, #308, #174, #55 ) ) ;
#247 = DIRECTION ( 'NONE',  ( -3.491481338843133355E-15, 1.224646799147353207E-16, -1.000000000000000000 ) ) ;
#248 = VERTEX_POINT ( 'NONE', #187 ) ;
#249 = ORIENTED_EDGE ( 'NONE', *, *, #169, .F. ) ;
#250 = DIRECTION ( 'NONE',  ( -3.491481338843133355E-15, 1.224646799147353207E-16, -1.000000000000000000 ) ) ;
#251 = ADVANCED_BREP_SHAPE_REPRESENTATION ( '54795', ( #88, #185, #231 ), #316 ) ;
#252 = EDGE_LOOP ( 'NONE', ( #225, #257, #106 ) ) ;
#253 = CARTESIAN_POINT ( 'NONE',  ( 1.206288842183774156E-14, -4.231091694498377431E-16, 3.454948559408498987 ) ) ;
#254 = EDGE_CURVE ( 'NONE', #26, #20, #297, .T. ) ;
#255 = DIRECTION ( 'NONE',  ( 4.275831445896958607E-31, 1.000000000000000000, 1.224646799147353207E-16 ) ) ;
#256 = EDGE_LOOP ( 'NONE', ( #96, #307, #71 ) ) ;
#257 = ORIENTED_EDGE ( 'NONE', *, *, #265, .T. ) ;
#258 = ORIENTED_EDGE ( 'NONE', *, *, #139, .T. ) ;
#259 = EDGE_CURVE ( 'NONE', #97, #244, #188, .T. ) ;
#260 = PERSON_AND_ORGANIZATION_ROLE ( 'creator' ) ;
#261 = CARTESIAN_POINT ( 'NONE',  ( 4.957903501157248607E-13, 4.749999999999982236, 142.0000000000000000 ) ) ;
#262 = CIRCLE ( 'NONE', #266, 5.750000000000000000 ) ;
#263 = APPROVAL_DATE_TIME ( #314, #115 ) ;
#264 = PERSON_AND_ORGANIZATION_ROLE ( 'design_supplier' ) ;
#265 = EDGE_CURVE ( 'NONE', #26, #248, #267, .T. ) ;
#266 = AXIS2_PLACEMENT_3D ( 'NONE', #65, #50, #166 ) ;
#267 = LINE ( 'NONE', #16, #3 ) ;
#268 = DIRECTION ( 'NONE',  ( -3.491481338843133355E-15, 1.224646799147353207E-16, -1.000000000000000000 ) ) ;
#269 = FACE_OUTER_BOUND ( 'NONE', #228, .T. ) ;
#270 = LOCAL_TIME ( 15, 38, 24.00000000000000000, #7 ) ;
#271 = LOCAL_TIME ( 15, 38, 24.00000000000000000, #34 ) ;
#272 = DIRECTION ( 'NONE',  ( 3.491481338843133355E-15, -1.224646799147353207E-16, 1.000000000000000000 ) ) ;
#273 = CARTESIAN_POINT ( 'NONE',  ( 4.957903501157248607E-13, -1.738998454789241313E-14, 142.0000000000000000 ) ) ;
#274 = CARTESIAN_POINT ( 'NONE',  ( 1.206288842183774156E-14, -4.231091694498377431E-16, 3.454948559408498987 ) ) ;
#275 = CARTESIAN_POINT ( 'NONE',  ( 3.281992458512545606E-13, 4.311809375152819548E-32, 94.00000000000000000 ) ) ;
#276 = ORIENTED_EDGE ( 'NONE', *, *, #259, .F. ) ;
#277 = DIRECTION ( 'NONE',  ( 0.0000000000000000000, 1.000000000000000000, 0.0000000000000000000 ) ) ;
#278 = ORIENTED_EDGE ( 'NONE', *, *, #200, .T. ) ;
#279 = DIRECTION ( 'NONE',  ( 0.0000000000000000000, 0.0000000000000000000, 1.000000000000000000 ) ) ;
#280 = FACE_OUTER_BOUND ( 'NONE', #335, .T. ) ;
#281 = PERSON_AND_ORGANIZATION ( #173, #89 ) ;
#282 = CARTESIAN_POINT ( 'NONE',  ( 4.957903501157248607E-13, 4.749999999999982236, 142.0000000000000000 ) ) ;
#283 = PERSON_AND_ORGANIZATION ( #173, #89 ) ;
#284 = CC_DESIGN_APPROVAL ( #31, ( #290 ) ) ;
#285 = LINE ( 'NONE', #315, #296 ) ;
#286 = CIRCLE ( 'NONE', #236, 4.750000000000000000 ) ;
#287 = EDGE_CURVE ( 'NONE', #203, #178, #162, .T. ) ;
#288 = CARTESIAN_POINT ( 'NONE',  ( 4.109532292235777701E-13, -5.750000000000015987, 141.0000000000000000 ) ) ;
#289 = CARTESIAN_POINT ( 'NONE',  ( 4.946875490158556914E-13, -4.750000000000016875, 142.0000000000000000 ) ) ;
#290 = SECURITY_CLASSIFICATION ( '', '', #110 ) ;
#291 = APPROVAL_DATE_TIME ( #134, #31 ) ;
#292 = AXIS2_PLACEMENT_3D ( 'NONE', #253, #127, #92 ) ;
#293 = EDGE_CURVE ( 'NONE', #20, #248, #57, .T. ) ;
#294 = APPLICATION_CONTEXT ( 'configuration controlled 3d designs of mechanical parts and assemblies' ) ;
#295 = ADVANCED_FACE ( 'NONE', ( #116 ), #25, .T. ) ;
#296 = VECTOR ( 'NONE', #84, 1000.000000000000000 ) ;
#297 = LINE ( 'NONE', #219, #318 ) ;
#298 = DIRECTION ( 'NONE',  ( 4.275831445896958607E-31, 1.000000000000000000, 1.224646799147353207E-16 ) ) ;
#299 = DIRECTION ( 'NONE',  ( 4.275831445896958607E-31, 1.000000000000000000, 1.224646799147353207E-16 ) ) ;
#300 = DIRECTION ( 'NONE',  ( -3.491481338843133355E-15, 1.224646799147353207E-16, -1.000000000000000000 ) ) ;
#301 = CARTESIAN_POINT ( 'NONE',  ( 1.206288842183773841E-14, -5.749999999999982236, 3.454948559408498099 ) ) ;
#302 = DIRECTION ( 'NONE',  ( -3.491481338843133355E-15, 1.224646799147353207E-16, -1.000000000000000000 ) ) ;
#303 = DIRECTION ( 'NONE',  ( -3.491481338843133355E-15, 1.224646799147353207E-16, -1.000000000000000000 ) ) ;
#304 = AXIS2_PLACEMENT_3D ( 'NONE', #306, #300, #277 ) ;
#305 = ORIENTED_EDGE ( 'NONE', *, *, #293, .F. ) ;
#306 = CARTESIAN_POINT ( 'NONE',  ( 4.957903501157248607E-13, -1.738998454789241313E-14, 142.0000000000000000 ) ) ;
#307 = ORIENTED_EDGE ( 'NONE', *, *, #254, .T. ) ;
#308 = ORIENTED_EDGE ( 'NONE', *, *, #37, .T. ) ;
#309 = LINE ( 'NONE', #226, #312 ) ;
#310 = ADVANCED_FACE ( 'NONE', ( #94 ), #47, .T. ) ;
#311 = COORDINATED_UNIVERSAL_TIME_OFFSET ( 1, 0, .AHEAD. ) ;
#312 = VECTOR ( 'NONE', #196, 1000.000000000000000 ) ;
#313 = DIRECTION ( 'NONE',  ( -2.468850131082266527E-15, 0.7071067811865473507, -0.7071067811865477948 ) ) ;
#314 = DATE_AND_TIME ( #133, #271 ) ;
#315 = CARTESIAN_POINT ( 'NONE',  ( 2.458603081390749841E-30, 5.749999999999996447, 7.041719095097276935E-16 ) ) ;
#316 =( GEOMETRIC_REPRESENTATION_CONTEXT ( 3 ) GLOBAL_UNCERTAINTY_ASSIGNED_CONTEXT ( ( #112 ) ) GLOBAL_UNIT_ASSIGNED_CONTEXT ( ( #104, #2, #83 ) ) REPRESENTATION_CONTEXT ( 'NONE', 'WORKASPACE' ) );
#317 = AXIS2_PLACEMENT_3D ( 'NONE', #14, #24, #99 ) ;
#318 = VECTOR ( 'NONE', #325, 1000.000000000000000 ) ;
#319 = DESIGN_CONTEXT ( 'detailed design', #294, 'design' ) ;
#320 = ADVANCED_FACE ( 'NONE', ( #164 ), #63, .T. ) ;
#321 = CARTESIAN_POINT ( 'NONE',  ( 7.041719095097253269E-16, -5.749999999999996447, -7.041719095097300601E-16 ) ) ;
#322 = ADVANCED_FACE ( 'NONE', ( #195 ), #111, .T. ) ;
#323 = LOCAL_TIME ( 15, 38, 24.00000000000000000, #311 ) ;
#324 = APPLICATION_CONTEXT ( 'configuration controlled 3d designs of mechanical parts and assemblies' ) ;
#325 = DIRECTION ( 'NONE',  ( 1.798245827342160317E-15, -0.8571673007021098911, 0.5150380749100582634 ) ) ;
#326 = DIRECTION ( 'NONE',  ( -2.382254525458717469E-15, -0.7071067811865471286, -0.7071067811865479058 ) ) ;
#327 = CARTESIAN_POINT ( 'NONE',  ( 3.281992458512545606E-13, -1.151167991198512128E-14, 94.00000000000000000 ) ) ;
#328 = ORIENTED_EDGE ( 'NONE', *, *, #169, .T. ) ;
#329 = CARTESIAN_POINT ( 'NONE',  ( 4.109532292235778711E-13, -5.750000000000005329, 94.00000000000000000 ) ) ;
#330 = CARTESIAN_POINT ( 'NONE',  ( 0.0000000000000000000, 0.0000000000000000000, 0.0000000000000000000 ) ) ;
#331 = CARTESIAN_POINT ( 'NONE',  ( 1.708352390460555295E-13, -5.750000000000006217, 94.00000000000000000 ) ) ;
#332 = CARTESIAN_POINT ( 'NONE',  ( 4.922988687768817400E-13, -1.726751986797767798E-14, 141.0000000000000000 ) ) ;
#333 = CLOSED_SHELL ( 'NONE', ( #107, #295, #186, #310, #52 ) ) ;
#334 = APPROVAL_ROLE ( '' ) ;
#335 = EDGE_LOOP ( 'NONE', ( #141, #121, #131, #129 ) ) ;
#336 = APPROVAL_DATE_TIME ( #159, #124 ) ;
#337 = ORIENTED_EDGE ( 'NONE', *, *, #135, .T. ) ;
ENDSEC;
END-ISO-10303-21;
