ISO-10303-21;
HEADER;
FILE_DESCRIPTION (( 'STEP AP203' ),
    '1' );
FILE_NAME ('54793.step',
    '2021-09-02T13:38:23',
    ( '' ),
    ( '' ),
    'SwSTEP 2.0',
    'SolidWorks 2019',
    '' );
FILE_SCHEMA (( 'CONFIG_CONTROL_DESIGN' ));
ENDSEC;

DATA;
#1 = AXIS2_PLACEMENT_3D ( 'NONE', #212, #156, #262 ) ;
#2 = AXIS2_PLACEMENT_3D ( 'NONE', #263, #211, #289 ) ;
#3 = CARTESIAN_POINT ( 'NONE',  ( 6.735557395310406524E-16, -5.499999999999989342, -6.735557395310452870E-16 ) ) ;
#4 = APPROVAL ( #90, 'UNSPECIFIED' ) ;
#5 = DIRECTION ( 'NONE',  ( 0.0000000000000000000, 1.000000000000000000, 0.0000000000000000000 ) ) ;
#6 = DIRECTION ( 'NONE',  ( 0.0000000000000000000, 1.000000000000000000, 0.0000000000000000000 ) ) ;
#7 =( GEOMETRIC_REPRESENTATION_CONTEXT ( 3 ) GLOBAL_UNCERTAINTY_ASSIGNED_CONTEXT ( ( #28 ) ) GLOBAL_UNIT_ASSIGNED_CONTEXT ( ( #59, #266, #81 ) ) REPRESENTATION_CONTEXT ( 'NONE', 'WORKASPACE' ) );
#8 = FACE_OUTER_BOUND ( 'NONE', #49, .T. ) ;
#9 = PLANE ( 'NONE',  #80 ) ;
#10 = EDGE_CURVE ( 'NONE', #69, #47, #195, .T. ) ;
#11 = ADVANCED_FACE ( 'NONE', ( #329 ), #225, .T. ) ;
#12 = ORGANIZATION ( 'UNSPECIFIED', 'UNSPECIFIED', '' ) ;
#13 = DIRECTION ( 'NONE',  ( -3.491481338843133355E-15, 1.224646799147353207E-16, -1.000000000000000000 ) ) ;
#14 = CARTESIAN_POINT ( 'NONE',  ( 1.153841501219261715E-14, -5.499999999999983125, 3.304733404651606588 ) ) ;
#15 = APPLICATION_CONTEXT ( 'configuration controlled 3d designs of mechanical parts and assemblies' ) ;
#16 = LINE ( 'NONE', #243, #305 ) ;
#17 = AXIS2_PLACEMENT_3D ( 'NONE', #51, #290, #5 ) ;
#18 = CLOSED_SHELL ( 'NONE', ( #26, #155, #176, #301, #98, #159 ) ) ;
#19 = EDGE_CURVE ( 'NONE', #139, #42, #214, .T. ) ;
#20 = ORIENTED_EDGE ( 'NONE', *, *, #50, .F. ) ;
#21 = CARTESIAN_POINT ( 'NONE',  ( 4.957903501157248607E-13, -1.738998454789241313E-14, 142.0000000000000000 ) ) ;
#22 = CC_DESIGN_PERSON_AND_ORGANIZATION_ASSIGNMENT ( #278, #174, ( #118 ) ) ;
#23 = DATE_AND_TIME ( #92, #39 ) ;
#24 = ORIENTED_EDGE ( 'NONE', *, *, #50, .T. ) ;
#25 = VECTOR ( 'NONE', #153, 999.9999999999998863 ) ;
#26 = ADVANCED_FACE ( 'NONE', ( #311 ), #48, .T. ) ;
#27 = VERTEX_POINT ( 'NONE', #273 ) ;
#28 = UNCERTAINTY_MEASURE_WITH_UNIT (LENGTH_MEASURE( 1.000000000000000082E-05 ), #59, 'distance_accuracy_value', 'NONE');
#29 = ORIENTED_EDGE ( 'NONE', *, *, #125, .T. ) ;
#30 = DIRECTION ( 'NONE',  ( -4.275831445896958607E-31, -1.000000000000000000, -1.224646799147353207E-16 ) ) ;
#31 = AXIS2_PLACEMENT_3D ( 'NONE', #201, #97, #253 ) ;
#32 = APPROVAL_PERSON_ORGANIZATION ( #328, #4, #227 ) ;
#33 = CARTESIAN_POINT ( 'NONE',  ( 0.0000000000000000000, 0.0000000000000000000, 0.0000000000000000000 ) ) ;
#34 = CARTESIAN_POINT ( 'NONE',  ( 1.705423861712542914E-13, -5.500000000000005329, 94.00000000000000000 ) ) ;
#35 = DIRECTION ( 'NONE',  ( -3.491481338843133355E-15, 1.224646799147353207E-16, -1.000000000000000000 ) ) ;
#36 = CYLINDRICAL_SURFACE ( 'NONE', #157, 5.499999999999989342 ) ;
#37 = DIRECTION ( 'NONE',  ( -3.491481338843133355E-15, 1.224646799147353207E-16, -1.000000000000000000 ) ) ;
#38 = FACE_OUTER_BOUND ( 'NONE', #240, .T. ) ;
#39 = LOCAL_TIME ( 15, 38, 23.00000000000000000, #200 ) ;
#40 = DIRECTION ( 'NONE',  ( 1.000000000000000000, 0.0000000000000000000, 0.0000000000000000000 ) ) ;
#41 = CARTESIAN_POINT ( 'NONE',  ( 2.351707295243326270E-30, 5.499999999999998224, 6.735557395310440051E-16 ) ) ;
#42 = VERTEX_POINT ( 'NONE', #314 ) ;
#43 = APPROVAL_STATUS ( 'not_yet_approved' ) ;
#44 = ORIENTED_EDGE ( 'NONE', *, *, #151, .F. ) ;
#45 = DIRECTION ( 'NONE',  ( -3.491481338843133355E-15, 1.224646799147353207E-16, -1.000000000000000000 ) ) ;
#46 = PERSON_AND_ORGANIZATION ( #186, #12 ) ;
#47 = VERTEX_POINT ( 'NONE', #236 ) ;
#48 = CONICAL_SURFACE ( 'NONE', #265, 4.500000000000000888, 0.7853981633974339571 ) ;
#49 = EDGE_LOOP ( 'NONE', ( #116, #144, #24 ) ) ;
#50 = EDGE_CURVE ( 'NONE', #42, #139, #260, .T. ) ;
#51 = CARTESIAN_POINT ( 'NONE',  ( 4.957903501157248607E-13, -1.738998454789241313E-14, 142.0000000000000000 ) ) ;
#52 = FACE_OUTER_BOUND ( 'NONE', #327, .T. ) ;
#53 = CARTESIAN_POINT ( 'NONE',  ( 3.281992458512545606E-13, -1.151167991198512128E-14, 94.00000000000000000 ) ) ;
#54 = CARTESIAN_POINT ( 'NONE',  ( 4.109226130535990800E-13, -5.500000000000017764, 140.9999999999999716 ) ) ;
#55 = CARTESIAN_POINT ( 'NONE',  ( 0.0000000000000000000, 0.0000000000000000000, 0.0000000000000000000 ) ) ;
#56 = AXIS2_PLACEMENT_3D ( 'NONE', #148, #259, #30 ) ;
#57 = AXIS2_PLACEMENT_3D ( 'NONE', #279, #230, #250 ) ;
#58 = LINE ( 'NONE', #137, #321 ) ;
#59 =( LENGTH_UNIT ( ) NAMED_UNIT ( * ) SI_UNIT ( .MILLI., .METRE. ) );
#60 = ADVANCED_BREP_SHAPE_REPRESENTATION ( '54793', ( #76, #297, #152 ), #7 ) ;
#61 = CALENDAR_DATE ( 2021, 2, 9 ) ;
#62 = PERSON_AND_ORGANIZATION_ROLE ( 'creator' ) ;
#63 = ORIENTED_EDGE ( 'NONE', *, *, #299, .F. ) ;
#64 = CC_DESIGN_SECURITY_CLASSIFICATION ( #317, ( #118 ) ) ;
#65 = APPLICATION_CONTEXT ( 'configuration controlled 3d designs of mechanical parts and assemblies' ) ;
#66 = ORIENTED_EDGE ( 'NONE', *, *, #302, .T. ) ;
#67 = ORIENTED_EDGE ( 'NONE', *, *, #109, .T. ) ;
#68 = PERSON_AND_ORGANIZATION ( #186, #12 ) ;
#69 = VERTEX_POINT ( 'NONE', #54 ) ;
#70 = PLANE ( 'NONE',  #56 ) ;
#71 = CARTESIAN_POINT ( 'NONE',  ( 4.946569328458769508E-13, -4.500000000000017764, 142.0000000000000000 ) ) ;
#72 = DIRECTION ( 'NONE',  ( -4.275831445896958607E-31, -1.000000000000000000, -1.224646799147353207E-16 ) ) ;
#73 = ADVANCED_FACE ( 'NONE', ( #208 ), #36, .T. ) ;
#74 = ADVANCED_FACE ( 'NONE', ( #52 ), #9, .T. ) ;
#75 = AXIS2_PLACEMENT_3D ( 'NONE', #55, #207, #315 ) ;
#76 = MANIFOLD_SOLID_BREP ( 'Corps-Déplacer/Copier1[1]', #18 ) ;
#77 = DIRECTION ( 'NONE',  ( -3.491481338843133355E-15, 1.224646799147353207E-16, -1.000000000000000000 ) ) ;
#78 = CARTESIAN_POINT ( 'NONE',  ( 4.957903501157248607E-13, -1.738998454789241313E-14, 142.0000000000000000 ) ) ;
#79 = DIRECTION ( 'NONE',  ( 0.0000000000000000000, 1.000000000000000000, 0.0000000000000000000 ) ) ;
#80 = AXIS2_PLACEMENT_3D ( 'NONE', #122, #187, #72 ) ;
#81 =( NAMED_UNIT ( * ) SI_UNIT ( $, .STERADIAN. ) SOLID_ANGLE_UNIT ( ) );
#82 = CARTESIAN_POINT ( 'NONE',  ( 6.735557395310417371E-16, -5.499999999999998224, -6.735557395310463717E-16 ) ) ;
#83 = DIRECTION ( 'NONE',  ( 1.798245827342160317E-15, -0.8571673007021098911, 0.5150380749100582634 ) ) ;
#84 = ORIENTED_EDGE ( 'NONE', *, *, #161, .F. ) ;
#85 = ADVANCED_FACE ( 'NONE', ( #8 ), #269, .T. ) ;
#86 = AXIS2_PLACEMENT_3D ( 'NONE', #104, #183, #105 ) ;
#87 = DIRECTION ( 'NONE',  ( -2.382254525458752968E-15, -0.7071067811865372477, -0.7071067811865578978 ) ) ;
#88 = CALENDAR_DATE ( 2021, 2, 9 ) ;
#89 = ORIENTED_EDGE ( 'NONE', *, *, #302, .F. ) ;
#90 = APPROVAL_STATUS ( 'not_yet_approved' ) ;
#91 = VERTEX_POINT ( 'NONE', #71 ) ;
#92 = CALENDAR_DATE ( 2021, 2, 9 ) ;
#93 = CIRCLE ( 'NONE', #331, 5.500000000000000888 ) ;
#94 = ORIENTED_EDGE ( 'NONE', *, *, #10, .T. ) ;
#95 = PERSON_AND_ORGANIZATION_ROLE ( 'creator' ) ;
#96 = ORIENTED_EDGE ( 'NONE', *, *, #19, .F. ) ;
#97 = DIRECTION ( 'NONE',  ( -3.491481338843133355E-15, 1.224646799147353207E-16, -1.000000000000000000 ) ) ;
#98 = ADVANCED_FACE ( 'NONE', ( #149 ), #288, .T. ) ;
#99 = DIRECTION ( 'NONE',  ( 0.0000000000000000000, 1.000000000000000000, 0.0000000000000000000 ) ) ;
#100 = AXIS2_PLACEMENT_3D ( 'NONE', #272, #293, #134 ) ;
#101 = FACE_OUTER_BOUND ( 'NONE', #336, .T. ) ;
#102 = CARTESIAN_POINT ( 'NONE',  ( 3.281992458512545606E-13, -1.151167991198512128E-14, 94.00000000000000000 ) ) ;
#103 = LINE ( 'NONE', #41, #150 ) ;
#104 = CARTESIAN_POINT ( 'NONE',  ( 1.153841501219262031E-14, -4.047131186041925746E-16, 3.304733404651607476 ) ) ;
#105 = DIRECTION ( 'NONE',  ( -5.602705292762885293E-31, -1.000000000000000000, -1.577021341797102244E-16 ) ) ;
#106 = AXIS2_PLACEMENT_3D ( 'NONE', #78, #77, #182 ) ;
#107 = PERSON_AND_ORGANIZATION ( #186, #12 ) ;
#108 = LINE ( 'NONE', #82, #209 ) ;
#109 = EDGE_CURVE ( 'NONE', #308, #91, #316, .T. ) ;
#110 = DIRECTION ( 'NONE',  ( -3.491481338843133355E-15, 1.224646799147353207E-16, -1.000000000000000000 ) ) ;
#111 = EDGE_CURVE ( 'NONE', #91, #308, #202, .T. ) ;
#112 = AXIS2_PLACEMENT_3D ( 'NONE', #318, #237, #287 ) ;
#113 = DIRECTION ( 'NONE',  ( 0.0000000000000000000, 1.000000000000000000, 0.0000000000000000000 ) ) ;
#114 = COORDINATED_UNIVERSAL_TIME_OFFSET ( 1, 0, .AHEAD. ) ;
#115 = ORIENTED_EDGE ( 'NONE', *, *, #271, .F. ) ;
#116 = ORIENTED_EDGE ( 'NONE', *, *, #125, .F. ) ;
#117 = ORIENTED_EDGE ( 'NONE', *, *, #313, .F. ) ;
#118 = PRODUCT_DEFINITION_FORMATION_WITH_SPECIFIED_SOURCE ( 'ANY', '', #206, .NOT_KNOWN. ) ;
#119 = APPROVAL ( #43, 'UNSPECIFIED' ) ;
#120 = ORIENTED_EDGE ( 'NONE', *, *, #111, .T. ) ;
#121 = EDGE_LOOP ( 'NONE', ( #67, #304, #117, #245 ) ) ;
#122 = CARTESIAN_POINT ( 'NONE',  ( 3.281992458512545606E-13, 4.124339402320087621E-32, 94.00000000000000000 ) ) ;
#123 = AXIS2_PLACEMENT_3D ( 'NONE', #53, #264, #6 ) ;
#124 = CARTESIAN_POINT ( 'NONE',  ( 1.221197075172366520E-14, 5.499999999999983125, 3.304733404651608364 ) ) ;
#125 = EDGE_CURVE ( 'NONE', #27, #139, #261, .T. ) ;
#126 = CARTESIAN_POINT ( 'NONE',  ( 3.281992458512545606E-13, 5.499999999999983125, 94.00000000000000000 ) ) ;
#127 = CARTESIAN_POINT ( 'NONE',  ( 1.221197075172366520E-14, 5.499999999999983125, 3.304733404651608364 ) ) ;
#128 = AXIS2_PLACEMENT_3D ( 'NONE', #102, #238, #319 ) ;
#129 = FACE_OUTER_BOUND ( 'NONE', #276, .T. ) ;
#130 = DIRECTION ( 'NONE',  ( 0.0000000000000000000, 0.0000000000000000000, 1.000000000000000000 ) ) ;
#131 = AXIS2_PLACEMENT_3D ( 'NONE', #190, #320, #239 ) ;
#132 = APPROVAL ( #141, 'UNSPECIFIED' ) ;
#133 = APPROVAL_PERSON_ORGANIZATION ( #255, #119, #249 ) ;
#134 = DIRECTION ( 'NONE',  ( 0.0000000000000000000, 1.000000000000000000, 0.0000000000000000000 ) ) ;
#135 = APPLICATION_PROTOCOL_DEFINITION ( 'international standard', 'config_control_design', 1994, #65 ) ;
#136 = VERTEX_POINT ( 'NONE', #235 ) ;
#137 = CARTESIAN_POINT ( 'NONE',  ( 4.957903501157248607E-13, 4.499999999999983125, 142.0000000000000000 ) ) ;
#138 = VECTOR ( 'NONE', #87, 999.9999999999998863 ) ;
#139 = VERTEX_POINT ( 'NONE', #127 ) ;
#140 = PRODUCT_RELATED_PRODUCT_CATEGORY ( 'detail', '', ( #206 ) ) ;
#141 = APPROVAL_STATUS ( 'not_yet_approved' ) ;
#142 = VERTEX_POINT ( 'NONE', #180 ) ;
#143 = COORDINATED_UNIVERSAL_TIME_OFFSET ( 1, 0, .AHEAD. ) ;
#144 = ORIENTED_EDGE ( 'NONE', *, *, #210, .T. ) ;
#145 = DATE_AND_TIME ( #335, #184 ) ;
#146 = VERTEX_POINT ( 'NONE', #126 ) ;
#147 = ORIENTED_EDGE ( 'NONE', *, *, #19, .T. ) ;
#148 = CARTESIAN_POINT ( 'NONE',  ( 3.281992458512545606E-13, 4.124339402320087621E-32, 94.00000000000000000 ) ) ;
#149 = FACE_OUTER_BOUND ( 'NONE', #334, .T. ) ;
#150 = VECTOR ( 'NONE', #37, 1000.000000000000000 ) ;
#151 = EDGE_CURVE ( 'NONE', #203, #146, #282, .T. ) ;
#152 = AXIS2_PLACEMENT_3D ( 'NONE', #267, #130, #40 ) ;
#153 = DIRECTION ( 'NONE',  ( 1.903218546456022717E-15, 0.8571673007021097801, 0.5150380749100585964 ) ) ;
#154 = DIRECTION ( 'NONE',  ( 4.275831445896957731E-31, 1.000000000000000000, 1.224646799147353207E-16 ) ) ;
#155 = ADVANCED_FACE ( 'NONE', ( #292 ), #286, .T. ) ;
#156 = DIRECTION ( 'NONE',  ( -3.491481338843133355E-15, 1.224646799147353207E-16, -1.000000000000000000 ) ) ;
#157 = AXIS2_PLACEMENT_3D ( 'NONE', #33, #35, #154 ) ;
#158 = CLOSED_SHELL ( 'NONE', ( #73, #11, #85, #277, #74 ) ) ;
#159 = ADVANCED_FACE ( 'NONE', ( #129 ), #185, .F. ) ;
#160 = CC_DESIGN_PERSON_AND_ORGANIZATION_ASSIGNMENT ( #68, #95, ( #231 ) ) ;
#161 = EDGE_CURVE ( 'NONE', #142, #136, #274, .T. ) ;
#162 = MECHANICAL_CONTEXT ( 'NONE', #15, 'mechanical' ) ;
#163 = VECTOR ( 'NONE', #83, 1000.000000000000000 ) ;
#164 = CC_DESIGN_APPROVAL ( #132, ( #231 ) ) ;
#165 = CYLINDRICAL_SURFACE ( 'NONE', #171, 5.499999999999998224 ) ;
#166 = LINE ( 'NONE', #14, #163 ) ;
#167 = ORIENTED_EDGE ( 'NONE', *, *, #285, .T. ) ;
#168 = CC_DESIGN_PERSON_AND_ORGANIZATION_ASSIGNMENT ( #107, #216, ( #206 ) ) ;
#169 = CALENDAR_DATE ( 2021, 2, 9 ) ;
#170 = DIRECTION ( 'NONE',  ( 3.491481338843133355E-15, -1.224646799147353207E-16, 1.000000000000000000 ) ) ;
#171 = AXIS2_PLACEMENT_3D ( 'NONE', #188, #110, #294 ) ;
#172 = DATE_AND_TIME ( #169, #233 ) ;
#173 = ORIENTED_EDGE ( 'NONE', *, *, #111, .F. ) ;
#174 = PERSON_AND_ORGANIZATION_ROLE ( 'design_supplier' ) ;
#175 = ORIENTED_EDGE ( 'NONE', *, *, #204, .T. ) ;
#176 = ADVANCED_FACE ( 'NONE', ( #101 ), #70, .F. ) ;
#177 = PERSON_AND_ORGANIZATION ( #186, #12 ) ;
#178 = ORIENTED_EDGE ( 'NONE', *, *, #241, .F. ) ;
#179 = ORIENTED_EDGE ( 'NONE', *, *, #10, .F. ) ;
#180 = CARTESIAN_POINT ( 'NONE',  ( 3.281992458512545606E-13, 5.499999999999983125, 94.00000000000000000 ) ) ;
#181 = CC_DESIGN_DATE_AND_TIME_ASSIGNMENT ( #23, #252, ( #317 ) ) ;
#182 = DIRECTION ( 'NONE',  ( 0.0000000000000000000, 1.000000000000000000, 0.0000000000000000000 ) ) ;
#183 = DIRECTION ( 'NONE',  ( 3.491481338843133355E-15, -1.224646799147353207E-16, 1.000000000000000000 ) ) ;
#184 = LOCAL_TIME ( 15, 38, 23.00000000000000000, #198 ) ;
#185 = PLANE ( 'NONE',  #1 ) ;
#186 = PERSON ( 'UNSPECIFIED', 'UNSPECIFIED', 'UNSPECIFIED', ('UNSPECIFIED'), ('UNSPECIFIED'), ('UNSPECIFIED') ) ;
#187 = DIRECTION ( 'NONE',  ( 3.491481338843133355E-15, -1.224646799147353207E-16, 1.000000000000000000 ) ) ;
#188 = CARTESIAN_POINT ( 'NONE',  ( 0.0000000000000000000, 0.0000000000000000000, 0.0000000000000000000 ) ) ;
#189 = EDGE_CURVE ( 'NONE', #203, #42, #234, .T. ) ;
#190 = CARTESIAN_POINT ( 'NONE',  ( 0.0000000000000000000, 0.0000000000000000000, 0.0000000000000000000 ) ) ;
#191 = APPLICATION_PROTOCOL_DEFINITION ( 'international standard', 'config_control_design', 1994, #15 ) ;
#192 = DIRECTION ( 'NONE',  ( -3.491481338843133355E-15, 1.224646799147353207E-16, -1.000000000000000000 ) ) ;
#193 = APPROVAL_DATE_TIME ( #145, #4 ) ;
#194 = EDGE_LOOP ( 'NONE', ( #167, #312, #96, #89 ) ) ;
#195 = CIRCLE ( 'NONE', #57, 5.500000000000000888 ) ;
#196 = APPROVAL_ROLE ( '' ) ;
#197 = ORIENTED_EDGE ( 'NONE', *, *, #298, .T. ) ;
#198 = COORDINATED_UNIVERSAL_TIME_OFFSET ( 1, 0, .AHEAD. ) ;
#199 = ORIENTED_EDGE ( 'NONE', *, *, #299, .T. ) ;
#200 = COORDINATED_UNIVERSAL_TIME_OFFSET ( 1, 0, .AHEAD. ) ;
#201 = CARTESIAN_POINT ( 'NONE',  ( 1.153841501219262031E-14, -4.047131186041925746E-16, 3.304733404651607476 ) ) ;
#202 = CIRCLE ( 'NONE', #2, 4.500000000000000888 ) ;
#203 = VERTEX_POINT ( 'NONE', #34 ) ;
#204 = EDGE_CURVE ( 'NONE', #47, #142, #103, .T. ) ;
#205 = DIRECTION ( 'NONE',  ( -3.491481338843133355E-15, 1.224646799147353207E-16, -1.000000000000000000 ) ) ;
#206 = PRODUCT ( '54793', '54793', '', ( #162 ) ) ;
#207 = DIRECTION ( 'NONE',  ( -3.491481338843133355E-15, 1.224646799147353207E-16, -1.000000000000000000 ) ) ;
#208 = FACE_OUTER_BOUND ( 'NONE', #194, .T. ) ;
#209 = VECTOR ( 'NONE', #322, 1000.000000000000000 ) ;
#210 = EDGE_CURVE ( 'NONE', #27, #42, #166, .T. ) ;
#211 = DIRECTION ( 'NONE',  ( -3.491481338843133355E-15, 1.224646799147353207E-16, -1.000000000000000000 ) ) ;
#212 = CARTESIAN_POINT ( 'NONE',  ( 4.957903501157248607E-13, 3.374459510989153891E-32, 142.0000000000000000 ) ) ;
#213 = FACE_OUTER_BOUND ( 'NONE', #258, .T. ) ;
#214 = CIRCLE ( 'NONE', #31, 5.499999999999983125 ) ;
#215 = LOCAL_TIME ( 15, 38, 23.00000000000000000, #143 ) ;
#216 = PERSON_AND_ORGANIZATION_ROLE ( 'design_owner' ) ;
#217 = LINE ( 'NONE', #325, #138 ) ;
#218 = ORIENTED_EDGE ( 'NONE', *, *, #189, .F. ) ;
#219 = PERSON_AND_ORGANIZATION_ROLE ( 'classification_officer' ) ;
#220 = ORIENTED_EDGE ( 'NONE', *, *, #285, .F. ) ;
#221 = DATE_AND_TIME ( #88, #215 ) ;
#222 = ORIENTED_EDGE ( 'NONE', *, *, #313, .T. ) ;
#223 = CC_DESIGN_PERSON_AND_ORGANIZATION_ASSIGNMENT ( #177, #219, ( #317 ) ) ;
#224 = ORIENTED_EDGE ( 'NONE', *, *, #109, .F. ) ;
#225 = CONICAL_SURFACE ( 'NONE', #247, 5.499999999999983125, 1.029744258676649649 ) ;
#226 = ORIENTED_EDGE ( 'NONE', *, *, #210, .F. ) ;
#227 = APPROVAL_ROLE ( '' ) ;
#228 = CARTESIAN_POINT ( 'NONE',  ( 1.153841501219262031E-14, -4.047131186041925746E-16, 3.304733404651607476 ) ) ;
#229 = DESIGN_CONTEXT ( 'detailed design', #65, 'design' ) ;
#230 = DIRECTION ( 'NONE',  ( -3.491481338843133355E-15, 1.224646799147353207E-16, -1.000000000000000000 ) ) ;
#231 = PRODUCT_DEFINITION ( 'UNKNOWN', '', #118, #229 ) ;
#232 = CIRCLE ( 'NONE', #296, 5.499999999999994671 ) ;
#233 = LOCAL_TIME ( 15, 38, 23.00000000000000000, #114 ) ;
#234 = LINE ( 'NONE', #3, #326 ) ;
#235 = CARTESIAN_POINT ( 'NONE',  ( 4.109226130535991305E-13, -5.500000000000005329, 94.00000000000000000 ) ) ;
#236 = CARTESIAN_POINT ( 'NONE',  ( 4.922988687768816390E-13, 5.499999999999983125, 140.9999999999999716 ) ) ;
#237 = DIRECTION ( 'NONE',  ( -3.491481338843133355E-15, 1.224646799147353207E-16, -1.000000000000000000 ) ) ;
#238 = DIRECTION ( 'NONE',  ( -3.491481338843133355E-15, 1.224646799147353207E-16, -1.000000000000000000 ) ) ;
#239 = DIRECTION ( 'NONE',  ( 4.275831445896957731E-31, 1.000000000000000000, 1.224646799147353207E-16 ) ) ;
#240 = EDGE_LOOP ( 'NONE', ( #63, #94, #175, #178 ) ) ;
#241 = EDGE_CURVE ( 'NONE', #136, #142, #254, .T. ) ;
#242 = LOCAL_TIME ( 15, 38, 23.00000000000000000, #307 ) ;
#243 = CARTESIAN_POINT ( 'NONE',  ( 2.351707295243322417E-30, 5.499999999999989342, 6.735557395310429204E-16 ) ) ;
#244 = DIRECTION ( 'NONE',  ( -2.468850131082300448E-15, 0.7071067811865374697, -0.7071067811865575647 ) ) ;
#245 = ORIENTED_EDGE ( 'NONE', *, *, #298, .F. ) ;
#246 = CYLINDRICAL_SURFACE ( 'NONE', #131, 5.499999999999989342 ) ;
#247 = AXIS2_PLACEMENT_3D ( 'NONE', #228, #170, #337 ) ;
#248 = ORIENTED_EDGE ( 'NONE', *, *, #151, .T. ) ;
#249 = APPROVAL_ROLE ( '' ) ;
#250 = DIRECTION ( 'NONE',  ( 0.0000000000000000000, 1.000000000000000000, 0.0000000000000000000 ) ) ;
#251 = CC_DESIGN_PERSON_AND_ORGANIZATION_ASSIGNMENT ( #303, #62, ( #118 ) ) ;
#252 = DATE_TIME_ROLE ( 'classification_date' ) ;
#253 = DIRECTION ( 'NONE',  ( 5.602705292762885293E-31, 1.000000000000000000, 1.577021341797102244E-16 ) ) ;
#254 = CIRCLE ( 'NONE', #100, 5.499999999999994671 ) ;
#255 = PERSON_AND_ORGANIZATION ( #186, #12 ) ;
#256 = ORIENTED_EDGE ( 'NONE', *, *, #161, .T. ) ;
#257 = DATE_AND_TIME ( #61, #242 ) ;
#258 = EDGE_LOOP ( 'NONE', ( #218, #248, #66, #20 ) ) ;
#259 = DIRECTION ( 'NONE',  ( 3.491481338843133355E-15, -1.224646799147353207E-16, 1.000000000000000000 ) ) ;
#260 = CIRCLE ( 'NONE', #112, 5.499999999999983125 ) ;
#261 = LINE ( 'NONE', #124, #25 ) ;
#262 = DIRECTION ( 'NONE',  ( 4.275831445896958607E-31, 1.000000000000000000, 1.224646799147353207E-16 ) ) ;
#263 = CARTESIAN_POINT ( 'NONE',  ( 4.957903501157248607E-13, -1.738998454789241313E-14, 142.0000000000000000 ) ) ;
#264 = DIRECTION ( 'NONE',  ( -3.491481338843133355E-15, 1.224646799147353207E-16, -1.000000000000000000 ) ) ;
#265 = AXIS2_PLACEMENT_3D ( 'NONE', #21, #45, #99 ) ;
#266 =( NAMED_UNIT ( * ) PLANE_ANGLE_UNIT ( ) SI_UNIT ( $, .RADIAN. ) );
#267 = CARTESIAN_POINT ( 'NONE',  ( 0.0000000000000000000, 0.0000000000000000000, 0.0000000000000000000 ) ) ;
#268 = DIRECTION ( 'NONE',  ( -3.491481338843133355E-15, 1.224646799147353207E-16, -1.000000000000000000 ) ) ;
#269 = CONICAL_SURFACE ( 'NONE', #86, 5.499999999999983125, 1.029744258676649649 ) ;
#270 = APPROVAL_PERSON_ORGANIZATION ( #46, #132, #196 ) ;
#271 = EDGE_CURVE ( 'NONE', #91, #69, #217, .T. ) ;
#272 = CARTESIAN_POINT ( 'NONE',  ( 3.281992458512545606E-13, -1.151167991198512128E-14, 94.00000000000000000 ) ) ;
#273 = CARTESIAN_POINT ( 'NONE',  ( 0.0000000000000000000, 0.0000000000000000000, 0.0000000000000000000 ) ) ;
#274 = CIRCLE ( 'NONE', #123, 5.499999999999994671 ) ;
#275 = APPROVAL_DATE_TIME ( #172, #132 ) ;
#276 = EDGE_LOOP ( 'NONE', ( #224, #173 ) ) ;
#277 = ADVANCED_FACE ( 'NONE', ( #213 ), #246, .T. ) ;
#278 = PERSON_AND_ORGANIZATION ( #186, #12 ) ;
#279 = CARTESIAN_POINT ( 'NONE',  ( 4.922988687768816390E-13, -1.726751986797767482E-14, 140.9999999999999716 ) ) ;
#280 = APPROVAL_DATE_TIME ( #257, #119 ) ;
#281 = EDGE_LOOP ( 'NONE', ( #226, #29, #147 ) ) ;
#282 = CIRCLE ( 'NONE', #128, 5.499999999999994671 ) ;
#283 = SECURITY_CLASSIFICATION_LEVEL ( 'unclassified' ) ;
#284 = ORIENTED_EDGE ( 'NONE', *, *, #204, .F. ) ;
#285 = EDGE_CURVE ( 'NONE', #146, #203, #232, .T. ) ;
#286 = CYLINDRICAL_SURFACE ( 'NONE', #75, 5.499999999999998224 ) ;
#287 = DIRECTION ( 'NONE',  ( 5.602705292762885293E-31, 1.000000000000000000, 1.577021341797102244E-16 ) ) ;
#288 = CONICAL_SURFACE ( 'NONE', #17, 4.500000000000000888, 0.7853981633974339571 ) ;
#289 = DIRECTION ( 'NONE',  ( 0.0000000000000000000, 1.000000000000000000, 0.0000000000000000000 ) ) ;
#290 = DIRECTION ( 'NONE',  ( -3.491481338843133355E-15, 1.224646799147353207E-16, -1.000000000000000000 ) ) ;
#291 = PRODUCT_DEFINITION_SHAPE ( 'NONE', 'NONE',  #231 ) ;
#292 = FACE_OUTER_BOUND ( 'NONE', #310, .T. ) ;
#293 = DIRECTION ( 'NONE',  ( -3.491481338843133355E-15, 1.224646799147353207E-16, -1.000000000000000000 ) ) ;
#294 = DIRECTION ( 'NONE',  ( 4.275831445896958607E-31, 1.000000000000000000, 1.224646799147353207E-16 ) ) ;
#295 = CARTESIAN_POINT ( 'NONE',  ( 4.957903501157248607E-13, 4.499999999999983125, 142.0000000000000000 ) ) ;
#296 = AXIS2_PLACEMENT_3D ( 'NONE', #324, #268, #113 ) ;
#297 = MANIFOLD_SOLID_BREP ( 'Corps-Déplacer/Copier1[2]', #158 ) ;
#298 = EDGE_CURVE ( 'NONE', #308, #47, #58, .T. ) ;
#299 = EDGE_CURVE ( 'NONE', #69, #136, #108, .T. ) ;
#300 = CARTESIAN_POINT ( 'NONE',  ( 4.922988687768816390E-13, -1.726751986797767482E-14, 140.9999999999999716 ) ) ;
#301 = ADVANCED_FACE ( 'NONE', ( #38 ), #165, .T. ) ;
#302 = EDGE_CURVE ( 'NONE', #146, #139, #16, .T. ) ;
#303 = PERSON_AND_ORGANIZATION ( #186, #12 ) ;
#304 = ORIENTED_EDGE ( 'NONE', *, *, #271, .T. ) ;
#305 = VECTOR ( 'NONE', #192, 1000.000000000000000 ) ;
#306 = CC_DESIGN_APPROVAL ( #119, ( #317 ) ) ;
#307 = COORDINATED_UNIVERSAL_TIME_OFFSET ( 1, 0, .AHEAD. ) ;
#308 = VERTEX_POINT ( 'NONE', #295 ) ;
#309 = SHAPE_DEFINITION_REPRESENTATION ( #291, #60 ) ;
#310 = EDGE_LOOP ( 'NONE', ( #222, #199, #84, #284 ) ) ;
#311 = FACE_OUTER_BOUND ( 'NONE', #121, .T. ) ;
#312 = ORIENTED_EDGE ( 'NONE', *, *, #189, .T. ) ;
#313 = EDGE_CURVE ( 'NONE', #47, #69, #93, .T. ) ;
#314 = CARTESIAN_POINT ( 'NONE',  ( 1.153841501219261715E-14, -5.499999999999983125, 3.304733404651606588 ) ) ;
#315 = DIRECTION ( 'NONE',  ( 4.275831445896958607E-31, 1.000000000000000000, 1.224646799147353207E-16 ) ) ;
#316 = CIRCLE ( 'NONE', #106, 4.500000000000000888 ) ;
#317 = SECURITY_CLASSIFICATION ( '', '', #283 ) ;
#318 = CARTESIAN_POINT ( 'NONE',  ( 1.153841501219262031E-14, -4.047131186041925746E-16, 3.304733404651607476 ) ) ;
#319 = DIRECTION ( 'NONE',  ( 0.0000000000000000000, 1.000000000000000000, 0.0000000000000000000 ) ) ;
#320 = DIRECTION ( 'NONE',  ( -3.491481338843133355E-15, 1.224646799147353207E-16, -1.000000000000000000 ) ) ;
#321 = VECTOR ( 'NONE', #244, 1000.000000000000000 ) ;
#322 = DIRECTION ( 'NONE',  ( -3.491481338843133355E-15, 1.224646799147353207E-16, -1.000000000000000000 ) ) ;
#323 = CC_DESIGN_APPROVAL ( #4, ( #118 ) ) ;
#324 = CARTESIAN_POINT ( 'NONE',  ( 3.281992458512545606E-13, -1.151167991198512128E-14, 94.00000000000000000 ) ) ;
#325 = CARTESIAN_POINT ( 'NONE',  ( 4.963414411753411815E-13, -4.500000000000017764, 142.0000000000000000 ) ) ;
#326 = VECTOR ( 'NONE', #205, 1000.000000000000000 ) ;
#327 = EDGE_LOOP ( 'NONE', ( #220, #44 ) ) ;
#328 = PERSON_AND_ORGANIZATION ( #186, #12 ) ;
#329 = FACE_OUTER_BOUND ( 'NONE', #281, .T. ) ;
#330 = ORIENTED_EDGE ( 'NONE', *, *, #241, .T. ) ;
#331 = AXIS2_PLACEMENT_3D ( 'NONE', #300, #13, #79 ) ;
#332 = DATE_TIME_ROLE ( 'creation_date' ) ;
#333 = CC_DESIGN_DATE_AND_TIME_ASSIGNMENT ( #221, #332, ( #231 ) ) ;
#334 = EDGE_LOOP ( 'NONE', ( #115, #120, #197, #179 ) ) ;
#335 = CALENDAR_DATE ( 2021, 2, 9 ) ;
#336 = EDGE_LOOP ( 'NONE', ( #256, #330 ) ) ;
#337 = DIRECTION ( 'NONE',  ( -5.602705292762885293E-31, -1.000000000000000000, -1.577021341797102244E-16 ) ) ;
ENDSEC;
END-ISO-10303-21;
