ISO-10303-21;
HEADER;
FILE_DESCRIPTION (( 'STEP AP203' ),
    '1' );
FILE_NAME ('54790.step',
    '2021-09-02T13:38:22',
    ( '' ),
    ( '' ),
    'SwSTEP 2.0',
    'SolidWorks 2019',
    '' );
FILE_SCHEMA (( 'CONFIG_CONTROL_DESIGN' ));
ENDSEC;

DATA;
#1 = CC_DESIGN_SECURITY_CLASSIFICATION ( #107, ( #41 ) ) ;
#2 = LOCAL_TIME ( 15, 38, 22.00000000000000000, #62 ) ;
#3 = COORDINATED_UNIVERSAL_TIME_OFFSET ( 1, 0, .AHEAD. ) ;
#4 = EDGE_LOOP ( 'NONE', ( #242, #133, #320 ) ) ;
#5 = DATE_AND_TIME ( #240, #193 ) ;
#6 = CARTESIAN_POINT ( 'NONE',  ( 0.0000000000000000000, 0.0000000000000000000, 0.0000000000000000000 ) ) ;
#7 = PERSON_AND_ORGANIZATION ( #196, #153 ) ;
#8 = ORIENTED_EDGE ( 'NONE', *, *, #161, .F. ) ;
#9 = CC_DESIGN_APPROVAL ( #140, ( #107 ) ) ;
#10 = PERSON_AND_ORGANIZATION_ROLE ( 'creator' ) ;
#11 = ORIENTED_EDGE ( 'NONE', *, *, #169, .F. ) ;
#12 = APPLICATION_CONTEXT ( 'configuration controlled 3d designs of mechanical parts and assemblies' ) ;
#13 = VERTEX_POINT ( 'NONE', #210 ) ;
#14 = ADVANCED_FACE ( 'NONE', ( #216 ), #190, .T. ) ;
#15 = CARTESIAN_POINT ( 'NONE',  ( 0.0000000000000000000, 0.0000000000000000000, 0.0000000000000000000 ) ) ;
#16 = CC_DESIGN_APPROVAL ( #74, ( #41 ) ) ;
#17 = CARTESIAN_POINT ( 'NONE',  ( 4.608755367272936534E-13, 5.249999999999984013, 132.0000000000000000 ) ) ;
#18 = CIRCLE ( 'NONE', #262, 5.249999999999994671 ) ;
#19 = PLANE ( 'NONE',  #37 ) ;
#20 = FACE_OUTER_BOUND ( 'NONE', #4, .T. ) ;
#21 = DIRECTION ( 'NONE',  ( -3.491481338843133355E-15, 1.224646799147353207E-16, -1.000000000000000000 ) ) ;
#22 = ADVANCED_FACE ( 'NONE', ( #130 ), #102, .T. ) ;
#23 = CARTESIAN_POINT ( 'NONE',  ( 3.037588764793525640E-13, 3.936869429487356788E-32, 87.00000000000000000 ) ) ;
#24 = PRODUCT_DEFINITION ( 'UNKNOWN', '', #41, #55 ) ;
#25 = CARTESIAN_POINT ( 'NONE',  ( 2.244811509095902349E-30, 5.249999999999997335, 6.429395695523601195E-16 ) ) ;
#26 = AXIS2_PLACEMENT_3D ( 'NONE', #48, #315, #176 ) ;
#27 = PERSON_AND_ORGANIZATION_ROLE ( 'design_owner' ) ;
#28 = DIRECTION ( 'NONE',  ( 4.275831445896958607E-31, 1.000000000000000000, 1.224646799147353207E-16 ) ) ;
#29 = VECTOR ( 'NONE', #101, 999.9999999999998863 ) ;
#30 = AXIS2_PLACEMENT_3D ( 'NONE', #219, #225, #88 ) ;
#31 = CIRCLE ( 'NONE', #115, 5.249999999999994671 ) ;
#32 = VERTEX_POINT ( 'NONE', #236 ) ;
#33 = DATE_AND_TIME ( #290, #114 ) ;
#34 = EDGE_LOOP ( 'NONE', ( #263, #217, #239, #204 ) ) ;
#35 = DATE_AND_TIME ( #185, #307 ) ;
#36 = ORIENTED_EDGE ( 'NONE', *, *, #303, .F. ) ;
#37 = AXIS2_PLACEMENT_3D ( 'NONE', #247, #295, #44 ) ;
#38 = VERTEX_POINT ( 'NONE', #6 ) ;
#39 = CYLINDRICAL_SURFACE ( 'NONE', #83, 5.249999999999989342 ) ;
#40 = DIRECTION ( 'NONE',  ( 0.0000000000000000000, 1.000000000000000000, 0.0000000000000000000 ) ) ;
#41 = PRODUCT_DEFINITION_FORMATION_WITH_SPECIFIED_SOURCE ( 'ANY', '', #49, .NOT_KNOWN. ) ;
#42 = CARTESIAN_POINT ( 'NONE',  ( 3.037588764793525640E-13, 5.249999999999984013, 87.00000000000000000 ) ) ;
#43 = CC_DESIGN_PERSON_AND_ORGANIZATION_ASSIGNMENT ( #132, #238, ( #41 ) ) ;
#44 = DIRECTION ( 'NONE',  ( 4.275831445896958607E-31, 1.000000000000000000, 1.224646799147353207E-16 ) ) ;
#45 = DIRECTION ( 'NONE',  ( -3.491481338843133355E-15, 1.224646799147353207E-16, -1.000000000000000000 ) ) ;
#46 = CIRCLE ( 'NONE', #26, 5.249999999999994671 ) ;
#47 = LINE ( 'NONE', #202, #241 ) ;
#48 = CARTESIAN_POINT ( 'NONE',  ( 3.037588764793525640E-13, -1.065442715258197209E-14, 87.00000000000000000 ) ) ;
#49 = PRODUCT ( '54790', '54790', '', ( #256 ) ) ;
#50 = ADVANCED_BREP_SHAPE_REPRESENTATION ( '54790', ( #123, #125, #257 ), #148 ) ;
#51 = PERSON_AND_ORGANIZATION ( #196, #153 ) ;
#52 = EDGE_LOOP ( 'NONE', ( #192, #323 ) ) ;
#53 = CC_DESIGN_PERSON_AND_ORGANIZATION_ASSIGNMENT ( #156, #10, ( #41 ) ) ;
#54 = DIRECTION ( 'NONE',  ( 0.0000000000000000000, 1.000000000000000000, 0.0000000000000000000 ) ) ;
#55 = DESIGN_CONTEXT ( 'detailed design', #12, 'design' ) ;
#56 = ADVANCED_FACE ( 'NONE', ( #318 ), #82, .T. ) ;
#57 = ORIENTED_EDGE ( 'NONE', *, *, #297, .T. ) ;
#58 = APPROVAL_PERSON_ORGANIZATION ( #7, #140, #60 ) ;
#59 = AXIS2_PLACEMENT_3D ( 'NONE', #64, #293, #28 ) ;
#60 = APPROVAL_ROLE ( '' ) ;
#61 = ORIENTED_EDGE ( 'NONE', *, *, #81, .T. ) ;
#62 = COORDINATED_UNIVERSAL_TIME_OFFSET ( 1, 0, .AHEAD. ) ;
#63 = VERTEX_POINT ( 'NONE', #42 ) ;
#64 = CARTESIAN_POINT ( 'NONE',  ( 0.0000000000000000000, 0.0000000000000000000, 0.0000000000000000000 ) ) ;
#65 = CONICAL_SURFACE ( 'NONE', #164, 4.250000000000000000, 0.7853981633974479459 ) ;
#66 = AXIS2_PLACEMENT_3D ( 'NONE', #274, #299, #72 ) ;
#67 = ORIENTED_EDGE ( 'NONE', *, *, #81, .F. ) ;
#68 = DIRECTION ( 'NONE',  ( 3.491481338843133355E-15, -1.224646799147353207E-16, 1.000000000000000000 ) ) ;
#69 = CARTESIAN_POINT ( 'NONE',  ( 1.101394160254750378E-14, -3.863170677585475539E-16, 3.154518249894716853 ) ) ;
#70 = DIRECTION ( 'NONE',  ( -3.491481338843133355E-15, 1.224646799147353207E-16, -1.000000000000000000 ) ) ;
#71 = CYLINDRICAL_SURFACE ( 'NONE', #120, 5.249999999999997335 ) ;
#72 = DIRECTION ( 'NONE',  ( 0.0000000000000000000, 1.000000000000000000, 0.0000000000000000000 ) ) ;
#73 = CARTESIAN_POINT ( 'NONE',  ( 1.101394160254750378E-14, -3.863170677585475539E-16, 3.154518249894716853 ) ) ;
#74 = APPROVAL ( #136, 'UNSPECIFIED' ) ;
#75 = VECTOR ( 'NONE', #250, 1000.000000000000000 ) ;
#76 = ORIENTED_EDGE ( 'NONE', *, *, #182, .T. ) ;
#77 = AXIS2_PLACEMENT_3D ( 'NONE', #138, #68, #117 ) ;
#78 = COORDINATED_UNIVERSAL_TIME_OFFSET ( 1, 0, .AHEAD. ) ;
#79 = DIRECTION ( 'NONE',  ( -4.275831445896958607E-31, -1.000000000000000000, -1.224646799147353207E-16 ) ) ;
#80 = PERSON_AND_ORGANIZATION ( #196, #153 ) ;
#81 = EDGE_CURVE ( 'NONE', #289, #84, #165, .T. ) ;
#82 = CYLINDRICAL_SURFACE ( 'NONE', #30, 5.249999999999997335 ) ;
#83 = AXIS2_PLACEMENT_3D ( 'NONE', #15, #45, #90 ) ;
#84 = VERTEX_POINT ( 'NONE', #17 ) ;
#85 = ORIENTED_EDGE ( 'NONE', *, *, #161, .T. ) ;
#86 = EDGE_LOOP ( 'NONE', ( #336, #271, #313, #266 ) ) ;
#87 = VECTOR ( 'NONE', #149, 1000.000000000000000 ) ;
#88 = DIRECTION ( 'NONE',  ( 4.275831445896958607E-31, 1.000000000000000000, 1.224646799147353207E-16 ) ) ;
#89 = CARTESIAN_POINT ( 'NONE',  ( 1.101394160254750221E-14, -5.249999999999984013, 3.154518249894716408 ) ) ;
#90 = DIRECTION ( 'NONE',  ( 4.275831445896958607E-31, 1.000000000000000000, 1.224646799147353207E-16 ) ) ;
#91 = ADVANCED_FACE ( 'NONE', ( #226 ), #19, .F. ) ;
#92 = LINE ( 'NONE', #175, #179 ) ;
#93 = CARTESIAN_POINT ( 'NONE',  ( 0.0000000000000000000, 0.0000000000000000000, 0.0000000000000000000 ) ) ;
#94 = CARTESIAN_POINT ( 'NONE',  ( 4.643670180661366731E-13, -1.628780242865979995E-14, 133.0000000000000000 ) ) ;
#95 = FACE_OUTER_BOUND ( 'NONE', #324, .T. ) ;
#96 = CONICAL_SURFACE ( 'NONE', #66, 4.250000000000000000, 0.7853981633974479459 ) ;
#97 =( NAMED_UNIT ( * ) SI_UNIT ( $, .STERADIAN. ) SOLID_ANGLE_UNIT ( ) );
#98 = ADVANCED_FACE ( 'NONE', ( #143 ), #71, .T. ) ;
#99 = DIRECTION ( 'NONE',  ( -4.275831445896958607E-31, -1.000000000000000000, -1.224646799147353207E-16 ) ) ;
#100 = ORIENTED_EDGE ( 'NONE', *, *, #205, .T. ) ;
#101 = DIRECTION ( 'NONE',  ( -2.468850131082266527E-15, 0.7071067811865473507, -0.7071067811865477948 ) ) ;
#102 = PLANE ( 'NONE',  #178 ) ;
#103 = APPROVAL_DATE_TIME ( #269, #281 ) ;
#104 = ORIENTED_EDGE ( 'NONE', *, *, #301, .T. ) ;
#105 = APPROVAL_ROLE ( '' ) ;
#106 = ORIENTED_EDGE ( 'NONE', *, *, #221, .F. ) ;
#107 = SECURITY_CLASSIFICATION ( '', '', #288 ) ;
#108 = SHAPE_DEFINITION_REPRESENTATION ( #142, #50 ) ;
#109 = ORIENTED_EDGE ( 'NONE', *, *, #221, .T. ) ;
#110 = ADVANCED_FACE ( 'NONE', ( #141 ), #96, .T. ) ;
#111 = PERSON_AND_ORGANIZATION ( #196, #153 ) ;
#112 = VERTEX_POINT ( 'NONE', #199 ) ;
#113 = DIRECTION ( 'NONE',  ( 0.0000000000000000000, 1.000000000000000000, 0.0000000000000000000 ) ) ;
#114 = LOCAL_TIME ( 15, 38, 22.00000000000000000, #215 ) ;
#115 = AXIS2_PLACEMENT_3D ( 'NONE', #325, #70, #40 ) ;
#116 = CARTESIAN_POINT ( 'NONE',  ( 4.643670180661366731E-13, -1.628780242865979995E-14, 133.0000000000000000 ) ) ;
#117 = DIRECTION ( 'NONE',  ( -2.934750391447225380E-31, -1.000000000000000000, -8.260587980841963432E-17 ) ) ;
#118 = DIRECTION ( 'NONE',  ( -2.934750391447225380E-31, -1.000000000000000000, -8.260587980841963432E-17 ) ) ;
#119 = CIRCLE ( 'NONE', #171, 4.250000000000000000 ) ;
#120 = AXIS2_PLACEMENT_3D ( 'NONE', #93, #329, #251 ) ;
#121 = DIRECTION ( 'NONE',  ( -3.491481338843133355E-15, 1.224646799147353207E-16, -1.000000000000000000 ) ) ;
#122 = CARTESIAN_POINT ( 'NONE',  ( 4.643670180661366731E-13, -1.628780242865979995E-14, 133.0000000000000000 ) ) ;
#123 = MANIFOLD_SOLID_BREP ( 'Corps-Déplacer/Copier1[1]', #173 ) ;
#124 = DIRECTION ( 'NONE',  ( -3.491481338843133355E-15, 1.224646799147353207E-16, -1.000000000000000000 ) ) ;
#125 = MANIFOLD_SOLID_BREP ( 'Corps-Déplacer/Copier1[2]', #243 ) ;
#126 = CARTESIAN_POINT ( 'NONE',  ( 0.0000000000000000000, 0.0000000000000000000, 0.0000000000000000000 ) ) ;
#127 = VECTOR ( 'NONE', #146, 1000.000000000000000 ) ;
#128 = ORIENTED_EDGE ( 'NONE', *, *, #158, .T. ) ;
#129 = DATE_TIME_ROLE ( 'creation_date' ) ;
#130 = FACE_OUTER_BOUND ( 'NONE', #52, .T. ) ;
#131 = ADVANCED_FACE ( 'NONE', ( #296 ), #39, .T. ) ;
#132 = PERSON_AND_ORGANIZATION ( #196, #153 ) ;
#133 = ORIENTED_EDGE ( 'NONE', *, *, #284, .T. ) ;
#134 = APPROVAL_DATE_TIME ( #35, #140 ) ;
#135 = ORIENTED_EDGE ( 'NONE', *, *, #292, .T. ) ;
#136 = APPROVAL_STATUS ( 'not_yet_approved' ) ;
#137 = EDGE_LOOP ( 'NONE', ( #214, #100, #211 ) ) ;
#138 = CARTESIAN_POINT ( 'NONE',  ( 1.101394160254750378E-14, -3.863170677585475539E-16, 3.154518249894716853 ) ) ;
#139 = CARTESIAN_POINT ( 'NONE',  ( 3.037588764793525640E-13, -1.065442715258197209E-14, 87.00000000000000000 ) ) ;
#140 = APPROVAL ( #267, 'UNSPECIFIED' ) ;
#141 = FACE_OUTER_BOUND ( 'NONE', #167, .T. ) ;
#142 = PRODUCT_DEFINITION_SHAPE ( 'NONE', 'NONE',  #24 ) ;
#143 = FACE_OUTER_BOUND ( 'NONE', #150, .T. ) ;
#144 = CARTESIAN_POINT ( 'NONE',  ( 4.608755367272936534E-13, -1.616533774874506480E-14, 132.0000000000000000 ) ) ;
#145 = AXIS2_PLACEMENT_3D ( 'NONE', #139, #272, #113 ) ;
#146 = DIRECTION ( 'NONE',  ( -3.491481338843133355E-15, 1.224646799147353207E-16, -1.000000000000000000 ) ) ;
#147 = ADVANCED_FACE ( 'NONE', ( #197 ), #253, .T. ) ;
#148 =( GEOMETRIC_REPRESENTATION_CONTEXT ( 3 ) GLOBAL_UNCERTAINTY_ASSIGNED_CONTEXT ( ( #232 ) ) GLOBAL_UNIT_ASSIGNED_CONTEXT ( ( #230, #180, #97 ) ) REPRESENTATION_CONTEXT ( 'NONE', 'WORKASPACE' ) );
#149 = DIRECTION ( 'NONE',  ( -2.382254525458717469E-15, -0.7071067811865471286, -0.7071067811865479058 ) ) ;
#150 = EDGE_LOOP ( 'NONE', ( #280, #61, #57, #8 ) ) ;
#151 = LINE ( 'NONE', #312, #270 ) ;
#152 = APPROVAL_STATUS ( 'not_yet_approved' ) ;
#153 = ORGANIZATION ( 'UNSPECIFIED', 'UNSPECIFIED', '' ) ;
#154 = EDGE_LOOP ( 'NONE', ( #286, #245 ) ) ;
#155 = AXIS2_PLACEMENT_3D ( 'NONE', #174, #198, #194 ) ;
#156 = PERSON_AND_ORGANIZATION ( #196, #153 ) ;
#157 = VERTEX_POINT ( 'NONE', #330 ) ;
#158 = EDGE_CURVE ( 'NONE', #112, #287, #249, .T. ) ;
#159 = DATE_TIME_ROLE ( 'classification_date' ) ;
#160 = EDGE_LOOP ( 'NONE', ( #234, #76, #109, #36 ) ) ;
#161 = EDGE_CURVE ( 'NONE', #13, #310, #334, .T. ) ;
#162 = DATE_AND_TIME ( #260, #298 ) ;
#163 = ORIENTED_EDGE ( 'NONE', *, *, #264, .T. ) ;
#164 = AXIS2_PLACEMENT_3D ( 'NONE', #122, #309, #54 ) ;
#165 = CIRCLE ( 'NONE', #184, 5.250000000000000000 ) ;
#166 = EDGE_CURVE ( 'NONE', #310, #13, #31, .T. ) ;
#167 = EDGE_LOOP ( 'NONE', ( #189, #135, #163, #67 ) ) ;
#168 = CARTESIAN_POINT ( 'NONE',  ( 3.037588764793525640E-13, -1.065442715258197209E-14, 87.00000000000000000 ) ) ;
#169 = EDGE_CURVE ( 'NONE', #32, #287, #308, .T. ) ;
#170 = DIRECTION ( 'NONE',  ( 3.491481338843133355E-15, -1.224646799147353207E-16, 1.000000000000000000 ) ) ;
#171 = AXIS2_PLACEMENT_3D ( 'NONE', #94, #181, #206 ) ;
#172 = APPLICATION_CONTEXT ( 'configuration controlled 3d designs of mechanical parts and assemblies' ) ;
#173 = CLOSED_SHELL ( 'NONE', ( #316, #56, #305, #98, #110, #91 ) ) ;
#174 = CARTESIAN_POINT ( 'NONE',  ( 1.101394160254750378E-14, -3.863170677585475539E-16, 3.154518249894716853 ) ) ;
#175 = CARTESIAN_POINT ( 'NONE',  ( 2.244811509095898846E-30, 5.249999999999989342, 6.429395695523591334E-16 ) ) ;
#176 = DIRECTION ( 'NONE',  ( 0.0000000000000000000, 1.000000000000000000, 0.0000000000000000000 ) ) ;
#177 = AXIS2_PLACEMENT_3D ( 'NONE', #69, #170, #118 ) ;
#178 = AXIS2_PLACEMENT_3D ( 'NONE', #317, #187, #79 ) ;
#179 = VECTOR ( 'NONE', #276, 1000.000000000000000 ) ;
#180 =( NAMED_UNIT ( * ) PLANE_ANGLE_UNIT ( ) SI_UNIT ( $, .RADIAN. ) );
#181 = DIRECTION ( 'NONE',  ( -3.491481338843133355E-15, 1.224646799147353207E-16, -1.000000000000000000 ) ) ;
#182 = EDGE_CURVE ( 'NONE', #112, #63, #18, .T. ) ;
#183 = CARTESIAN_POINT ( 'NONE',  ( 3.829601461728753231E-13, -5.250000000000015987, 132.0000000000000000 ) ) ;
#184 = AXIS2_PLACEMENT_3D ( 'NONE', #331, #223, #302 ) ;
#185 = CALENDAR_DATE ( 2021, 2, 9 ) ;
#186 = VERTEX_POINT ( 'NONE', #248 ) ;
#187 = DIRECTION ( 'NONE',  ( 3.491481338843133355E-15, -1.224646799147353207E-16, 1.000000000000000000 ) ) ;
#188 = PERSON_AND_ORGANIZATION_ROLE ( 'creator' ) ;
#189 = ORIENTED_EDGE ( 'NONE', *, *, #300, .F. ) ;
#190 = CYLINDRICAL_SURFACE ( 'NONE', #59, 5.249999999999989342 ) ;
#191 = EDGE_CURVE ( 'NONE', #186, #157, #326, .T. ) ;
#192 = ORIENTED_EDGE ( 'NONE', *, *, #301, .F. ) ;
#193 = LOCAL_TIME ( 15, 38, 22.00000000000000000, #78 ) ;
#194 = DIRECTION ( 'NONE',  ( 2.934750391447225380E-31, 1.000000000000000000, 8.260587980841963432E-17 ) ) ;
#195 = CARTESIAN_POINT ( 'NONE',  ( 6.429395695523568654E-16, -5.249999999999989342, -6.429395695523613027E-16 ) ) ;
#196 = PERSON ( 'UNSPECIFIED', 'UNSPECIFIED', 'UNSPECIFIED', ('UNSPECIFIED'), ('UNSPECIFIED'), ('UNSPECIFIED') ) ;
#197 = FACE_OUTER_BOUND ( 'NONE', #137, .T. ) ;
#198 = DIRECTION ( 'NONE',  ( -3.491481338843133355E-15, 1.224646799147353207E-16, -1.000000000000000000 ) ) ;
#199 = CARTESIAN_POINT ( 'NONE',  ( 1.580293486105021055E-13, -5.250000000000004441, 87.00000000000000000 ) ) ;
#200 = PLANE ( 'NONE',  #213 ) ;
#201 = AXIS2_PLACEMENT_3D ( 'NONE', #116, #121, #222 ) ;
#202 = CARTESIAN_POINT ( 'NONE',  ( 6.429395695523579501E-16, -5.249999999999997335, -6.429395695523623874E-16 ) ) ;
#203 = CC_DESIGN_PERSON_AND_ORGANIZATION_ASSIGNMENT ( #51, #27, ( #49 ) ) ;
#204 = ORIENTED_EDGE ( 'NONE', *, *, #297, .F. ) ;
#205 = EDGE_CURVE ( 'NONE', #38, #287, #328, .T. ) ;
#206 = DIRECTION ( 'NONE',  ( 0.0000000000000000000, 1.000000000000000000, 0.0000000000000000000 ) ) ;
#207 = CARTESIAN_POINT ( 'NONE',  ( 3.037588764793525640E-13, 5.249999999999984013, 87.00000000000000000 ) ) ;
#208 = LINE ( 'NONE', #254, #87 ) ;
#209 = ADVANCED_FACE ( 'NONE', ( #20 ), #220, .T. ) ;
#210 = CARTESIAN_POINT ( 'NONE',  ( 3.829601461728754241E-13, -5.250000000000004441, 87.00000000000000000 ) ) ;
#211 = ORIENTED_EDGE ( 'NONE', *, *, #303, .T. ) ;
#212 = COORDINATED_UNIVERSAL_TIME_OFFSET ( 1, 0, .AHEAD. ) ;
#213 = AXIS2_PLACEMENT_3D ( 'NONE', #23, #282, #99 ) ;
#214 = ORIENTED_EDGE ( 'NONE', *, *, #284, .F. ) ;
#215 = COORDINATED_UNIVERSAL_TIME_OFFSET ( 1, 0, .AHEAD. ) ;
#216 = FACE_OUTER_BOUND ( 'NONE', #160, .T. ) ;
#217 = ORIENTED_EDGE ( 'NONE', *, *, #227, .T. ) ;
#218 = CIRCLE ( 'NONE', #314, 5.249999999999984013 ) ;
#219 = CARTESIAN_POINT ( 'NONE',  ( 0.0000000000000000000, 0.0000000000000000000, 0.0000000000000000000 ) ) ;
#220 = CONICAL_SURFACE ( 'NONE', #177, 5.249999999999984013, 1.029744258676649649 ) ;
#221 = EDGE_CURVE ( 'NONE', #63, #32, #92, .T. ) ;
#222 = DIRECTION ( 'NONE',  ( 0.0000000000000000000, 1.000000000000000000, 0.0000000000000000000 ) ) ;
#223 = DIRECTION ( 'NONE',  ( -3.491481338843133355E-15, 1.224646799147353207E-16, -1.000000000000000000 ) ) ;
#224 = EDGE_CURVE ( 'NONE', #84, #289, #252, .T. ) ;
#225 = DIRECTION ( 'NONE',  ( -3.491481338843133355E-15, 1.224646799147353207E-16, -1.000000000000000000 ) ) ;
#226 = FACE_OUTER_BOUND ( 'NONE', #154, .T. ) ;
#227 = EDGE_CURVE ( 'NONE', #289, #13, #47, .T. ) ;
#228 = DIRECTION ( 'NONE',  ( 0.0000000000000000000, 0.0000000000000000000, 1.000000000000000000 ) ) ;
#229 = APPROVAL_PERSON_ORGANIZATION ( #235, #74, #265 ) ;
#230 =( LENGTH_UNIT ( ) NAMED_UNIT ( * ) SI_UNIT ( .MILLI., .METRE. ) );
#231 = APPLICATION_PROTOCOL_DEFINITION ( 'international standard', 'config_control_design', 1994, #172 ) ;
#232 = UNCERTAINTY_MEASURE_WITH_UNIT (LENGTH_MEASURE( 1.000000000000000082E-05 ), #230, 'distance_accuracy_value', 'NONE');
#233 = APPROVAL_DATE_TIME ( #5, #74 ) ;
#234 = ORIENTED_EDGE ( 'NONE', *, *, #158, .F. ) ;
#235 = PERSON_AND_ORGANIZATION ( #196, #153 ) ;
#236 = CARTESIAN_POINT ( 'NONE',  ( 1.165688117209986489E-14, 5.249999999999984013, 3.154518249894717297 ) ) ;
#237 = PRODUCT_RELATED_PRODUCT_CATEGORY ( 'detail', '', ( #49 ) ) ;
#238 = PERSON_AND_ORGANIZATION_ROLE ( 'design_supplier' ) ;
#239 = ORIENTED_EDGE ( 'NONE', *, *, #166, .F. ) ;
#240 = CALENDAR_DATE ( 2021, 2, 9 ) ;
#241 = VECTOR ( 'NONE', #283, 1000.000000000000000 ) ;
#242 = ORIENTED_EDGE ( 'NONE', *, *, #205, .F. ) ;
#243 = CLOSED_SHELL ( 'NONE', ( #131, #209, #147, #14, #22 ) ) ;
#244 = PERSON_AND_ORGANIZATION ( #196, #153 ) ;
#245 = ORIENTED_EDGE ( 'NONE', *, *, #292, .F. ) ;
#246 = CC_DESIGN_PERSON_AND_ORGANIZATION_ASSIGNMENT ( #244, #285, ( #107 ) ) ;
#247 = CARTESIAN_POINT ( 'NONE',  ( 4.643670180661366731E-13, 3.186989538156423058E-32, 133.0000000000000000 ) ) ;
#248 = CARTESIAN_POINT ( 'NONE',  ( 4.643670180661366731E-13, 4.249999999999984013, 133.0000000000000000 ) ) ;
#249 = LINE ( 'NONE', #195, #294 ) ;
#250 = DIRECTION ( 'NONE',  ( 1.798245827342160317E-15, -0.8571673007021098911, 0.5150380749100582634 ) ) ;
#251 = DIRECTION ( 'NONE',  ( 4.275831445896958607E-31, 1.000000000000000000, 1.224646799147353207E-16 ) ) ;
#252 = CIRCLE ( 'NONE', #319, 5.250000000000000000 ) ;
#253 = CONICAL_SURFACE ( 'NONE', #77, 5.249999999999984013, 1.029744258676649649 ) ;
#254 = CARTESIAN_POINT ( 'NONE',  ( 4.648874929557743543E-13, -4.250000000000016875, 133.0000000000000000 ) ) ;
#255 = CC_DESIGN_DATE_AND_TIME_ASSIGNMENT ( #33, #129, ( #24 ) ) ;
#256 = MECHANICAL_CONTEXT ( 'NONE', #172, 'mechanical' ) ;
#257 = AXIS2_PLACEMENT_3D ( 'NONE', #126, #228, #258 ) ;
#258 = DIRECTION ( 'NONE',  ( 1.000000000000000000, 0.0000000000000000000, 0.0000000000000000000 ) ) ;
#259 = FACE_OUTER_BOUND ( 'NONE', #86, .T. ) ;
#260 = CALENDAR_DATE ( 2021, 2, 9 ) ;
#261 = APPROVAL_PERSON_ORGANIZATION ( #111, #281, #105 ) ;
#262 = AXIS2_PLACEMENT_3D ( 'NONE', #168, #273, #275 ) ;
#263 = ORIENTED_EDGE ( 'NONE', *, *, #224, .T. ) ;
#264 = EDGE_CURVE ( 'NONE', #186, #84, #337, .T. ) ;
#265 = APPROVAL_ROLE ( '' ) ;
#266 = ORIENTED_EDGE ( 'NONE', *, *, #264, .F. ) ;
#267 = APPROVAL_STATUS ( 'not_yet_approved' ) ;
#268 = EDGE_LOOP ( 'NONE', ( #104, #128, #11, #106 ) ) ;
#269 = DATE_AND_TIME ( #322, #2 ) ;
#270 = VECTOR ( 'NONE', #311, 999.9999999999998863 ) ;
#271 = ORIENTED_EDGE ( 'NONE', *, *, #300, .T. ) ;
#272 = DIRECTION ( 'NONE',  ( -3.491481338843133355E-15, 1.224646799147353207E-16, -1.000000000000000000 ) ) ;
#273 = DIRECTION ( 'NONE',  ( -3.491481338843133355E-15, 1.224646799147353207E-16, -1.000000000000000000 ) ) ;
#274 = CARTESIAN_POINT ( 'NONE',  ( 4.643670180661366731E-13, -1.628780242865979995E-14, 133.0000000000000000 ) ) ;
#275 = DIRECTION ( 'NONE',  ( 0.0000000000000000000, 1.000000000000000000, 0.0000000000000000000 ) ) ;
#276 = DIRECTION ( 'NONE',  ( -3.491481338843133355E-15, 1.224646799147353207E-16, -1.000000000000000000 ) ) ;
#277 = DIRECTION ( 'NONE',  ( 0.0000000000000000000, 1.000000000000000000, 0.0000000000000000000 ) ) ;
#278 = CC_DESIGN_APPROVAL ( #281, ( #24 ) ) ;
#279 = CARTESIAN_POINT ( 'NONE',  ( 4.643670180661366731E-13, 4.249999999999984013, 133.0000000000000000 ) ) ;
#280 = ORIENTED_EDGE ( 'NONE', *, *, #227, .F. ) ;
#281 = APPROVAL ( #152, 'UNSPECIFIED' ) ;
#282 = DIRECTION ( 'NONE',  ( 3.491481338843133355E-15, -1.224646799147353207E-16, 1.000000000000000000 ) ) ;
#283 = DIRECTION ( 'NONE',  ( -3.491481338843133355E-15, 1.224646799147353207E-16, -1.000000000000000000 ) ) ;
#284 = EDGE_CURVE ( 'NONE', #38, #32, #151, .T. ) ;
#285 = PERSON_AND_ORGANIZATION_ROLE ( 'classification_officer' ) ;
#286 = ORIENTED_EDGE ( 'NONE', *, *, #191, .F. ) ;
#287 = VERTEX_POINT ( 'NONE', #333 ) ;
#288 = SECURITY_CLASSIFICATION_LEVEL ( 'unclassified' ) ;
#289 = VERTEX_POINT ( 'NONE', #183 ) ;
#290 = CALENDAR_DATE ( 2021, 2, 9 ) ;
#291 = ORIENTED_EDGE ( 'NONE', *, *, #166, .T. ) ;
#292 = EDGE_CURVE ( 'NONE', #157, #186, #119, .T. ) ;
#293 = DIRECTION ( 'NONE',  ( -3.491481338843133355E-15, 1.224646799147353207E-16, -1.000000000000000000 ) ) ;
#294 = VECTOR ( 'NONE', #304, 1000.000000000000000 ) ;
#295 = DIRECTION ( 'NONE',  ( -3.491481338843133355E-15, 1.224646799147353207E-16, -1.000000000000000000 ) ) ;
#296 = FACE_OUTER_BOUND ( 'NONE', #268, .T. ) ;
#297 = EDGE_CURVE ( 'NONE', #84, #310, #306, .T. ) ;
#298 = LOCAL_TIME ( 15, 38, 22.00000000000000000, #3 ) ;
#299 = DIRECTION ( 'NONE',  ( -3.491481338843133355E-15, 1.224646799147353207E-16, -1.000000000000000000 ) ) ;
#300 = EDGE_CURVE ( 'NONE', #157, #289, #208, .T. ) ;
#301 = EDGE_CURVE ( 'NONE', #63, #112, #46, .T. ) ;
#302 = DIRECTION ( 'NONE',  ( 0.0000000000000000000, 1.000000000000000000, 0.0000000000000000000 ) ) ;
#303 = EDGE_CURVE ( 'NONE', #287, #32, #218, .T. ) ;
#304 = DIRECTION ( 'NONE',  ( -3.491481338843133355E-15, 1.224646799147353207E-16, -1.000000000000000000 ) ) ;
#305 = ADVANCED_FACE ( 'NONE', ( #95 ), #200, .F. ) ;
#306 = LINE ( 'NONE', #25, #127 ) ;
#307 = LOCAL_TIME ( 15, 38, 22.00000000000000000, #212 ) ;
#308 = CIRCLE ( 'NONE', #155, 5.249999999999984013 ) ;
#309 = DIRECTION ( 'NONE',  ( -3.491481338843133355E-15, 1.224646799147353207E-16, -1.000000000000000000 ) ) ;
#310 = VERTEX_POINT ( 'NONE', #207 ) ;
#311 = DIRECTION ( 'NONE',  ( 1.903218546456022717E-15, 0.8571673007021097801, 0.5150380749100585964 ) ) ;
#312 = CARTESIAN_POINT ( 'NONE',  ( 1.165688117209986489E-14, 5.249999999999984013, 3.154518249894717297 ) ) ;
#313 = ORIENTED_EDGE ( 'NONE', *, *, #224, .F. ) ;
#314 = AXIS2_PLACEMENT_3D ( 'NONE', #73, #124, #335 ) ;
#315 = DIRECTION ( 'NONE',  ( -3.491481338843133355E-15, 1.224646799147353207E-16, -1.000000000000000000 ) ) ;
#316 = ADVANCED_FACE ( 'NONE', ( #259 ), #65, .T. ) ;
#317 = CARTESIAN_POINT ( 'NONE',  ( 3.037588764793525640E-13, 3.936869429487356788E-32, 87.00000000000000000 ) ) ;
#318 = FACE_OUTER_BOUND ( 'NONE', #34, .T. ) ;
#319 = AXIS2_PLACEMENT_3D ( 'NONE', #144, #21, #277 ) ;
#320 = ORIENTED_EDGE ( 'NONE', *, *, #169, .T. ) ;
#321 = CC_DESIGN_PERSON_AND_ORGANIZATION_ASSIGNMENT ( #80, #188, ( #24 ) ) ;
#322 = CALENDAR_DATE ( 2021, 2, 9 ) ;
#323 = ORIENTED_EDGE ( 'NONE', *, *, #182, .F. ) ;
#324 = EDGE_LOOP ( 'NONE', ( #291, #85 ) ) ;
#325 = CARTESIAN_POINT ( 'NONE',  ( 3.037588764793525640E-13, -1.065442715258197209E-14, 87.00000000000000000 ) ) ;
#326 = CIRCLE ( 'NONE', #201, 4.250000000000000000 ) ;
#327 = CC_DESIGN_DATE_AND_TIME_ASSIGNMENT ( #162, #159, ( #107 ) ) ;
#328 = LINE ( 'NONE', #89, #75 ) ;
#329 = DIRECTION ( 'NONE',  ( -3.491481338843133355E-15, 1.224646799147353207E-16, -1.000000000000000000 ) ) ;
#330 = CARTESIAN_POINT ( 'NONE',  ( 4.632029846263101237E-13, -4.250000000000016875, 133.0000000000000000 ) ) ;
#331 = CARTESIAN_POINT ( 'NONE',  ( 4.608755367272936534E-13, -1.616533774874506480E-14, 132.0000000000000000 ) ) ;
#332 = APPLICATION_PROTOCOL_DEFINITION ( 'international standard', 'config_control_design', 1994, #12 ) ;
#333 = CARTESIAN_POINT ( 'NONE',  ( 1.101394160254750221E-14, -5.249999999999984013, 3.154518249894716408 ) ) ;
#334 = CIRCLE ( 'NONE', #145, 5.249999999999994671 ) ;
#335 = DIRECTION ( 'NONE',  ( 2.934750391447225380E-31, 1.000000000000000000, 8.260587980841963432E-17 ) ) ;
#336 = ORIENTED_EDGE ( 'NONE', *, *, #191, .T. ) ;
#337 = LINE ( 'NONE', #279, #29 ) ;
ENDSEC;
END-ISO-10303-21;
