ISO-10303-21;
HEADER;
FILE_DESCRIPTION (( 'STEP AP203' ),
    '1' );
FILE_NAME ('54787.step',
    '2021-09-02T13:38:22',
    ( '' ),
    ( '' ),
    'SwSTEP 2.0',
    'SolidWorks 2019',
    '' );
FILE_SCHEMA (( 'CONFIG_CONTROL_DESIGN' ));
ENDSEC;

DATA;
#1 = PLANE ( 'NONE',  #66 ) ;
#2 = AXIS2_PLACEMENT_3D ( 'NONE', #31, #244, #158 ) ;
#3 = CARTESIAN_POINT ( 'NONE',  ( 0.0000000000000000000, 0.0000000000000000000, 0.0000000000000000000 ) ) ;
#4 = MANIFOLD_SOLID_BREP ( 'Corps-Déplacer/Copier1[2]', #94 ) ;
#5 = DIRECTION ( 'NONE',  ( 1.798245827342160317E-15, -0.8571673007021098911, 0.5150380749100582634 ) ) ;
#6 = FACE_OUTER_BOUND ( 'NONE', #26, .T. ) ;
#7 = DIRECTION ( 'NONE',  ( 0.0000000000000000000, 1.000000000000000000, 0.0000000000000000000 ) ) ;
#8 = LINE ( 'NONE', #115, #300 ) ;
#9 = ADVANCED_FACE ( 'NONE', ( #256 ), #46, .T. ) ;
#10 = DIRECTION ( 'NONE',  ( -3.491481338843133355E-15, 1.224646799147353207E-16, -1.000000000000000000 ) ) ;
#11 = AXIS2_PLACEMENT_3D ( 'NONE', #137, #239, #318 ) ;
#12 = DIRECTION ( 'NONE',  ( 0.0000000000000000000, 0.0000000000000000000, 1.000000000000000000 ) ) ;
#13 = EDGE_LOOP ( 'NONE', ( #309, #20, #273, #151 ) ) ;
#14 = PERSON ( 'UNSPECIFIED', 'UNSPECIFIED', 'UNSPECIFIED', ('UNSPECIFIED'), ('UNSPECIFIED'), ('UNSPECIFIED') ) ;
#15 = APPLICATION_PROTOCOL_DEFINITION ( 'international standard', 'config_control_design', 1994, #186 ) ;
#16 = CARTESIAN_POINT ( 'NONE',  ( 3.829417764708880787E-13, -5.100000000000016520, 132.0000000000000000 ) ) ;
#17 = MECHANICAL_CONTEXT ( 'NONE', #324, 'mechanical' ) ;
#18 = EDGE_CURVE ( 'NONE', #277, #326, #271, .T. ) ;
#19 = DATE_AND_TIME ( #107, #243 ) ;
#20 = ORIENTED_EDGE ( 'NONE', *, *, #120, .T. ) ;
#21 = APPROVAL_DATE_TIME ( #19, #185 ) ;
#22 = ORIENTED_EDGE ( 'NONE', *, *, #79, .T. ) ;
#23 = ORIENTED_EDGE ( 'NONE', *, *, #287, .T. ) ;
#24 = EDGE_CURVE ( 'NONE', #277, #71, #47, .T. ) ;
#25 = DATE_TIME_ROLE ( 'creation_date' ) ;
#26 = EDGE_LOOP ( 'NONE', ( #206, #198 ) ) ;
#27 = DIRECTION ( 'NONE',  ( 0.0000000000000000000, 1.000000000000000000, 0.0000000000000000000 ) ) ;
#28 = CARTESIAN_POINT ( 'NONE',  ( 1.069925755676042977E-14, -3.752794372511603936E-16, 3.064389157040581235 ) ) ;
#29 = CIRCLE ( 'NONE', #220, 5.099999999999993427 ) ;
#30 = SECURITY_CLASSIFICATION ( '', '', #337 ) ;
#31 = CARTESIAN_POINT ( 'NONE',  ( 3.037588764793525640E-13, 3.824387445787716647E-32, 87.00000000000000000 ) ) ;
#32 = DIRECTION ( 'NONE',  ( -3.491481338843133355E-15, 1.224646799147353207E-16, -1.000000000000000000 ) ) ;
#33 = DIRECTION ( 'NONE',  ( -3.491481338843133355E-15, 1.224646799147353207E-16, -1.000000000000000000 ) ) ;
#34 = AXIS2_PLACEMENT_3D ( 'NONE', #219, #196, #224 ) ;
#35 = CARTESIAN_POINT ( 'NONE',  ( 4.648691232537871100E-13, -4.100000000000015632, 133.0000000000000000 ) ) ;
#36 = CARTESIAN_POINT ( 'NONE',  ( 0.0000000000000000000, 0.0000000000000000000, 0.0000000000000000000 ) ) ;
#37 = CIRCLE ( 'NONE', #247, 4.099999999999999645 ) ;
#38 = PERSON_AND_ORGANIZATION ( #14, #109 ) ;
#39 = EDGE_LOOP ( 'NONE', ( #126, #23, #230, #61 ) ) ;
#40 = CARTESIAN_POINT ( 'NONE',  ( 1.069925755676042977E-14, -3.752794372511603936E-16, 3.064389157040581235 ) ) ;
#41 = VECTOR ( 'NONE', #161, 999.9999999999998863 ) ;
#42 = PERSON_AND_ORGANIZATION ( #14, #109 ) ;
#43 = VERTEX_POINT ( 'NONE', #132 ) ;
#44 = APPROVAL_ROLE ( '' ) ;
#45 = DIRECTION ( 'NONE',  ( -3.491481338843133355E-15, 1.224646799147353207E-16, -1.000000000000000000 ) ) ;
#46 = CYLINDRICAL_SURFACE ( 'NONE', #320, 5.099999999999996980 ) ;
#47 = LINE ( 'NONE', #207, #176 ) ;
#48 = UNCERTAINTY_MEASURE_WITH_UNIT (LENGTH_MEASURE( 1.000000000000000082E-05 ), #225, 'distance_accuracy_value', 'NONE');
#49 = ORIENTED_EDGE ( 'NONE', *, *, #312, .T. ) ;
#50 = ADVANCED_FACE ( 'NONE', ( #237 ), #1, .F. ) ;
#51 = DIRECTION ( 'NONE',  ( -2.468850131082266527E-15, 0.7071067811865473507, -0.7071067811865477948 ) ) ;
#52 = LINE ( 'NONE', #35, #190 ) ;
#53 = DIRECTION ( 'NONE',  ( 3.491481338843133355E-15, -1.224646799147353207E-16, 1.000000000000000000 ) ) ;
#54 = EDGE_CURVE ( 'NONE', #259, #226, #57, .T. ) ;
#55 = CARTESIAN_POINT ( 'NONE',  ( 1.578536368856213525E-13, -5.100000000000004086, 87.00000000000000000 ) ) ;
#56 = EDGE_CURVE ( 'NONE', #175, #43, #314, .T. ) ;
#57 = CIRCLE ( 'NONE', #252, 5.099999999999993427 ) ;
#58 = AXIS2_PLACEMENT_3D ( 'NONE', #89, #60, #249 ) ;
#59 = CARTESIAN_POINT ( 'NONE',  ( 1.069925755676042819E-14, -5.099999999999982769, 3.064389157040580791 ) ) ;
#60 = DIRECTION ( 'NONE',  ( -3.491481338843133355E-15, 1.224646799147353207E-16, -1.000000000000000000 ) ) ;
#61 = ORIENTED_EDGE ( 'NONE', *, *, #160, .F. ) ;
#62 = APPLICATION_PROTOCOL_DEFINITION ( 'international standard', 'config_control_design', 1994, #324 ) ;
#63 = CARTESIAN_POINT ( 'NONE',  ( 4.608755367272936534E-13, 5.099999999999982769, 132.0000000000000000 ) ) ;
#64 = FACE_OUTER_BOUND ( 'NONE', #204, .T. ) ;
#65 = CARTESIAN_POINT ( 'NONE',  ( 4.643670180661366731E-13, -1.628780242865979995E-14, 133.0000000000000000 ) ) ;
#66 = AXIS2_PLACEMENT_3D ( 'NONE', #211, #85, #241 ) ;
#67 = APPROVAL_STATUS ( 'not_yet_approved' ) ;
#68 = LOCAL_TIME ( 15, 38, 22.00000000000000000, #171 ) ;
#69 = ORIENTED_EDGE ( 'NONE', *, *, #93, .T. ) ;
#70 = PERSON_AND_ORGANIZATION ( #14, #109 ) ;
#71 = VERTEX_POINT ( 'NONE', #266 ) ;
#72 = PERSON_AND_ORGANIZATION_ROLE ( 'classification_officer' ) ;
#73 = EDGE_LOOP ( 'NONE', ( #232, #69, #172, #221 ) ) ;
#74 = DATE_AND_TIME ( #274, #116 ) ;
#75 = ORIENTED_EDGE ( 'NONE', *, *, #193, .T. ) ;
#76 = CONICAL_SURFACE ( 'NONE', #195, 5.099999999999982769, 1.029744258676649649 ) ;
#77 = EDGE_LOOP ( 'NONE', ( #235, #131, #333, #281 ) ) ;
#78 = DIRECTION ( 'NONE',  ( -3.491481338843133355E-15, 1.224646799147353207E-16, -1.000000000000000000 ) ) ;
#79 = EDGE_CURVE ( 'NONE', #175, #336, #242, .T. ) ;
#80 = CARTESIAN_POINT ( 'NONE',  ( 3.037588764793525640E-13, -1.065442715258197209E-14, 87.00000000000000000 ) ) ;
#81 = CC_DESIGN_PERSON_AND_ORGANIZATION_ASSIGNMENT ( #70, #72, ( #30 ) ) ;
#82 = CIRCLE ( 'NONE', #34, 5.099999999999982769 ) ;
#83 = FACE_OUTER_BOUND ( 'NONE', #299, .T. ) ;
#84 = ADVANCED_FACE ( 'NONE', ( #163 ), #199, .T. ) ;
#85 = DIRECTION ( 'NONE',  ( -3.491481338843133355E-15, 1.224646799147353207E-16, -1.000000000000000000 ) ) ;
#86 = DIRECTION ( 'NONE',  ( -3.491481338843133355E-15, 1.224646799147353207E-16, -1.000000000000000000 ) ) ;
#87 = VECTOR ( 'NONE', #5, 1000.000000000000000 ) ;
#88 = AXIS2_PLACEMENT_3D ( 'NONE', #187, #182, #114 ) ;
#89 = CARTESIAN_POINT ( 'NONE',  ( 0.0000000000000000000, 0.0000000000000000000, 0.0000000000000000000 ) ) ;
#90 = ADVANCED_BREP_SHAPE_REPRESENTATION ( '54787', ( #117, #4, #293 ), #253 ) ;
#91 = CYLINDRICAL_SURFACE ( 'NONE', #58, 5.099999999999988098 ) ;
#92 = CC_DESIGN_PERSON_AND_ORGANIZATION_ASSIGNMENT ( #254, #332, ( #262 ) ) ;
#93 = EDGE_CURVE ( 'NONE', #326, #170, #8, .T. ) ;
#94 = CLOSED_SHELL ( 'NONE', ( #316, #294, #188, #295, #148 ) ) ;
#95 = CONICAL_SURFACE ( 'NONE', #272, 4.099999999999999645, 0.7853981633974479459 ) ;
#96 = DIRECTION ( 'NONE',  ( -3.491481338843133355E-15, 1.224646799147353207E-16, -1.000000000000000000 ) ) ;
#97 = CARTESIAN_POINT ( 'NONE',  ( 3.037588764793525640E-13, 5.099999999999982769, 87.00000000000000000 ) ) ;
#98 = APPROVAL_STATUS ( 'not_yet_approved' ) ;
#99 = ORIENTED_EDGE ( 'NONE', *, *, #118, .F. ) ;
#100 = DATE_AND_TIME ( #231, #157 ) ;
#101 = AXIS2_PLACEMENT_3D ( 'NONE', #36, #10, #194 ) ;
#102 = VERTEX_POINT ( 'NONE', #159 ) ;
#103 = APPROVAL_STATUS ( 'not_yet_approved' ) ;
#104 = ORIENTED_EDGE ( 'NONE', *, *, #287, .F. ) ;
#105 = PRODUCT_DEFINITION ( 'UNKNOWN', '', #262, #278 ) ;
#106 = ORIENTED_EDGE ( 'NONE', *, *, #136, .F. ) ;
#107 = CALENDAR_DATE ( 2021, 2, 9 ) ;
#108 = ORIENTED_EDGE ( 'NONE', *, *, #257, .T. ) ;
#109 = ORGANIZATION ( 'UNSPECIFIED', 'UNSPECIFIED', '' ) ;
#110 = FACE_OUTER_BOUND ( 'NONE', #144, .T. ) ;
#111 = CARTESIAN_POINT ( 'NONE',  ( 4.643670180661366731E-13, -1.628780242865979995E-14, 133.0000000000000000 ) ) ;
#112 = CARTESIAN_POINT ( 'NONE',  ( 4.631846149243228793E-13, -4.100000000000015632, 133.0000000000000000 ) ) ;
#113 = VECTOR ( 'NONE', #315, 1000.000000000000000 ) ;
#114 = DIRECTION ( 'NONE',  ( 0.0000000000000000000, 1.000000000000000000, 0.0000000000000000000 ) ) ;
#115 = CARTESIAN_POINT ( 'NONE',  ( 6.245698675651476187E-16, -5.099999999999996980, -6.245698675651518588E-16 ) ) ;
#116 = LOCAL_TIME ( 15, 38, 22.00000000000000000, #276 ) ;
#117 = MANIFOLD_SOLID_BREP ( 'Corps-Déplacer/Copier1[1]', #279 ) ;
#118 = EDGE_CURVE ( 'NONE', #336, #43, #139, .T. ) ;
#119 = DIRECTION ( 'NONE',  ( -3.491481338843133355E-15, 1.224646799147353207E-16, -1.000000000000000000 ) ) ;
#120 = EDGE_CURVE ( 'NONE', #149, #326, #52, .T. ) ;
#121 = AXIS2_PLACEMENT_3D ( 'NONE', #325, #227, #192 ) ;
#122 = FACE_OUTER_BOUND ( 'NONE', #313, .T. ) ;
#123 = COORDINATED_UNIVERSAL_TIME_OFFSET ( 1, 0, .AHEAD. ) ;
#124 = ORIENTED_EDGE ( 'NONE', *, *, #79, .F. ) ;
#125 = PERSON_AND_ORGANIZATION ( #14, #109 ) ;
#126 = ORIENTED_EDGE ( 'NONE', *, *, #54, .T. ) ;
#127 = APPROVAL_ROLE ( '' ) ;
#128 = AXIS2_PLACEMENT_3D ( 'NONE', #141, #96, #145 ) ;
#129 = DIRECTION ( 'NONE',  ( 4.275831445896959482E-31, 1.000000000000000000, 1.224646799147353207E-16 ) ) ;
#130 = PERSON_AND_ORGANIZATION ( #14, #109 ) ;
#131 = ORIENTED_EDGE ( 'NONE', *, *, #136, .T. ) ;
#132 = CARTESIAN_POINT ( 'NONE',  ( 1.132382742432557965E-14, 5.099999999999982769, 3.064389157040581679 ) ) ;
#133 = CARTESIAN_POINT ( 'NONE',  ( 4.643670180661366731E-13, -1.628780242865979995E-14, 133.0000000000000000 ) ) ;
#134 = CC_DESIGN_APPROVAL ( #208, ( #30 ) ) ;
#135 = CARTESIAN_POINT ( 'NONE',  ( 2.180674037407444002E-30, 5.099999999999988098, 6.245698675651487034E-16 ) ) ;
#136 = EDGE_CURVE ( 'NONE', #149, #102, #238, .T. ) ;
#137 = CARTESIAN_POINT ( 'NONE',  ( 3.037588764793525640E-13, 3.824387445787716647E-32, 87.00000000000000000 ) ) ;
#138 = CARTESIAN_POINT ( 'NONE',  ( 1.132382742432557965E-14, 5.099999999999982769, 3.064389157040581679 ) ) ;
#139 = CIRCLE ( 'NONE', #301, 5.099999999999982769 ) ;
#140 = DIRECTION ( 'NONE',  ( 0.0000000000000000000, 1.000000000000000000, 0.0000000000000000000 ) ) ;
#141 = CARTESIAN_POINT ( 'NONE',  ( 3.037588764793525640E-13, -1.065442715258197209E-14, 87.00000000000000000 ) ) ;
#142 = CC_DESIGN_PERSON_AND_ORGANIZATION_ASSIGNMENT ( #38, #248, ( #303 ) ) ;
#143 = CYLINDRICAL_SURFACE ( 'NONE', #101, 5.099999999999988098 ) ;
#144 = EDGE_LOOP ( 'NONE', ( #305, #22, #331 ) ) ;
#145 = DIRECTION ( 'NONE',  ( 0.0000000000000000000, 1.000000000000000000, 0.0000000000000000000 ) ) ;
#146 = DIRECTION ( 'NONE',  ( 1.000000000000000000, 0.0000000000000000000, 0.0000000000000000000 ) ) ;
#147 = CC_DESIGN_APPROVAL ( #185, ( #105 ) ) ;
#148 = ADVANCED_FACE ( 'NONE', ( #6 ), #213, .T. ) ;
#149 = VERTEX_POINT ( 'NONE', #112 ) ;
#150 = COORDINATED_UNIVERSAL_TIME_OFFSET ( 1, 0, .AHEAD. ) ;
#151 = ORIENTED_EDGE ( 'NONE', *, *, #223, .F. ) ;
#152 = CC_DESIGN_DATE_AND_TIME_ASSIGNMENT ( #308, #205, ( #30 ) ) ;
#153 = DIRECTION ( 'NONE',  ( -3.491481338843133355E-15, 1.224646799147353207E-16, -1.000000000000000000 ) ) ;
#154 = DIRECTION ( 'NONE',  ( -3.491481338843133355E-15, 1.224646799147353207E-16, -1.000000000000000000 ) ) ;
#155 = EDGE_LOOP ( 'NONE', ( #306, #106 ) ) ;
#156 = FACE_OUTER_BOUND ( 'NONE', #73, .T. ) ;
#157 = LOCAL_TIME ( 15, 38, 22.00000000000000000, #150 ) ;
#158 = DIRECTION ( 'NONE',  ( -4.275831445896958607E-31, -1.000000000000000000, -1.224646799147353207E-16 ) ) ;
#159 = CARTESIAN_POINT ( 'NONE',  ( 4.643670180661366731E-13, 4.099999999999982769, 133.0000000000000000 ) ) ;
#160 = EDGE_CURVE ( 'NONE', #259, #43, #317, .T. ) ;
#161 = DIRECTION ( 'NONE',  ( 1.903218546456022717E-15, 0.8571673007021097801, 0.5150380749100585964 ) ) ;
#162 = ADVANCED_FACE ( 'NONE', ( #264 ), #95, .T. ) ;
#163 = FACE_OUTER_BOUND ( 'NONE', #13, .T. ) ;
#164 = APPROVAL ( #103, 'UNSPECIFIED' ) ;
#165 = CYLINDRICAL_SURFACE ( 'NONE', #121, 5.099999999999996980 ) ;
#166 = PERSON_AND_ORGANIZATION_ROLE ( 'creator' ) ;
#167 = CONICAL_SURFACE ( 'NONE', #334, 5.099999999999982769, 1.029744258676649649 ) ;
#168 = CC_DESIGN_APPROVAL ( #164, ( #262 ) ) ;
#169 = COORDINATED_UNIVERSAL_TIME_OFFSET ( 1, 0, .AHEAD. ) ;
#170 = VERTEX_POINT ( 'NONE', #285 ) ;
#171 = COORDINATED_UNIVERSAL_TIME_OFFSET ( 1, 0, .AHEAD. ) ;
#172 = ORIENTED_EDGE ( 'NONE', *, *, #193, .F. ) ;
#173 = ADVANCED_FACE ( 'NONE', ( #83 ), #184, .F. ) ;
#174 = DATE_AND_TIME ( #304, #201 ) ;
#175 = VERTEX_POINT ( 'NONE', #3 ) ;
#176 = VECTOR ( 'NONE', #154, 1000.000000000000000 ) ;
#177 = CIRCLE ( 'NONE', #88, 5.099999999999999645 ) ;
#178 = ORIENTED_EDGE ( 'NONE', *, *, #180, .T. ) ;
#179 = ORIENTED_EDGE ( 'NONE', *, *, #93, .F. ) ;
#180 = EDGE_CURVE ( 'NONE', #326, #277, #177, .T. ) ;
#181 = DIRECTION ( 'NONE',  ( -3.021066579430968487E-31, -1.000000000000000000, -8.503546450866730397E-17 ) ) ;
#182 = DIRECTION ( 'NONE',  ( -3.491481338843133355E-15, 1.224646799147353207E-16, -1.000000000000000000 ) ) ;
#183 = CIRCLE ( 'NONE', #210, 5.099999999999993427 ) ;
#184 = PLANE ( 'NONE',  #11 ) ;
#185 = APPROVAL ( #67, 'UNSPECIFIED' ) ;
#186 = APPLICATION_CONTEXT ( 'configuration controlled 3d designs of mechanical parts and assemblies' ) ;
#187 = CARTESIAN_POINT ( 'NONE',  ( 4.608755367272936534E-13, -1.616533774874506480E-14, 132.0000000000000000 ) ) ;
#188 = ADVANCED_FACE ( 'NONE', ( #110 ), #167, .T. ) ;
#189 = DIRECTION ( 'NONE',  ( 0.0000000000000000000, 1.000000000000000000, 0.0000000000000000000 ) ) ;
#190 = VECTOR ( 'NONE', #214, 1000.000000000000000 ) ;
#191 = DIRECTION ( 'NONE',  ( 3.491481338843133355E-15, -1.224646799147353207E-16, 1.000000000000000000 ) ) ;
#192 = DIRECTION ( 'NONE',  ( 4.275831445896959482E-31, 1.000000000000000000, 1.224646799147353207E-16 ) ) ;
#193 = EDGE_CURVE ( 'NONE', #71, #170, #29, .T. ) ;
#194 = DIRECTION ( 'NONE',  ( 4.275831445896958607E-31, 1.000000000000000000, 1.224646799147353207E-16 ) ) ;
#195 = AXIS2_PLACEMENT_3D ( 'NONE', #40, #191, #245 ) ;
#196 = DIRECTION ( 'NONE',  ( -3.491481338843133355E-15, 1.224646799147353207E-16, -1.000000000000000000 ) ) ;
#197 = SHAPE_DEFINITION_REPRESENTATION ( #307, #90 ) ;
#198 = ORIENTED_EDGE ( 'NONE', *, *, #312, .F. ) ;
#199 = CONICAL_SURFACE ( 'NONE', #283, 4.099999999999999645, 0.7853981633974479459 ) ;
#200 = VECTOR ( 'NONE', #51, 999.9999999999998863 ) ;
#201 = LOCAL_TIME ( 15, 38, 22.00000000000000000, #169 ) ;
#202 = APPROVAL_ROLE ( '' ) ;
#203 = CC_DESIGN_DATE_AND_TIME_ASSIGNMENT ( #174, #25, ( #105 ) ) ;
#204 = EDGE_LOOP ( 'NONE', ( #104, #49, #335, #99 ) ) ;
#205 = DATE_TIME_ROLE ( 'classification_date' ) ;
#206 = ORIENTED_EDGE ( 'NONE', *, *, #54, .F. ) ;
#207 = CARTESIAN_POINT ( 'NONE',  ( 2.180674037407447856E-30, 5.099999999999996980, 6.245698675651497881E-16 ) ) ;
#208 = APPROVAL ( #98, 'UNSPECIFIED' ) ;
#209 = PERSON_AND_ORGANIZATION_ROLE ( 'creator' ) ;
#210 = AXIS2_PLACEMENT_3D ( 'NONE', #321, #329, #251 ) ;
#211 = CARTESIAN_POINT ( 'NONE',  ( 4.643670180661366731E-13, 3.074507554456782916E-32, 133.0000000000000000 ) ) ;
#212 = DIRECTION ( 'NONE',  ( -3.491481338843133355E-15, 1.224646799147353207E-16, -1.000000000000000000 ) ) ;
#213 = PLANE ( 'NONE',  #2 ) ;
#214 = DIRECTION ( 'NONE',  ( -2.382254525458717469E-15, -0.7071067811865471286, -0.7071067811865479058 ) ) ;
#215 = CC_DESIGN_PERSON_AND_ORGANIZATION_ASSIGNMENT ( #270, #209, ( #262 ) ) ;
#216 = DIRECTION ( 'NONE',  ( 3.021066579430968487E-31, 1.000000000000000000, 8.503546450866730397E-17 ) ) ;
#217 = DIRECTION ( 'NONE',  ( -3.491481338843133355E-15, 1.224646799147353207E-16, -1.000000000000000000 ) ) ;
#218 = PRODUCT_RELATED_PRODUCT_CATEGORY ( 'detail', '', ( #303 ) ) ;
#219 = CARTESIAN_POINT ( 'NONE',  ( 1.069925755676042977E-14, -3.752794372511603936E-16, 3.064389157040581235 ) ) ;
#220 = AXIS2_PLACEMENT_3D ( 'NONE', #265, #33, #7 ) ;
#221 = ORIENTED_EDGE ( 'NONE', *, *, #24, .F. ) ;
#222 = APPROVAL_PERSON_ORGANIZATION ( #130, #164, #44 ) ;
#223 = EDGE_CURVE ( 'NONE', #102, #277, #286, .T. ) ;
#224 = DIRECTION ( 'NONE',  ( 3.021066579430968487E-31, 1.000000000000000000, 8.503546450866730397E-17 ) ) ;
#225 =( LENGTH_UNIT ( ) NAMED_UNIT ( * ) SI_UNIT ( .MILLI., .METRE. ) );
#226 = VERTEX_POINT ( 'NONE', #55 ) ;
#227 = DIRECTION ( 'NONE',  ( -3.491481338843133355E-15, 1.224646799147353207E-16, -1.000000000000000000 ) ) ;
#228 =( NAMED_UNIT ( * ) SI_UNIT ( $, .STERADIAN. ) SOLID_ANGLE_UNIT ( ) );
#229 = APPROVAL_DATE_TIME ( #100, #164 ) ;
#230 = ORIENTED_EDGE ( 'NONE', *, *, #257, .F. ) ;
#231 = CALENDAR_DATE ( 2021, 2, 9 ) ;
#232 = ORIENTED_EDGE ( 'NONE', *, *, #18, .T. ) ;
#233 = CIRCLE ( 'NONE', #128, 5.099999999999993427 ) ;
#234 = CARTESIAN_POINT ( 'NONE',  ( 4.608755367272936534E-13, -1.616533774874506480E-14, 132.0000000000000000 ) ) ;
#235 = ORIENTED_EDGE ( 'NONE', *, *, #120, .F. ) ;
#236 = PERSON_AND_ORGANIZATION ( #14, #109 ) ;
#237 = FACE_OUTER_BOUND ( 'NONE', #155, .T. ) ;
#238 = CIRCLE ( 'NONE', #267, 4.099999999999999645 ) ;
#239 = DIRECTION ( 'NONE',  ( 3.491481338843133355E-15, -1.224646799147353207E-16, 1.000000000000000000 ) ) ;
#240 = CARTESIAN_POINT ( 'NONE',  ( 4.643670180661366731E-13, -1.628780242865979995E-14, 133.0000000000000000 ) ) ;
#241 = DIRECTION ( 'NONE',  ( 4.275831445896958607E-31, 1.000000000000000000, 1.224646799147353207E-16 ) ) ;
#242 = LINE ( 'NONE', #59, #87 ) ;
#243 = LOCAL_TIME ( 15, 38, 22.00000000000000000, #123 ) ;
#244 = DIRECTION ( 'NONE',  ( 3.491481338843133355E-15, -1.224646799147353207E-16, 1.000000000000000000 ) ) ;
#245 = DIRECTION ( 'NONE',  ( -3.021066579430968487E-31, -1.000000000000000000, -8.503546450866730397E-17 ) ) ;
#246 = ADVANCED_FACE ( 'NONE', ( #156 ), #165, .T. ) ;
#247 = AXIS2_PLACEMENT_3D ( 'NONE', #65, #323, #269 ) ;
#248 = PERSON_AND_ORGANIZATION_ROLE ( 'design_owner' ) ;
#249 = DIRECTION ( 'NONE',  ( 4.275831445896958607E-31, 1.000000000000000000, 1.224646799147353207E-16 ) ) ;
#250 = EDGE_CURVE ( 'NONE', #170, #71, #183, .T. ) ;
#251 = DIRECTION ( 'NONE',  ( 0.0000000000000000000, 1.000000000000000000, 0.0000000000000000000 ) ) ;
#252 = AXIS2_PLACEMENT_3D ( 'NONE', #80, #78, #288 ) ;
#253 =( GEOMETRIC_REPRESENTATION_CONTEXT ( 3 ) GLOBAL_UNCERTAINTY_ASSIGNED_CONTEXT ( ( #48 ) ) GLOBAL_UNIT_ASSIGNED_CONTEXT ( ( #225, #291, #228 ) ) REPRESENTATION_CONTEXT ( 'NONE', 'WORKASPACE' ) );
#254 = PERSON_AND_ORGANIZATION ( #14, #109 ) ;
#255 = CC_DESIGN_PERSON_AND_ORGANIZATION_ASSIGNMENT ( #236, #166, ( #105 ) ) ;
#256 = FACE_OUTER_BOUND ( 'NONE', #280, .T. ) ;
#257 = EDGE_CURVE ( 'NONE', #43, #336, #82, .T. ) ;
#258 = ORIENTED_EDGE ( 'NONE', *, *, #56, .T. ) ;
#259 = VERTEX_POINT ( 'NONE', #97 ) ;
#260 = CARTESIAN_POINT ( 'NONE',  ( 0.0000000000000000000, 0.0000000000000000000, 0.0000000000000000000 ) ) ;
#261 = ORIENTED_EDGE ( 'NONE', *, *, #250, .T. ) ;
#262 = PRODUCT_DEFINITION_FORMATION_WITH_SPECIFIED_SOURCE ( 'ANY', '', #303, .NOT_KNOWN. ) ;
#263 = DIRECTION ( 'NONE',  ( -3.491481338843133355E-15, 1.224646799147353207E-16, -1.000000000000000000 ) ) ;
#264 = FACE_OUTER_BOUND ( 'NONE', #77, .T. ) ;
#265 = CARTESIAN_POINT ( 'NONE',  ( 3.037588764793525640E-13, -1.065442715258197209E-14, 87.00000000000000000 ) ) ;
#266 = CARTESIAN_POINT ( 'NONE',  ( 3.037588764793525640E-13, 5.099999999999982769, 87.00000000000000000 ) ) ;
#267 = AXIS2_PLACEMENT_3D ( 'NONE', #111, #86, #319 ) ;
#268 = LINE ( 'NONE', #297, #310 ) ;
#269 = DIRECTION ( 'NONE',  ( 0.0000000000000000000, 1.000000000000000000, 0.0000000000000000000 ) ) ;
#270 = PERSON_AND_ORGANIZATION ( #14, #109 ) ;
#271 = CIRCLE ( 'NONE', #328, 5.099999999999999645 ) ;
#272 = AXIS2_PLACEMENT_3D ( 'NONE', #133, #32, #189 ) ;
#273 = ORIENTED_EDGE ( 'NONE', *, *, #18, .F. ) ;
#274 = CALENDAR_DATE ( 2021, 2, 9 ) ;
#275 = ORIENTED_EDGE ( 'NONE', *, *, #24, .T. ) ;
#276 = COORDINATED_UNIVERSAL_TIME_OFFSET ( 1, 0, .AHEAD. ) ;
#277 = VERTEX_POINT ( 'NONE', #63 ) ;
#278 = DESIGN_CONTEXT ( 'detailed design', #186, 'design' ) ;
#279 = CLOSED_SHELL ( 'NONE', ( #84, #246, #173, #9, #162, #50 ) ) ;
#280 = EDGE_LOOP ( 'NONE', ( #179, #178, #275, #290 ) ) ;
#281 = ORIENTED_EDGE ( 'NONE', *, *, #180, .F. ) ;
#282 = CARTESIAN_POINT ( 'NONE',  ( 4.643670180661366731E-13, 4.099999999999982769, 133.0000000000000000 ) ) ;
#283 = AXIS2_PLACEMENT_3D ( 'NONE', #240, #263, #140 ) ;
#284 = CARTESIAN_POINT ( 'NONE',  ( 1.069925755676042977E-14, -3.752794372511603936E-16, 3.064389157040581235 ) ) ;
#285 = CARTESIAN_POINT ( 'NONE',  ( 3.829417764708881797E-13, -5.100000000000004086, 87.00000000000000000 ) ) ;
#286 = LINE ( 'NONE', #282, #200 ) ;
#287 = EDGE_CURVE ( 'NONE', #226, #336, #268, .T. ) ;
#288 = DIRECTION ( 'NONE',  ( 0.0000000000000000000, 1.000000000000000000, 0.0000000000000000000 ) ) ;
#289 = APPROVAL_PERSON_ORGANIZATION ( #125, #185, #202 ) ;
#290 = ORIENTED_EDGE ( 'NONE', *, *, #250, .F. ) ;
#291 =( NAMED_UNIT ( * ) PLANE_ANGLE_UNIT ( ) SI_UNIT ( $, .RADIAN. ) );
#292 = FACE_OUTER_BOUND ( 'NONE', #39, .T. ) ;
#293 = AXIS2_PLACEMENT_3D ( 'NONE', #296, #12, #146 ) ;
#294 = ADVANCED_FACE ( 'NONE', ( #122 ), #76, .T. ) ;
#295 = ADVANCED_FACE ( 'NONE', ( #64 ), #143, .T. ) ;
#296 = CARTESIAN_POINT ( 'NONE',  ( 0.0000000000000000000, 0.0000000000000000000, 0.0000000000000000000 ) ) ;
#297 = CARTESIAN_POINT ( 'NONE',  ( 6.245698675651466326E-16, -5.099999999999988098, -6.245698675651508728E-16 ) ) ;
#298 = EDGE_CURVE ( 'NONE', #102, #149, #37, .T. ) ;
#299 = EDGE_LOOP ( 'NONE', ( #75, #261 ) ) ;
#300 = VECTOR ( 'NONE', #212, 1000.000000000000000 ) ;
#301 = AXIS2_PLACEMENT_3D ( 'NONE', #28, #217, #216 ) ;
#302 = CC_DESIGN_SECURITY_CLASSIFICATION ( #30, ( #262 ) ) ;
#303 = PRODUCT ( '54787', '54787', '', ( #17 ) ) ;
#304 = CALENDAR_DATE ( 2021, 2, 9 ) ;
#305 = ORIENTED_EDGE ( 'NONE', *, *, #56, .F. ) ;
#306 = ORIENTED_EDGE ( 'NONE', *, *, #298, .F. ) ;
#307 = PRODUCT_DEFINITION_SHAPE ( 'NONE', 'NONE',  #105 ) ;
#308 = DATE_AND_TIME ( #330, #68 ) ;
#309 = ORIENTED_EDGE ( 'NONE', *, *, #298, .T. ) ;
#310 = VECTOR ( 'NONE', #119, 1000.000000000000000 ) ;
#311 = APPROVAL_DATE_TIME ( #74, #208 ) ;
#312 = EDGE_CURVE ( 'NONE', #226, #259, #233, .T. ) ;
#313 = EDGE_LOOP ( 'NONE', ( #124, #258, #108 ) ) ;
#314 = LINE ( 'NONE', #138, #41 ) ;
#315 = DIRECTION ( 'NONE',  ( -3.491481338843133355E-15, 1.224646799147353207E-16, -1.000000000000000000 ) ) ;
#316 = ADVANCED_FACE ( 'NONE', ( #292 ), #91, .T. ) ;
#317 = LINE ( 'NONE', #135, #113 ) ;
#318 = DIRECTION ( 'NONE',  ( -4.275831445896958607E-31, -1.000000000000000000, -1.224646799147353207E-16 ) ) ;
#319 = DIRECTION ( 'NONE',  ( 0.0000000000000000000, 1.000000000000000000, 0.0000000000000000000 ) ) ;
#320 = AXIS2_PLACEMENT_3D ( 'NONE', #260, #45, #129 ) ;
#321 = CARTESIAN_POINT ( 'NONE',  ( 3.037588764793525640E-13, -1.065442715258197209E-14, 87.00000000000000000 ) ) ;
#322 = APPROVAL_PERSON_ORGANIZATION ( #42, #208, #127 ) ;
#323 = DIRECTION ( 'NONE',  ( -3.491481338843133355E-15, 1.224646799147353207E-16, -1.000000000000000000 ) ) ;
#324 = APPLICATION_CONTEXT ( 'configuration controlled 3d designs of mechanical parts and assemblies' ) ;
#325 = CARTESIAN_POINT ( 'NONE',  ( 0.0000000000000000000, 0.0000000000000000000, 0.0000000000000000000 ) ) ;
#326 = VERTEX_POINT ( 'NONE', #16 ) ;
#327 = CARTESIAN_POINT ( 'NONE',  ( 1.069925755676042819E-14, -5.099999999999982769, 3.064389157040580791 ) ) ;
#328 = AXIS2_PLACEMENT_3D ( 'NONE', #234, #153, #27 ) ;
#329 = DIRECTION ( 'NONE',  ( -3.491481338843133355E-15, 1.224646799147353207E-16, -1.000000000000000000 ) ) ;
#330 = CALENDAR_DATE ( 2021, 2, 9 ) ;
#331 = ORIENTED_EDGE ( 'NONE', *, *, #118, .T. ) ;
#332 = PERSON_AND_ORGANIZATION_ROLE ( 'design_supplier' ) ;
#333 = ORIENTED_EDGE ( 'NONE', *, *, #223, .T. ) ;
#334 = AXIS2_PLACEMENT_3D ( 'NONE', #284, #53, #181 ) ;
#335 = ORIENTED_EDGE ( 'NONE', *, *, #160, .T. ) ;
#336 = VERTEX_POINT ( 'NONE', #327 ) ;
#337 = SECURITY_CLASSIFICATION_LEVEL ( 'unclassified' ) ;
ENDSEC;
END-ISO-10303-21;
