ISO-10303-21;
HEADER;
FILE_DESCRIPTION (( 'STEP AP203' ),
    '1' );
FILE_NAME ('54784.step',
    '2021-09-02T13:38:21',
    ( '' ),
    ( '' ),
    'SwSTEP 2.0',
    'SolidWorks 2019',
    '' );
FILE_SCHEMA (( 'CONFIG_CONTROL_DESIGN' ));
ENDSEC;

DATA;
#1 = CARTESIAN_POINT ( 'NONE',  ( 0.0000000000000000000, 0.0000000000000000000, 0.0000000000000000000 ) ) ;
#2 = ORIENTED_EDGE ( 'NONE', *, *, #215, .F. ) ;
#3 = DATE_AND_TIME ( #133, #257 ) ;
#4 = APPROVAL_ROLE ( '' ) ;
#5 = ORIENTED_EDGE ( 'NONE', *, *, #62, .F. ) ;
#6 = PERSON_AND_ORGANIZATION_ROLE ( 'creator' ) ;
#7 = AXIS2_PLACEMENT_3D ( 'NONE', #204, #42, #298 ) ;
#8 = CONICAL_SURFACE ( 'NONE', #71, 4.000000000000000888, 0.7853981633974479459 ) ;
#9 = APPROVAL_DATE_TIME ( #248, #198 ) ;
#10 = DIRECTION ( 'NONE',  ( 1.000000000000000000, 0.0000000000000000000, 0.0000000000000000000 ) ) ;
#11 = EDGE_CURVE ( 'NONE', #184, #96, #277, .T. ) ;
#12 = ORIENTED_EDGE ( 'NONE', *, *, #18, .T. ) ;
#13 = EDGE_LOOP ( 'NONE', ( #137, #134, #90 ) ) ;
#14 = DIRECTION ( 'NONE',  ( -2.468850131082266527E-15, 0.7071067811865473507, -0.7071067811865477948 ) ) ;
#15 = LINE ( 'NONE', #121, #100 ) ;
#16 = CC_DESIGN_APPROVAL ( #166, ( #57 ) ) ;
#17 = EDGE_CURVE ( 'NONE', #96, #251, #269, .T. ) ;
#18 = EDGE_CURVE ( 'NONE', #182, #107, #41, .T. ) ;
#19 = CARTESIAN_POINT ( 'NONE',  ( 4.608755367272936534E-13, 4.999999999999984901, 132.0000000000000000 ) ) ;
#20 = VECTOR ( 'NONE', #254, 1000.000000000000000 ) ;
#21 = CARTESIAN_POINT ( 'NONE',  ( 6.123233995736731770E-16, -4.999999999999989342, -6.123233995736774171E-16 ) ) ;
#22 = CARTESIAN_POINT ( 'NONE',  ( 2.137915722948478427E-30, 4.999999999999997335, 6.123233995736763324E-16 ) ) ;
#23 = CC_DESIGN_DATE_AND_TIME_ASSIGNMENT ( #108, #317, ( #44 ) ) ;
#24 = CIRCLE ( 'NONE', #138, 4.999999999999994671 ) ;
#25 = DIRECTION ( 'NONE',  ( -3.491481338843133355E-15, 1.224646799147353207E-16, -1.000000000000000000 ) ) ;
#26 = PRODUCT_DEFINITION ( 'UNKNOWN', '', #57, #209 ) ;
#27 = CARTESIAN_POINT ( 'NONE',  ( 4.643670180661366731E-13, 3.999999999999984457, 133.0000000000000000 ) ) ;
#28 = DIRECTION ( 'NONE',  ( 4.275831445896959482E-31, 1.000000000000000000, 1.224646799147353207E-16 ) ) ;
#29 = AXIS2_PLACEMENT_3D ( 'NONE', #223, #188, #10 ) ;
#30 = EDGE_LOOP ( 'NONE', ( #109, #245, #280, #2 ) ) ;
#31 = PERSON_AND_ORGANIZATION ( #224, #147 ) ;
#32 = ORIENTED_EDGE ( 'NONE', *, *, #186, .T. ) ;
#33 = COORDINATED_UNIVERSAL_TIME_OFFSET ( 1, 0, .AHEAD. ) ;
#34 = APPLICATION_PROTOCOL_DEFINITION ( 'international standard', 'config_control_design', 1994, #142 ) ;
#35 = LOCAL_TIME ( 15, 38, 21.00000000000000000, #135 ) ;
#36 = PERSON_AND_ORGANIZATION ( #224, #147 ) ;
#37 = EDGE_LOOP ( 'NONE', ( #119, #82, #50 ) ) ;
#38 = DIRECTION ( 'NONE',  ( 3.491481338843133355E-15, -1.224646799147353207E-16, 1.000000000000000000 ) ) ;
#39 = CONICAL_SURFACE ( 'NONE', #94, 4.999999999999984901, 1.029744258676649649 ) ;
#40 = VECTOR ( 'NONE', #146, 1000.000000000000000 ) ;
#41 = LINE ( 'NONE', #21, #20 ) ;
#42 = DIRECTION ( 'NONE',  ( -3.491481338843133355E-15, 1.224646799147353207E-16, -1.000000000000000000 ) ) ;
#43 = FACE_OUTER_BOUND ( 'NONE', #288, .T. ) ;
#44 = SECURITY_CLASSIFICATION ( '', '', #167 ) ;
#45 = DIRECTION ( 'NONE',  ( 4.275831445896958607E-31, 1.000000000000000000, 1.224646799147353207E-16 ) ) ;
#46 = DIRECTION ( 'NONE',  ( 0.0000000000000000000, 1.000000000000000000, 0.0000000000000000000 ) ) ;
#47 = CARTESIAN_POINT ( 'NONE',  ( 0.0000000000000000000, 0.0000000000000000000, 0.0000000000000000000 ) ) ;
#48 = CIRCLE ( 'NONE', #132, 4.999999999999984901 ) ;
#49 = CARTESIAN_POINT ( 'NONE',  ( 1.577364957357008674E-13, -5.000000000000005329, 87.00000000000000000 ) ) ;
#50 = ORIENTED_EDGE ( 'NONE', *, *, #120, .T. ) ;
#51 = EDGE_CURVE ( 'NONE', #53, #251, #151, .T. ) ;
#52 = CARTESIAN_POINT ( 'NONE',  ( 1.048946819290238253E-14, -4.999999999999984901, 3.004303095137824897 ) ) ;
#53 = VERTEX_POINT ( 'NONE', #330 ) ;
#54 = EDGE_CURVE ( 'NONE', #159, #232, #197, .T. ) ;
#55 = FACE_OUTER_BOUND ( 'NONE', #321, .T. ) ;
#56 = ORIENTED_EDGE ( 'NONE', *, *, #255, .F. ) ;
#57 = PRODUCT_DEFINITION_FORMATION_WITH_SPECIFIED_SOURCE ( 'ANY', '', #177, .NOT_KNOWN. ) ;
#58 = ORIENTED_EDGE ( 'NONE', *, *, #17, .F. ) ;
#59 = PERSON_AND_ORGANIZATION_ROLE ( 'creator' ) ;
#60 = ADVANCED_FACE ( 'NONE', ( #93 ), #8, .T. ) ;
#61 = CALENDAR_DATE ( 2021, 2, 9 ) ;
#62 = EDGE_CURVE ( 'NONE', #107, #297, #77, .T. ) ;
#63 = APPROVAL_PERSON_ORGANIZATION ( #81, #198, #193 ) ;
#64 = DIRECTION ( 'NONE',  ( 4.275831445896958607E-31, 1.000000000000000000, 1.224646799147353207E-16 ) ) ;
#65 = EDGE_LOOP ( 'NONE', ( #337, #80 ) ) ;
#66 = CYLINDRICAL_SURFACE ( 'NONE', #143, 4.999999999999989342 ) ;
#67 = CARTESIAN_POINT ( 'NONE',  ( 1.048946819290238411E-14, -3.679210169129023853E-16, 3.004303095137825341 ) ) ;
#68 = DIRECTION ( 'NONE',  ( -3.491481338843133355E-15, 1.224646799147353207E-16, -1.000000000000000000 ) ) ;
#69 = AXIS2_PLACEMENT_3D ( 'NONE', #101, #332, #128 ) ;
#70 = CARTESIAN_POINT ( 'NONE',  ( 3.037588764793525640E-13, -1.065442715258197209E-14, 87.00000000000000000 ) ) ;
#71 = AXIS2_PLACEMENT_3D ( 'NONE', #172, #141, #205 ) ;
#72 = CARTESIAN_POINT ( 'NONE',  ( 4.608755367272936534E-13, -1.616533774874506480E-14, 132.0000000000000000 ) ) ;
#73 = CARTESIAN_POINT ( 'NONE',  ( 1.048946819290238411E-14, -3.679210169129023853E-16, 3.004303095137825341 ) ) ;
#74 = ORIENTED_EDGE ( 'NONE', *, *, #201, .T. ) ;
#75 = LOCAL_TIME ( 15, 38, 21.00000000000000000, #33 ) ;
#76 = DIRECTION ( 'NONE',  ( -4.275831445896958607E-31, -1.000000000000000000, -1.224646799147353207E-16 ) ) ;
#77 = CIRCLE ( 'NONE', #253, 4.999999999999984901 ) ;
#78 = ORIENTED_EDGE ( 'NONE', *, *, #319, .T. ) ;
#79 = CARTESIAN_POINT ( 'NONE',  ( 3.037588764793525640E-13, 4.999999999999984901, 87.00000000000000000 ) ) ;
#80 = ORIENTED_EDGE ( 'NONE', *, *, #260, .F. ) ;
#81 = PERSON_AND_ORGANIZATION ( #224, #147 ) ;
#82 = ORIENTED_EDGE ( 'NONE', *, *, #136, .T. ) ;
#83 = CC_DESIGN_PERSON_AND_ORGANIZATION_ASSIGNMENT ( #270, #246, ( #177 ) ) ;
#84 = CIRCLE ( 'NONE', #276, 5.000000000000000888 ) ;
#85 = APPLICATION_PROTOCOL_DEFINITION ( 'international standard', 'config_control_design', 1994, #125 ) ;
#86 = ORIENTED_EDGE ( 'NONE', *, *, #120, .F. ) ;
#87 = COORDINATED_UNIVERSAL_TIME_OFFSET ( 1, 0, .AHEAD. ) ;
#88 = ADVANCED_FACE ( 'NONE', ( #306 ), #66, .T. ) ;
#89 = APPROVAL_ROLE ( '' ) ;
#90 = ORIENTED_EDGE ( 'NONE', *, *, #62, .T. ) ;
#91 = LINE ( 'NONE', #200, #40 ) ;
#92 = ADVANCED_FACE ( 'NONE', ( #173 ), #236, .T. ) ;
#93 = FACE_OUTER_BOUND ( 'NONE', #314, .T. ) ;
#94 = AXIS2_PLACEMENT_3D ( 'NONE', #73, #267, #312 ) ;
#95 = SHAPE_DEFINITION_REPRESENTATION ( #117, #156 ) ;
#96 = VERTEX_POINT ( 'NONE', #19 ) ;
#97 = CARTESIAN_POINT ( 'NONE',  ( 4.643670180661366731E-13, 3.999999999999984457, 133.0000000000000000 ) ) ;
#98 = DIRECTION ( 'NONE',  ( -3.491481338843133355E-15, 1.224646799147353207E-16, -1.000000000000000000 ) ) ;
#99 = ADVANCED_FACE ( 'NONE', ( #43 ), #281, .F. ) ;
#100 = VECTOR ( 'NONE', #258, 999.9999999999998863 ) ;
#101 = CARTESIAN_POINT ( 'NONE',  ( 4.643670180661366731E-13, -1.628780242865979995E-14, 133.0000000000000000 ) ) ;
#102 = DIRECTION ( 'NONE',  ( 0.0000000000000000000, 1.000000000000000000, 0.0000000000000000000 ) ) ;
#103 = DIRECTION ( 'NONE',  ( -3.491481338843133355E-15, 1.224646799147353207E-16, -1.000000000000000000 ) ) ;
#104 = ORIENTED_EDGE ( 'NONE', *, *, #54, .F. ) ;
#105 = LOCAL_TIME ( 15, 38, 21.00000000000000000, #293 ) ;
#106 = LINE ( 'NONE', #22, #273 ) ;
#107 = VERTEX_POINT ( 'NONE', #327 ) ;
#108 = DATE_AND_TIME ( #243, #213 ) ;
#109 = ORIENTED_EDGE ( 'NONE', *, *, #17, .T. ) ;
#110 =( GEOMETRIC_REPRESENTATION_CONTEXT ( 3 ) GLOBAL_UNCERTAINTY_ASSIGNED_CONTEXT ( ( #284 ) ) GLOBAL_UNIT_ASSIGNED_CONTEXT ( ( #225, #296, #162 ) ) REPRESENTATION_CONTEXT ( 'NONE', 'WORKASPACE' ) );
#111 = PERSON_AND_ORGANIZATION ( #224, #147 ) ;
#112 = MECHANICAL_CONTEXT ( 'NONE', #125, 'mechanical' ) ;
#113 = MANIFOLD_SOLID_BREP ( 'Corps-Déplacer/Copier1[1]', #303 ) ;
#114 = EDGE_CURVE ( 'NONE', #251, #159, #91, .T. ) ;
#115 = ORIENTED_EDGE ( 'NONE', *, *, #118, .T. ) ;
#116 = CARTESIAN_POINT ( 'NONE',  ( 0.0000000000000000000, 0.0000000000000000000, 0.0000000000000000000 ) ) ;
#117 = PRODUCT_DEFINITION_SHAPE ( 'NONE', 'NONE',  #26 ) ;
#118 = EDGE_CURVE ( 'NONE', #232, #159, #150, .T. ) ;
#119 = ORIENTED_EDGE ( 'NONE', *, *, #289, .F. ) ;
#120 = EDGE_CURVE ( 'NONE', #297, #107, #48, .T. ) ;
#121 = CARTESIAN_POINT ( 'NONE',  ( 1.110179159247606142E-14, 4.999999999999984901, 3.004303095137825785 ) ) ;
#122 = CARTESIAN_POINT ( 'NONE',  ( 1.048946819290238411E-14, -3.679210169129023853E-16, 3.004303095137825341 ) ) ;
#123 = FACE_OUTER_BOUND ( 'NONE', #65, .T. ) ;
#124 = MANIFOLD_SOLID_BREP ( 'Corps-Déplacer/Copier1[2]', #228 ) ;
#125 = APPLICATION_CONTEXT ( 'configuration controlled 3d designs of mechanical parts and assemblies' ) ;
#126 = DIRECTION ( 'NONE',  ( -3.491481338843133355E-15, 1.224646799147353207E-16, -1.000000000000000000 ) ) ;
#127 = AXIS2_PLACEMENT_3D ( 'NONE', #208, #154, #76 ) ;
#128 = DIRECTION ( 'NONE',  ( 0.0000000000000000000, 1.000000000000000000, 0.0000000000000000000 ) ) ;
#129 = FACE_OUTER_BOUND ( 'NONE', #311, .T. ) ;
#130 = ORIENTED_EDGE ( 'NONE', *, *, #255, .T. ) ;
#131 = CARTESIAN_POINT ( 'NONE',  ( 1.110179159247606142E-14, 4.999999999999984901, 3.004303095137825785 ) ) ;
#132 = AXIS2_PLACEMENT_3D ( 'NONE', #122, #145, #256 ) ;
#133 = CALENDAR_DATE ( 2021, 2, 9 ) ;
#134 = ORIENTED_EDGE ( 'NONE', *, *, #289, .T. ) ;
#135 = COORDINATED_UNIVERSAL_TIME_OFFSET ( 1, 0, .AHEAD. ) ;
#136 = EDGE_CURVE ( 'NONE', #140, #297, #15, .T. ) ;
#137 = ORIENTED_EDGE ( 'NONE', *, *, #136, .F. ) ;
#138 = AXIS2_PLACEMENT_3D ( 'NONE', #70, #126, #282 ) ;
#139 = APPROVAL_DATE_TIME ( #3, #166 ) ;
#140 = VERTEX_POINT ( 'NONE', #233 ) ;
#141 = DIRECTION ( 'NONE',  ( -3.491481338843133355E-15, 1.224646799147353207E-16, -1.000000000000000000 ) ) ;
#142 = APPLICATION_CONTEXT ( 'configuration controlled 3d designs of mechanical parts and assemblies' ) ;
#143 = AXIS2_PLACEMENT_3D ( 'NONE', #116, #304, #64 ) ;
#144 = ORIENTED_EDGE ( 'NONE', *, *, #170, .T. ) ;
#145 = DIRECTION ( 'NONE',  ( -3.491481338843133355E-15, 1.224646799147353207E-16, -1.000000000000000000 ) ) ;
#146 = DIRECTION ( 'NONE',  ( -3.491481338843133355E-15, 1.224646799147353207E-16, -1.000000000000000000 ) ) ;
#147 = ORGANIZATION ( 'UNSPECIFIED', 'UNSPECIFIED', '' ) ;
#148 = ADVANCED_FACE ( 'NONE', ( #331 ), #39, .T. ) ;
#149 = VECTOR ( 'NONE', #14, 999.9999999999998863 ) ;
#150 = CIRCLE ( 'NONE', #7, 4.999999999999994671 ) ;
#151 = LINE ( 'NONE', #328, #175 ) ;
#152 = CYLINDRICAL_SURFACE ( 'NONE', #241, 4.999999999999989342 ) ;
#153 = DIRECTION ( 'NONE',  ( -3.491481338843133355E-15, 1.224646799147353207E-16, -1.000000000000000000 ) ) ;
#154 = DIRECTION ( 'NONE',  ( 3.491481338843133355E-15, -1.224646799147353207E-16, 1.000000000000000000 ) ) ;
#155 = ORIENTED_EDGE ( 'NONE', *, *, #170, .F. ) ;
#156 = ADVANCED_BREP_SHAPE_REPRESENTATION ( '54784', ( #113, #124, #29 ), #110 ) ;
#157 = DIRECTION ( 'NONE',  ( -3.491481338843133355E-15, 1.224646799147353207E-16, -1.000000000000000000 ) ) ;
#158 = DIRECTION ( 'NONE',  ( 1.798245827342160317E-15, -0.8571673007021098911, 0.5150380749100582634 ) ) ;
#159 = VERTEX_POINT ( 'NONE', #211 ) ;
#160 = ADVANCED_FACE ( 'NONE', ( #123 ), #283, .T. ) ;
#161 = AXIS2_PLACEMENT_3D ( 'NONE', #315, #214, #262 ) ;
#162 =( NAMED_UNIT ( * ) SI_UNIT ( $, .STERADIAN. ) SOLID_ANGLE_UNIT ( ) );
#163 = CALENDAR_DATE ( 2021, 2, 9 ) ;
#164 = CC_DESIGN_PERSON_AND_ORGANIZATION_ASSIGNMENT ( #221, #320, ( #44 ) ) ;
#165 = APPROVAL_PERSON_ORGANIZATION ( #36, #166, #4 ) ;
#166 = APPROVAL ( #196, 'UNSPECIFIED' ) ;
#167 = SECURITY_CLASSIFICATION_LEVEL ( 'unclassified' ) ;
#168 = ORIENTED_EDGE ( 'NONE', *, *, #51, .F. ) ;
#169 = CARTESIAN_POINT ( 'NONE',  ( 4.608755367272936534E-13, -1.616533774874506480E-14, 132.0000000000000000 ) ) ;
#170 = EDGE_CURVE ( 'NONE', #184, #53, #290, .T. ) ;
#171 = DIRECTION ( 'NONE',  ( 0.0000000000000000000, 1.000000000000000000, 0.0000000000000000000 ) ) ;
#172 = CARTESIAN_POINT ( 'NONE',  ( 4.643670180661366731E-13, -1.628780242865979995E-14, 133.0000000000000000 ) ) ;
#173 = FACE_OUTER_BOUND ( 'NONE', #13, .T. ) ;
#174 = DIRECTION ( 'NONE',  ( 0.0000000000000000000, 1.000000000000000000, 0.0000000000000000000 ) ) ;
#175 = VECTOR ( 'NONE', #203, 1000.000000000000000 ) ;
#176 = CYLINDRICAL_SURFACE ( 'NONE', #329, 4.999999999999997335 ) ;
#177 = PRODUCT ( '54784', '54784', '', ( #112 ) ) ;
#178 = DIRECTION ( 'NONE',  ( -3.491481338843133355E-15, 1.224646799147353207E-16, -1.000000000000000000 ) ) ;
#179 = ADVANCED_FACE ( 'NONE', ( #334 ), #195, .T. ) ;
#180 = DIRECTION ( 'NONE',  ( -3.491481338843133355E-15, 1.224646799147353207E-16, -1.000000000000000000 ) ) ;
#181 = APPROVAL_PERSON_ORGANIZATION ( #31, #300, #89 ) ;
#182 = VERTEX_POINT ( 'NONE', #49 ) ;
#183 = CARTESIAN_POINT ( 'NONE',  ( 3.037588764793525640E-13, 4.999999999999984901, 87.00000000000000000 ) ) ;
#184 = VERTEX_POINT ( 'NONE', #27 ) ;
#185 = DIRECTION ( 'NONE',  ( -3.491481338843133355E-15, 1.224646799147353207E-16, -1.000000000000000000 ) ) ;
#186 = EDGE_CURVE ( 'NONE', #53, #184, #247, .T. ) ;
#187 = EDGE_LOOP ( 'NONE', ( #316, #130, #242, #104 ) ) ;
#188 = DIRECTION ( 'NONE',  ( 0.0000000000000000000, 0.0000000000000000000, 1.000000000000000000 ) ) ;
#189 = ORIENTED_EDGE ( 'NONE', *, *, #11, .T. ) ;
#190 = VECTOR ( 'NONE', #25, 1000.000000000000000 ) ;
#191 = CALENDAR_DATE ( 2021, 2, 9 ) ;
#192 = AXIS2_PLACEMENT_3D ( 'NONE', #226, #275, #174 ) ;
#193 = APPROVAL_ROLE ( '' ) ;
#194 = CC_DESIGN_DATE_AND_TIME_ASSIGNMENT ( #244, #292, ( #26 ) ) ;
#195 = CONICAL_SURFACE ( 'NONE', #333, 4.000000000000000888, 0.7853981633974479459 ) ;
#196 = APPROVAL_STATUS ( 'not_yet_approved' ) ;
#197 = CIRCLE ( 'NONE', #192, 4.999999999999994671 ) ;
#198 = APPROVAL ( #272, 'UNSPECIFIED' ) ;
#199 = ORIENTED_EDGE ( 'NONE', *, *, #201, .F. ) ;
#200 = CARTESIAN_POINT ( 'NONE',  ( 6.123233995736741630E-16, -4.999999999999997335, -6.123233995736784032E-16 ) ) ;
#201 = EDGE_CURVE ( 'NONE', #218, #297, #286, .T. ) ;
#202 = CIRCLE ( 'NONE', #299, 4.999999999999994671 ) ;
#203 = DIRECTION ( 'NONE',  ( -2.382254525458717469E-15, -0.7071067811865471286, -0.7071067811865479058 ) ) ;
#204 = CARTESIAN_POINT ( 'NONE',  ( 3.037588764793525640E-13, -1.065442715258197209E-14, 87.00000000000000000 ) ) ;
#205 = DIRECTION ( 'NONE',  ( 0.0000000000000000000, 1.000000000000000000, 0.0000000000000000000 ) ) ;
#206 = DIRECTION ( 'NONE',  ( 4.275831445896959482E-31, 1.000000000000000000, 1.224646799147353207E-16 ) ) ;
#207 = VECTOR ( 'NONE', #158, 1000.000000000000000 ) ;
#208 = CARTESIAN_POINT ( 'NONE',  ( 3.037588764793525640E-13, 3.749399456654624861E-32, 87.00000000000000000 ) ) ;
#209 = DESIGN_CONTEXT ( 'detailed design', #142, 'design' ) ;
#210 = CARTESIAN_POINT ( 'NONE',  ( 2.137915722948474924E-30, 4.999999999999989342, 6.123233995736753463E-16 ) ) ;
#211 = CARTESIAN_POINT ( 'NONE',  ( 3.829295300028967845E-13, -5.000000000000005329, 87.00000000000000000 ) ) ;
#212 = PRODUCT_RELATED_PRODUCT_CATEGORY ( 'detail', '', ( #177 ) ) ;
#213 = LOCAL_TIME ( 15, 38, 21.00000000000000000, #87 ) ;
#214 = DIRECTION ( 'NONE',  ( 3.491481338843133355E-15, -1.224646799147353207E-16, 1.000000000000000000 ) ) ;
#215 = EDGE_CURVE ( 'NONE', #96, #232, #106, .T. ) ;
#216 = ORIENTED_EDGE ( 'NONE', *, *, #51, .T. ) ;
#217 = PERSON_AND_ORGANIZATION ( #224, #147 ) ;
#218 = VERTEX_POINT ( 'NONE', #79 ) ;
#219 = PERSON_AND_ORGANIZATION ( #224, #147 ) ;
#220 = AXIS2_PLACEMENT_3D ( 'NONE', #309, #157, #102 ) ;
#221 = PERSON_AND_ORGANIZATION ( #224, #147 ) ;
#222 = AXIS2_PLACEMENT_3D ( 'NONE', #259, #68, #45 ) ;
#223 = CARTESIAN_POINT ( 'NONE',  ( 0.0000000000000000000, 0.0000000000000000000, 0.0000000000000000000 ) ) ;
#224 = PERSON ( 'UNSPECIFIED', 'UNSPECIFIED', 'UNSPECIFIED', ('UNSPECIFIED'), ('UNSPECIFIED'), ('UNSPECIFIED') ) ;
#225 =( LENGTH_UNIT ( ) NAMED_UNIT ( * ) SI_UNIT ( .MILLI., .METRE. ) );
#226 = CARTESIAN_POINT ( 'NONE',  ( 3.037588764793525640E-13, -1.065442715258197209E-14, 87.00000000000000000 ) ) ;
#227 = ADVANCED_FACE ( 'NONE', ( #129 ), #310, .F. ) ;
#228 = CLOSED_SHELL ( 'NONE', ( #88, #148, #92, #294, #160 ) ) ;
#229 = DIRECTION ( 'NONE',  ( -3.081487911019586561E-31, -1.000000000000000000, -8.673617379884061357E-17 ) ) ;
#230 = ORIENTED_EDGE ( 'NONE', *, *, #54, .T. ) ;
#231 = CC_DESIGN_APPROVAL ( #300, ( #26 ) ) ;
#232 = VERTEX_POINT ( 'NONE', #183 ) ;
#233 = CARTESIAN_POINT ( 'NONE',  ( 0.0000000000000000000, 0.0000000000000000000, 0.0000000000000000000 ) ) ;
#234 = CARTESIAN_POINT ( 'NONE',  ( 0.0000000000000000000, 0.0000000000000000000, 0.0000000000000000000 ) ) ;
#235 = AXIS2_PLACEMENT_3D ( 'NONE', #1, #336, #28 ) ;
#236 = CONICAL_SURFACE ( 'NONE', #278, 4.999999999999984901, 1.029744258676649649 ) ;
#237 = CARTESIAN_POINT ( 'NONE',  ( 4.643670180661366731E-13, -1.628780242865979995E-14, 133.0000000000000000 ) ) ;
#238 = FACE_OUTER_BOUND ( 'NONE', #187, .T. ) ;
#239 = ORIENTED_EDGE ( 'NONE', *, *, #11, .F. ) ;
#240 = FACE_OUTER_BOUND ( 'NONE', #30, .T. ) ;
#241 = AXIS2_PLACEMENT_3D ( 'NONE', #234, #103, #265 ) ;
#242 = ORIENTED_EDGE ( 'NONE', *, *, #215, .T. ) ;
#243 = CALENDAR_DATE ( 2021, 2, 9 ) ;
#244 = DATE_AND_TIME ( #191, #75 ) ;
#245 = ORIENTED_EDGE ( 'NONE', *, *, #114, .T. ) ;
#246 = PERSON_AND_ORGANIZATION_ROLE ( 'design_owner' ) ;
#247 = CIRCLE ( 'NONE', #220, 4.000000000000000888 ) ;
#248 = DATE_AND_TIME ( #163, #105 ) ;
#249 = PERSON_AND_ORGANIZATION_ROLE ( 'design_supplier' ) ;
#250 = ADVANCED_FACE ( 'NONE', ( #238 ), #285, .T. ) ;
#251 = VERTEX_POINT ( 'NONE', #308 ) ;
#252 = DIRECTION ( 'NONE',  ( -3.491481338843133355E-15, 1.224646799147353207E-16, -1.000000000000000000 ) ) ;
#253 = AXIS2_PLACEMENT_3D ( 'NONE', #67, #326, #301 ) ;
#254 = DIRECTION ( 'NONE',  ( -3.491481338843133355E-15, 1.224646799147353207E-16, -1.000000000000000000 ) ) ;
#255 = EDGE_CURVE ( 'NONE', #251, #96, #84, .T. ) ;
#256 = DIRECTION ( 'NONE',  ( 3.081487911019586561E-31, 1.000000000000000000, 8.673617379884061357E-17 ) ) ;
#257 = LOCAL_TIME ( 15, 38, 21.00000000000000000, #274 ) ;
#258 = DIRECTION ( 'NONE',  ( 1.903218546456022717E-15, 0.8571673007021097801, 0.5150380749100585964 ) ) ;
#259 = CARTESIAN_POINT ( 'NONE',  ( 4.643670180661366731E-13, 2.999519565323691131E-32, 133.0000000000000000 ) ) ;
#260 = EDGE_CURVE ( 'NONE', #182, #218, #202, .T. ) ;
#261 = DIRECTION ( 'NONE',  ( 0.0000000000000000000, 1.000000000000000000, 0.0000000000000000000 ) ) ;
#262 = DIRECTION ( 'NONE',  ( -4.275831445896958607E-31, -1.000000000000000000, -1.224646799147353207E-16 ) ) ;
#263 = CARTESIAN_POINT ( 'NONE',  ( 3.037588764793525640E-13, -1.065442715258197209E-14, 87.00000000000000000 ) ) ;
#264 = EDGE_LOOP ( 'NONE', ( #78, #12, #86, #199 ) ) ;
#265 = DIRECTION ( 'NONE',  ( 4.275831445896958607E-31, 1.000000000000000000, 1.224646799147353207E-16 ) ) ;
#266 = ORIENTED_EDGE ( 'NONE', *, *, #260, .T. ) ;
#267 = DIRECTION ( 'NONE',  ( 3.491481338843133355E-15, -1.224646799147353207E-16, 1.000000000000000000 ) ) ;
#268 = EDGE_LOOP ( 'NONE', ( #144, #216, #58, #239 ) ) ;
#269 = CIRCLE ( 'NONE', #325, 5.000000000000000888 ) ;
#270 = PERSON_AND_ORGANIZATION ( #224, #147 ) ;
#271 = APPROVAL_STATUS ( 'not_yet_approved' ) ;
#272 = APPROVAL_STATUS ( 'not_yet_approved' ) ;
#273 = VECTOR ( 'NONE', #178, 1000.000000000000000 ) ;
#274 = COORDINATED_UNIVERSAL_TIME_OFFSET ( 1, 0, .AHEAD. ) ;
#275 = DIRECTION ( 'NONE',  ( -3.491481338843133355E-15, 1.224646799147353207E-16, -1.000000000000000000 ) ) ;
#276 = AXIS2_PLACEMENT_3D ( 'NONE', #72, #185, #46 ) ;
#277 = LINE ( 'NONE', #97, #149 ) ;
#278 = AXIS2_PLACEMENT_3D ( 'NONE', #279, #38, #229 ) ;
#279 = CARTESIAN_POINT ( 'NONE',  ( 1.048946819290238411E-14, -3.679210169129023853E-16, 3.004303095137825341 ) ) ;
#280 = ORIENTED_EDGE ( 'NONE', *, *, #118, .F. ) ;
#281 = PLANE ( 'NONE',  #222 ) ;
#282 = DIRECTION ( 'NONE',  ( 0.0000000000000000000, 1.000000000000000000, 0.0000000000000000000 ) ) ;
#283 = PLANE ( 'NONE',  #161 ) ;
#284 = UNCERTAINTY_MEASURE_WITH_UNIT (LENGTH_MEASURE( 1.000000000000000082E-05 ), #225, 'distance_accuracy_value', 'NONE');
#285 = CYLINDRICAL_SURFACE ( 'NONE', #235, 4.999999999999997335 ) ;
#286 = LINE ( 'NONE', #210, #190 ) ;
#287 = LINE ( 'NONE', #52, #207 ) ;
#288 = EDGE_LOOP ( 'NONE', ( #155, #318 ) ) ;
#289 = EDGE_CURVE ( 'NONE', #140, #107, #287, .T. ) ;
#290 = CIRCLE ( 'NONE', #69, 4.000000000000000888 ) ;
#291 = ORIENTED_EDGE ( 'NONE', *, *, #18, .F. ) ;
#292 = DATE_TIME_ROLE ( 'creation_date' ) ;
#293 = COORDINATED_UNIVERSAL_TIME_OFFSET ( 1, 0, .AHEAD. ) ;
#294 = ADVANCED_FACE ( 'NONE', ( #55 ), #152, .T. ) ;
#295 = CC_DESIGN_APPROVAL ( #198, ( #44 ) ) ;
#296 =( NAMED_UNIT ( * ) PLANE_ANGLE_UNIT ( ) SI_UNIT ( $, .RADIAN. ) );
#297 = VERTEX_POINT ( 'NONE', #131 ) ;
#298 = DIRECTION ( 'NONE',  ( 0.0000000000000000000, 1.000000000000000000, 0.0000000000000000000 ) ) ;
#299 = AXIS2_PLACEMENT_3D ( 'NONE', #263, #98, #261 ) ;
#300 = APPROVAL ( #271, 'UNSPECIFIED' ) ;
#301 = DIRECTION ( 'NONE',  ( 3.081487911019586561E-31, 1.000000000000000000, 8.673617379884061357E-17 ) ) ;
#302 = CC_DESIGN_PERSON_AND_ORGANIZATION_ASSIGNMENT ( #111, #249, ( #57 ) ) ;
#303 = CLOSED_SHELL ( 'NONE', ( #179, #307, #227, #250, #60, #99 ) ) ;
#304 = DIRECTION ( 'NONE',  ( -3.491481338843133355E-15, 1.224646799147353207E-16, -1.000000000000000000 ) ) ;
#305 = CC_DESIGN_PERSON_AND_ORGANIZATION_ASSIGNMENT ( #219, #6, ( #57 ) ) ;
#306 = FACE_OUTER_BOUND ( 'NONE', #264, .T. ) ;
#307 = ADVANCED_FACE ( 'NONE', ( #240 ), #176, .T. ) ;
#308 = CARTESIAN_POINT ( 'NONE',  ( 3.829295300028966835E-13, -5.000000000000016875, 132.0000000000000000 ) ) ;
#309 = CARTESIAN_POINT ( 'NONE',  ( 4.643670180661366731E-13, -1.628780242865979995E-14, 133.0000000000000000 ) ) ;
#310 = PLANE ( 'NONE',  #127 ) ;
#311 = EDGE_LOOP ( 'NONE', ( #115, #230 ) ) ;
#312 = DIRECTION ( 'NONE',  ( -3.081487911019586561E-31, -1.000000000000000000, -8.673617379884061357E-17 ) ) ;
#313 = CC_DESIGN_PERSON_AND_ORGANIZATION_ASSIGNMENT ( #217, #59, ( #26 ) ) ;
#314 = EDGE_LOOP ( 'NONE', ( #168, #32, #189, #56 ) ) ;
#315 = CARTESIAN_POINT ( 'NONE',  ( 3.037588764793525640E-13, 3.749399456654624861E-32, 87.00000000000000000 ) ) ;
#316 = ORIENTED_EDGE ( 'NONE', *, *, #114, .F. ) ;
#317 = DATE_TIME_ROLE ( 'classification_date' ) ;
#318 = ORIENTED_EDGE ( 'NONE', *, *, #186, .F. ) ;
#319 = EDGE_CURVE ( 'NONE', #218, #182, #24, .T. ) ;
#320 = PERSON_AND_ORGANIZATION_ROLE ( 'classification_officer' ) ;
#321 = EDGE_LOOP ( 'NONE', ( #291, #266, #74, #5 ) ) ;
#322 = DATE_AND_TIME ( #61, #35 ) ;
#323 = APPROVAL_DATE_TIME ( #322, #300 ) ;
#324 = CC_DESIGN_SECURITY_CLASSIFICATION ( #44, ( #57 ) ) ;
#325 = AXIS2_PLACEMENT_3D ( 'NONE', #169, #252, #171 ) ;
#326 = DIRECTION ( 'NONE',  ( -3.491481338843133355E-15, 1.224646799147353207E-16, -1.000000000000000000 ) ) ;
#327 = CARTESIAN_POINT ( 'NONE',  ( 1.048946819290238253E-14, -4.999999999999984901, 3.004303095137824897 ) ) ;
#328 = CARTESIAN_POINT ( 'NONE',  ( 4.648568767857956137E-13, -4.000000000000017764, 133.0000000000000000 ) ) ;
#329 = AXIS2_PLACEMENT_3D ( 'NONE', #47, #153, #206 ) ;
#330 = CARTESIAN_POINT ( 'NONE',  ( 4.631723684563314841E-13, -4.000000000000017764, 133.0000000000000000 ) ) ;
#331 = FACE_OUTER_BOUND ( 'NONE', #37, .T. ) ;
#332 = DIRECTION ( 'NONE',  ( -3.491481338843133355E-15, 1.224646799147353207E-16, -1.000000000000000000 ) ) ;
#333 = AXIS2_PLACEMENT_3D ( 'NONE', #237, #180, #335 ) ;
#334 = FACE_OUTER_BOUND ( 'NONE', #268, .T. ) ;
#335 = DIRECTION ( 'NONE',  ( 0.0000000000000000000, 1.000000000000000000, 0.0000000000000000000 ) ) ;
#336 = DIRECTION ( 'NONE',  ( -3.491481338843133355E-15, 1.224646799147353207E-16, -1.000000000000000000 ) ) ;
#337 = ORIENTED_EDGE ( 'NONE', *, *, #319, .F. ) ;
ENDSEC;
END-ISO-10303-21;
