ISO-10303-21;
HEADER;
FILE_DESCRIPTION (( 'STEP AP203' ),
    '1' );
FILE_NAME ('54781.step',
    '2021-09-02T13:38:20',
    ( '' ),
    ( '' ),
    'SwSTEP 2.0',
    'SolidWorks 2019',
    '' );
FILE_SCHEMA (( 'CONFIG_CONTROL_DESIGN' ));
ENDSEC;

DATA;
#1 = EDGE_LOOP ( 'NONE', ( #235, #261, #186, #30 ) ) ;
#2 = AXIS2_PLACEMENT_3D ( 'NONE', #249, #38, #127 ) ;
#3 = DIRECTION ( 'NONE',  ( 0.0000000000000000000, 0.0000000000000000000, 1.000000000000000000 ) ) ;
#4 = ORIENTED_EDGE ( 'NONE', *, *, #129, .F. ) ;
#5 = ADVANCED_FACE ( 'NONE', ( #211 ), #183, .T. ) ;
#6 = CARTESIAN_POINT ( 'NONE',  ( 5.817072295949893899E-16, -4.749999999999988454, -5.817072295949934328E-16 ) ) ;
#7 = APPLICATION_CONTEXT ( 'configuration controlled 3d designs of mechanical parts and assemblies' ) ;
#8 = CALENDAR_DATE ( 2021, 2, 9 ) ;
#9 = ORIENTED_EDGE ( 'NONE', *, *, #47, .T. ) ;
#10 = COORDINATED_UNIVERSAL_TIME_OFFSET ( 1, 0, .AHEAD. ) ;
#11 = CARTESIAN_POINT ( 'NONE',  ( 4.364351673553916568E-13, 3.949999999999982858, 125.0000000000000000 ) ) ;
#12 = CC_DESIGN_APPROVAL ( #336, ( #277 ) ) ;
#13 = ADVANCED_BREP_SHAPE_REPRESENTATION ( '54781', ( #227, #225, #253 ), #57 ) ;
#14 = APPLICATION_PROTOCOL_DEFINITION ( 'international standard', 'config_control_design', 1994, #258 ) ;
#15 = DIRECTION ( 'NONE',  ( -3.491481338843133355E-15, 1.224646799147353207E-16, -1.000000000000000000 ) ) ;
#16 = CARTESIAN_POINT ( 'NONE',  ( 4.364351673553916568E-13, -1.530808498934191561E-14, 125.0000000000000000 ) ) ;
#17 = DIRECTION ( 'NONE',  ( -3.491481338843133355E-15, 1.224646799147353207E-16, -1.000000000000000000 ) ) ;
#18 = FACE_OUTER_BOUND ( 'NONE', #161, .T. ) ;
#19 = CARTESIAN_POINT ( 'NONE',  ( 1.054670201285225638E-14, 4.749999999999984013, 2.854087940380934274 ) ) ;
#20 = VERTEX_POINT ( 'NONE', #318 ) ;
#21 = ADVANCED_FACE ( 'NONE', ( #286 ), #218, .T. ) ;
#22 = ORIENTED_EDGE ( 'NONE', *, *, #88, .T. ) ;
#23 = EDGE_CURVE ( 'NONE', #56, #184, #147, .T. ) ;
#24 = ORIENTED_EDGE ( 'NONE', *, *, #96, .F. ) ;
#25 = CARTESIAN_POINT ( 'NONE',  ( 4.364351673553916568E-13, -1.530808498934191561E-14, 125.0000000000000000 ) ) ;
#26 = ADVANCED_FACE ( 'NONE', ( #248 ), #37, .F. ) ;
#27 = ORIENTED_EDGE ( 'NONE', *, *, #155, .T. ) ;
#28 = LINE ( 'NONE', #81, #319 ) ;
#29 = PERSON_AND_ORGANIZATION ( #72, #290 ) ;
#30 = ORIENTED_EDGE ( 'NONE', *, *, #155, .F. ) ;
#31 = PERSON_AND_ORGANIZATION ( #72, #290 ) ;
#32 = CARTESIAN_POINT ( 'NONE',  ( 4.364351673553916568E-13, 2.962025570757144417E-32, 125.0000000000000000 ) ) ;
#33 = CARTESIAN_POINT ( 'NONE',  ( 4.336419822843171501E-13, -1.521011324541012875E-14, 124.2000000000000028 ) ) ;
#34 = AXIS2_PLACEMENT_3D ( 'NONE', #240, #313, #80 ) ;
#35 = AXIS2_PLACEMENT_3D ( 'NONE', #99, #164, #196 ) ;
#36 = DIRECTION ( 'NONE',  ( -3.491481338843133355E-15, 1.224646799147353207E-16, -1.000000000000000000 ) ) ;
#37 = PLANE ( 'NONE',  #130 ) ;
#38 = DIRECTION ( 'NONE',  ( -3.491481338843133355E-15, 1.224646799147353207E-16, -1.000000000000000000 ) ) ;
#39 = CARTESIAN_POINT ( 'NONE',  ( 4.355712961774835051E-13, -3.950000000000014388, 125.0000000000000000 ) ) ;
#40 = ADVANCED_FACE ( 'NONE', ( #63 ), #118, .T. ) ;
#41 = CARTESIAN_POINT ( 'NONE',  ( 2.828099884462938396E-13, 4.749999999999984013, 81.00000000000000000 ) ) ;
#42 = PRODUCT_DEFINITION_FORMATION_WITH_SPECIFIED_SOURCE ( 'ANY', '', #123, .NOT_KNOWN. ) ;
#43 = FACE_OUTER_BOUND ( 'NONE', #238, .T. ) ;
#44 = VECTOR ( 'NONE', #223, 1000.000000000000000 ) ;
#45 = AXIS2_PLACEMENT_3D ( 'NONE', #251, #154, #287 ) ;
#46 = PERSON_AND_ORGANIZATION ( #72, #290 ) ;
#47 = EDGE_CURVE ( 'NONE', #56, #282, #303, .T. ) ;
#48 = VERTEX_POINT ( 'NONE', #220 ) ;
#49 = ORIENTED_EDGE ( 'NONE', *, *, #90, .F. ) ;
#50 = DESIGN_CONTEXT ( 'detailed design', #258, 'design' ) ;
#51 = APPROVAL_STATUS ( 'not_yet_approved' ) ;
#52 = DIRECTION ( 'NONE',  ( 3.491481338843133355E-15, -1.224646799147353207E-16, 1.000000000000000000 ) ) ;
#53 = LINE ( 'NONE', #6, #87 ) ;
#54 = APPLICATION_PROTOCOL_DEFINITION ( 'international standard', 'config_control_design', 1994, #7 ) ;
#55 = CLOSED_SHELL ( 'NONE', ( #328, #149, #146, #40, #5, #26 ) ) ;
#56 = VERTEX_POINT ( 'NONE', #11 ) ;
#57 =( GEOMETRIC_REPRESENTATION_CONTEXT ( 3 ) GLOBAL_UNCERTAINTY_ASSIGNED_CONTEXT ( ( #284 ) ) GLOBAL_UNIT_ASSIGNED_CONTEXT ( ( #294, #135, #190 ) ) REPRESENTATION_CONTEXT ( 'NONE', 'WORKASPACE' ) );
#58 = ORIENTED_EDGE ( 'NONE', *, *, #74, .F. ) ;
#59 = CC_DESIGN_PERSON_AND_ORGANIZATION_ASSIGNMENT ( #66, #94, ( #42 ) ) ;
#60 = PERSON_AND_ORGANIZATION ( #72, #290 ) ;
#61 = DIRECTION ( 'NONE',  ( -3.491481338843133355E-15, 1.224646799147353207E-16, -1.000000000000000000 ) ) ;
#62 = COORDINATED_UNIVERSAL_TIME_OFFSET ( 1, 0, .AHEAD. ) ;
#63 = FACE_OUTER_BOUND ( 'NONE', #1, .T. ) ;
#64 = LINE ( 'NONE', #299, #304 ) ;
#65 = CIRCLE ( 'NONE', #109, 4.749999999999993783 ) ;
#66 = PERSON_AND_ORGANIZATION ( #72, #290 ) ;
#67 = FACE_OUTER_BOUND ( 'NONE', #108, .T. ) ;
#68 = EDGE_CURVE ( 'NONE', #184, #134, #320, .T. ) ;
#69 = DIRECTION ( 'NONE',  ( 0.0000000000000000000, 1.000000000000000000, 0.0000000000000000000 ) ) ;
#70 = DIRECTION ( 'NONE',  ( -3.491481338843133355E-15, 1.224646799147353207E-16, -1.000000000000000000 ) ) ;
#71 = LOCAL_TIME ( 15, 38, 20.00000000000000000, #150 ) ;
#72 = PERSON ( 'UNSPECIFIED', 'UNSPECIFIED', 'UNSPECIFIED', ('UNSPECIFIED'), ('UNSPECIFIED'), ('UNSPECIFIED') ) ;
#73 = CIRCLE ( 'NONE', #325, 4.749999999999984013 ) ;
#74 = EDGE_CURVE ( 'NONE', #188, #184, #237, .T. ) ;
#75 = ORIENTED_EDGE ( 'NONE', *, *, #177, .T. ) ;
#76 = LOCAL_TIME ( 15, 38, 20.00000000000000000, #62 ) ;
#77 = ORIENTED_EDGE ( 'NONE', *, *, #181, .F. ) ;
#78 = ADVANCED_FACE ( 'NONE', ( #193 ), #293, .T. ) ;
#79 = PERSON_AND_ORGANIZATION ( #72, #290 ) ;
#80 = DIRECTION ( 'NONE',  ( 0.0000000000000000000, 1.000000000000000000, 0.0000000000000000000 ) ) ;
#81 = CARTESIAN_POINT ( 'NONE',  ( 4.369189028410548493E-13, -3.950000000000014388, 125.0000000000000000 ) ) ;
#82 = CYLINDRICAL_SURFACE ( 'NONE', #265, 4.749999999999988454 ) ;
#83 = DIRECTION ( 'NONE',  ( -3.243671485283776387E-31, -1.000000000000000000, -9.130123557772699149E-17 ) ) ;
#84 = CARTESIAN_POINT ( 'NONE',  ( 2.828099884462938396E-13, -9.919639073093561200E-15, 81.00000000000000000 ) ) ;
#85 = PERSON_AND_ORGANIZATION ( #72, #290 ) ;
#86 = EDGE_LOOP ( 'NONE', ( #160, #24 ) ) ;
#87 = VECTOR ( 'NONE', #274, 1000.000000000000000 ) ;
#88 = EDGE_CURVE ( 'NONE', #184, #188, #131, .T. ) ;
#89 = DATE_AND_TIME ( #115, #283 ) ;
#90 = EDGE_CURVE ( 'NONE', #337, #311, #246, .T. ) ;
#91 = DIRECTION ( 'NONE',  ( -3.491481338843133355E-15, 1.224646799147353207E-16, -1.000000000000000000 ) ) ;
#92 = CARTESIAN_POINT ( 'NONE',  ( 1.469691988443702671E-13, -4.750000000000003553, 81.00000000000000000 ) ) ;
#93 = DIRECTION ( 'NONE',  ( 4.275831445896958607E-31, 1.000000000000000000, 1.224646799147353207E-16 ) ) ;
#94 = PERSON_AND_ORGANIZATION_ROLE ( 'design_supplier' ) ;
#95 = DIRECTION ( 'NONE',  ( -3.491481338843133355E-15, 1.224646799147353207E-16, -1.000000000000000000 ) ) ;
#96 = EDGE_CURVE ( 'NONE', #330, #236, #152, .T. ) ;
#97 = VECTOR ( 'NONE', #17, 1000.000000000000000 ) ;
#98 = PRODUCT_DEFINITION_SHAPE ( 'NONE', 'NONE',  #139 ) ;
#99 = CARTESIAN_POINT ( 'NONE',  ( 9.964994783257262849E-15, -3.495249660672572168E-16, 2.854087940380933830 ) ) ;
#100 = LINE ( 'NONE', #224, #199 ) ;
#101 = APPROVAL ( #51, 'UNSPECIFIED' ) ;
#102 = EDGE_LOOP ( 'NONE', ( #289, #260, #217, #309 ) ) ;
#103 = COORDINATED_UNIVERSAL_TIME_OFFSET ( 1, 0, .AHEAD. ) ;
#104 = APPROVAL_DATE_TIME ( #281, #336 ) ;
#105 = ORIENTED_EDGE ( 'NONE', *, *, #23, .T. ) ;
#106 = CC_DESIGN_APPROVAL ( #101, ( #139 ) ) ;
#107 = EDGE_LOOP ( 'NONE', ( #4, #292, #105, #58 ) ) ;
#108 = EDGE_LOOP ( 'NONE', ( #49, #209, #191 ) ) ;
#109 = AXIS2_PLACEMENT_3D ( 'NONE', #187, #226, #69 ) ;
#110 = ORIENTED_EDGE ( 'NONE', *, *, #180, .F. ) ;
#111 = ORIENTED_EDGE ( 'NONE', *, *, #305, .T. ) ;
#112 = CARTESIAN_POINT ( 'NONE',  ( 5.817072295949904746E-16, -4.749999999999997335, -5.817072295949945175E-16 ) ) ;
#113 = APPROVAL_DATE_TIME ( #140, #101 ) ;
#114 = ORIENTED_EDGE ( 'NONE', *, *, #88, .F. ) ;
#115 = CALENDAR_DATE ( 2021, 2, 9 ) ;
#116 = DIRECTION ( 'NONE',  ( 0.0000000000000000000, 1.000000000000000000, 0.0000000000000000000 ) ) ;
#117 = AXIS2_PLACEMENT_3D ( 'NONE', #242, #61, #93 ) ;
#118 = CYLINDRICAL_SURFACE ( 'NONE', #229, 4.749999999999997335 ) ;
#119 = APPROVAL_ROLE ( '' ) ;
#120 = DIRECTION ( 'NONE',  ( -3.491481338843133355E-15, 1.224646799147353207E-16, -1.000000000000000000 ) ) ;
#121 = EDGE_CURVE ( 'NONE', #236, #330, #65, .T. ) ;
#122 = CARTESIAN_POINT ( 'NONE',  ( 0.0000000000000000000, 0.0000000000000000000, 0.0000000000000000000 ) ) ;
#123 = PRODUCT ( '54781', '54781', '', ( #194 ) ) ;
#124 = AXIS2_PLACEMENT_3D ( 'NONE', #122, #70, #326 ) ;
#125 = CARTESIAN_POINT ( 'NONE',  ( 4.336419822843171501E-13, 4.749999999999984013, 124.2000000000000028 ) ) ;
#126 = AXIS2_PLACEMENT_3D ( 'NONE', #174, #148, #254 ) ;
#127 = DIRECTION ( 'NONE',  ( 0.0000000000000000000, 1.000000000000000000, 0.0000000000000000000 ) ) ;
#128 = AXIS2_PLACEMENT_3D ( 'NONE', #25, #143, #162 ) ;
#129 = EDGE_CURVE ( 'NONE', #282, #188, #28, .T. ) ;
#130 = AXIS2_PLACEMENT_3D ( 'NONE', #32, #273, #142 ) ;
#131 = CIRCLE ( 'NONE', #178, 4.750000000000000000 ) ;
#132 = ORIENTED_EDGE ( 'NONE', *, *, #47, .F. ) ;
#133 = ORIENTED_EDGE ( 'NONE', *, *, #177, .F. ) ;
#134 = VERTEX_POINT ( 'NONE', #41 ) ;
#135 =( NAMED_UNIT ( * ) PLANE_ANGLE_UNIT ( ) SI_UNIT ( $, .RADIAN. ) );
#136 = CIRCLE ( 'NONE', #230, 3.949999999999998845 ) ;
#137 = ORIENTED_EDGE ( 'NONE', *, *, #234, .F. ) ;
#138 = CARTESIAN_POINT ( 'NONE',  ( 3.588076925949003795E-13, -4.750000000000015099, 124.2000000000000028 ) ) ;
#139 = PRODUCT_DEFINITION ( 'UNKNOWN', '', #42, #50 ) ;
#140 = DATE_AND_TIME ( #8, #76 ) ;
#141 = APPROVAL_STATUS ( 'not_yet_approved' ) ;
#142 = DIRECTION ( 'NONE',  ( 4.275831445896958607E-31, 1.000000000000000000, 1.224646799147353207E-16 ) ) ;
#143 = DIRECTION ( 'NONE',  ( -3.491481338843133355E-15, 1.224646799147353207E-16, -1.000000000000000000 ) ) ;
#144 = DIRECTION ( 'NONE',  ( 4.275831445896958607E-31, 1.000000000000000000, 1.224646799147353207E-16 ) ) ;
#145 = AXIS2_PLACEMENT_3D ( 'NONE', #175, #151, #301 ) ;
#146 = ADVANCED_FACE ( 'NONE', ( #43 ), #153, .F. ) ;
#147 = LINE ( 'NONE', #267, #276 ) ;
#148 = DIRECTION ( 'NONE',  ( 3.491481338843133355E-15, -1.224646799147353207E-16, 1.000000000000000000 ) ) ;
#149 = ADVANCED_FACE ( 'NONE', ( #18 ), #275, .T. ) ;
#150 = COORDINATED_UNIVERSAL_TIME_OFFSET ( 1, 0, .AHEAD. ) ;
#151 = DIRECTION ( 'NONE',  ( -3.491481338843133355E-15, 1.224646799147353207E-16, -1.000000000000000000 ) ) ;
#152 = CIRCLE ( 'NONE', #145, 4.749999999999993783 ) ;
#153 = PLANE ( 'NONE',  #126 ) ;
#154 = DIRECTION ( 'NONE',  ( 3.491481338843133355E-15, -1.224646799147353207E-16, 1.000000000000000000 ) ) ;
#155 = EDGE_CURVE ( 'NONE', #20, #134, #298, .T. ) ;
#156 = CALENDAR_DATE ( 2021, 2, 9 ) ;
#157 = AXIS2_PLACEMENT_3D ( 'NONE', #33, #120, #323 ) ;
#158 = CALENDAR_DATE ( 2021, 2, 9 ) ;
#159 = LOCAL_TIME ( 15, 38, 20.00000000000000000, #103 ) ;
#160 = ORIENTED_EDGE ( 'NONE', *, *, #121, .F. ) ;
#161 = EDGE_LOOP ( 'NONE', ( #22, #285, #133, #266 ) ) ;
#162 = DIRECTION ( 'NONE',  ( 0.0000000000000000000, 1.000000000000000000, 0.0000000000000000000 ) ) ;
#163 = ORIENTED_EDGE ( 'NONE', *, *, #23, .F. ) ;
#164 = DIRECTION ( 'NONE',  ( 3.491481338843133355E-15, -1.224646799147353207E-16, 1.000000000000000000 ) ) ;
#165 = FACE_OUTER_BOUND ( 'NONE', #166, .T. ) ;
#166 = EDGE_LOOP ( 'NONE', ( #214, #208, #335, #77 ) ) ;
#167 = EDGE_LOOP ( 'NONE', ( #132, #110 ) ) ;
#168 = PERSON_AND_ORGANIZATION_ROLE ( 'creator' ) ;
#169 = CARTESIAN_POINT ( 'NONE',  ( 4.336419822843171501E-13, -1.521011324541012875E-14, 124.2000000000000028 ) ) ;
#170 = PERSON_AND_ORGANIZATION_ROLE ( 'creator' ) ;
#171 = CARTESIAN_POINT ( 'NONE',  ( 4.364351673553916568E-13, -1.530808498934191561E-14, 125.0000000000000000 ) ) ;
#172 = APPROVAL_PERSON_ORGANIZATION ( #31, #101, #119 ) ;
#173 = LINE ( 'NONE', #112, #97 ) ;
#174 = CARTESIAN_POINT ( 'NONE',  ( 2.828099884462938396E-13, 3.561929483821892934E-32, 81.00000000000000000 ) ) ;
#175 = CARTESIAN_POINT ( 'NONE',  ( 2.828099884462938396E-13, -9.919639073093561200E-15, 81.00000000000000000 ) ) ;
#176 = CC_DESIGN_PERSON_AND_ORGANIZATION_ASSIGNMENT ( #79, #170, ( #139 ) ) ;
#177 = EDGE_CURVE ( 'NONE', #134, #20, #334, .T. ) ;
#178 = AXIS2_PLACEMENT_3D ( 'NONE', #169, #221, #270 ) ;
#179 = PLANE ( 'NONE',  #45 ) ;
#180 = EDGE_CURVE ( 'NONE', #282, #56, #136, .T. ) ;
#181 = EDGE_CURVE ( 'NONE', #236, #311, #100, .T. ) ;
#182 = EDGE_LOOP ( 'NONE', ( #9, #310, #114, #163 ) ) ;
#183 = CONICAL_SURFACE ( 'NONE', #34, 3.949999999999998845, 0.7853981633974520538 ) ;
#184 = VERTEX_POINT ( 'NONE', #125 ) ;
#185 = CARTESIAN_POINT ( 'NONE',  ( 0.0000000000000000000, 0.0000000000000000000, 0.0000000000000000000 ) ) ;
#186 = ORIENTED_EDGE ( 'NONE', *, *, #68, .T. ) ;
#187 = CARTESIAN_POINT ( 'NONE',  ( 2.828099884462938396E-13, -9.919639073093561200E-15, 81.00000000000000000 ) ) ;
#188 = VERTEX_POINT ( 'NONE', #138 ) ;
#189 = LOCAL_TIME ( 15, 38, 20.00000000000000000, #216 ) ;
#190 =( NAMED_UNIT ( * ) SI_UNIT ( $, .STERADIAN. ) SOLID_ANGLE_UNIT ( ) );
#191 = ORIENTED_EDGE ( 'NONE', *, *, #204, .T. ) ;
#192 = APPROVAL_DATE_TIME ( #89, #291 ) ;
#193 = FACE_OUTER_BOUND ( 'NONE', #102, .T. ) ;
#194 = MECHANICAL_CONTEXT ( 'NONE', #7, 'mechanical' ) ;
#195 = DIRECTION ( 'NONE',  ( -2.468850131082255877E-15, 0.7071067811865502373, -0.7071067811865447972 ) ) ;
#196 = DIRECTION ( 'NONE',  ( -3.243671485283776387E-31, -1.000000000000000000, -9.130123557772699149E-17 ) ) ;
#197 = PERSON_AND_ORGANIZATION_ROLE ( 'classification_officer' ) ;
#198 = AXIS2_PLACEMENT_3D ( 'NONE', #171, #15, #116 ) ;
#199 = VECTOR ( 'NONE', #264, 1000.000000000000000 ) ;
#200 = DIRECTION ( 'NONE',  ( 3.243671485283776387E-31, 1.000000000000000000, 9.130123557772699149E-17 ) ) ;
#201 = DIRECTION ( 'NONE',  ( 3.243671485283776387E-31, 1.000000000000000000, 9.130123557772699149E-17 ) ) ;
#202 = CC_DESIGN_PERSON_AND_ORGANIZATION_ASSIGNMENT ( #29, #247, ( #123 ) ) ;
#203 = FACE_OUTER_BOUND ( 'NONE', #86, .T. ) ;
#204 = EDGE_CURVE ( 'NONE', #48, #311, #206, .T. ) ;
#205 = ORIENTED_EDGE ( 'NONE', *, *, #90, .T. ) ;
#206 = CIRCLE ( 'NONE', #219, 4.749999999999984013 ) ;
#207 = ADVANCED_FACE ( 'NONE', ( #203 ), #179, .T. ) ;
#208 = ORIENTED_EDGE ( 'NONE', *, *, #268, .T. ) ;
#209 = ORIENTED_EDGE ( 'NONE', *, *, #234, .T. ) ;
#210 = AXIS2_PLACEMENT_3D ( 'NONE', #315, #52, #83 ) ;
#211 = FACE_OUTER_BOUND ( 'NONE', #107, .T. ) ;
#212 = DIRECTION ( 'NONE',  ( 1.798245827342160317E-15, -0.8571673007021098911, 0.5150380749100582634 ) ) ;
#213 = CARTESIAN_POINT ( 'NONE',  ( 0.0000000000000000000, 0.0000000000000000000, 0.0000000000000000000 ) ) ;
#214 = ORIENTED_EDGE ( 'NONE', *, *, #121, .T. ) ;
#215 = CARTESIAN_POINT ( 'NONE',  ( 9.964994783257262849E-15, -3.495249660672572168E-16, 2.854087940380933830 ) ) ;
#216 = COORDINATED_UNIVERSAL_TIME_OFFSET ( 1, 0, .AHEAD. ) ;
#217 = ORIENTED_EDGE ( 'NONE', *, *, #181, .T. ) ;
#218 = CONICAL_SURFACE ( 'NONE', #210, 4.749999999999984013, 1.029744258676649649 ) ;
#219 = AXIS2_PLACEMENT_3D ( 'NONE', #324, #95, #200 ) ;
#220 = CARTESIAN_POINT ( 'NONE',  ( 9.964994783257261271E-15, -4.749999999999984013, 2.854087940380933386 ) ) ;
#221 = DIRECTION ( 'NONE',  ( -3.491481338843133355E-15, 1.224646799147353207E-16, -1.000000000000000000 ) ) ;
#222 = SECURITY_CLASSIFICATION_LEVEL ( 'unclassified' ) ;
#223 = DIRECTION ( 'NONE',  ( -3.491481338843133355E-15, 1.224646799147353207E-16, -1.000000000000000000 ) ) ;
#224 = CARTESIAN_POINT ( 'NONE',  ( 2.031019936801050302E-30, 4.749999999999988454, 5.817072295949913621E-16 ) ) ;
#225 = MANIFOLD_SOLID_BREP ( 'Corps-Déplacer/Copier1[2]', #252 ) ;
#226 = DIRECTION ( 'NONE',  ( -3.491481338843133355E-15, 1.224646799147353207E-16, -1.000000000000000000 ) ) ;
#227 = MANIFOLD_SOLID_BREP ( 'Corps-Déplacer/Copier1[1]', #55 ) ;
#228 = DIRECTION ( 'NONE',  ( 0.0000000000000000000, 1.000000000000000000, 0.0000000000000000000 ) ) ;
#229 = AXIS2_PLACEMENT_3D ( 'NONE', #295, #91, #144 ) ;
#230 = AXIS2_PLACEMENT_3D ( 'NONE', #16, #296, #228 ) ;
#231 = APPROVAL_ROLE ( '' ) ;
#232 = CC_DESIGN_PERSON_AND_ORGANIZATION_ASSIGNMENT ( #60, #168, ( #42 ) ) ;
#233 = CC_DESIGN_APPROVAL ( #291, ( #42 ) ) ;
#234 = EDGE_CURVE ( 'NONE', #337, #48, #64, .T. ) ;
#235 = ORIENTED_EDGE ( 'NONE', *, *, #297, .F. ) ;
#236 = VERTEX_POINT ( 'NONE', #314 ) ;
#237 = CIRCLE ( 'NONE', #157, 4.750000000000000000 ) ;
#238 = EDGE_LOOP ( 'NONE', ( #75, #27 ) ) ;
#239 = DIRECTION ( 'NONE',  ( 1.903218546456022717E-15, 0.8571673007021097801, 0.5150380749100585964 ) ) ;
#240 = CARTESIAN_POINT ( 'NONE',  ( 4.364351673553916568E-13, -1.530808498934191561E-14, 125.0000000000000000 ) ) ;
#241 = APPROVAL_ROLE ( '' ) ;
#242 = CARTESIAN_POINT ( 'NONE',  ( 0.0000000000000000000, 0.0000000000000000000, 0.0000000000000000000 ) ) ;
#243 = CC_DESIGN_PERSON_AND_ORGANIZATION_ASSIGNMENT ( #46, #197, ( #277 ) ) ;
#244 = ADVANCED_FACE ( 'NONE', ( #67 ), #280, .T. ) ;
#245 = FACE_OUTER_BOUND ( 'NONE', #182, .T. ) ;
#246 = LINE ( 'NONE', #19, #257 ) ;
#247 = PERSON_AND_ORGANIZATION_ROLE ( 'design_owner' ) ;
#248 = FACE_OUTER_BOUND ( 'NONE', #167, .T. ) ;
#249 = CARTESIAN_POINT ( 'NONE',  ( 2.828099884462938396E-13, -9.919639073093561200E-15, 81.00000000000000000 ) ) ;
#250 = DATE_AND_TIME ( #158, #71 ) ;
#251 = CARTESIAN_POINT ( 'NONE',  ( 2.828099884462938396E-13, 3.561929483821892934E-32, 81.00000000000000000 ) ) ;
#252 = CLOSED_SHELL ( 'NONE', ( #332, #21, #244, #78, #207 ) ) ;
#253 = AXIS2_PLACEMENT_3D ( 'NONE', #185, #3, #269 ) ;
#254 = DIRECTION ( 'NONE',  ( -4.275831445896958607E-31, -1.000000000000000000, -1.224646799147353207E-16 ) ) ;
#255 = DIRECTION ( 'NONE',  ( -3.491481338843133355E-15, 1.224646799147353207E-16, -1.000000000000000000 ) ) ;
#256 = PRODUCT_RELATED_PRODUCT_CATEGORY ( 'detail', '', ( #123 ) ) ;
#257 = VECTOR ( 'NONE', #239, 999.9999999999998863 ) ;
#258 = APPLICATION_CONTEXT ( 'configuration controlled 3d designs of mechanical parts and assemblies' ) ;
#259 = APPROVAL_PERSON_ORGANIZATION ( #279, #336, #231 ) ;
#260 = ORIENTED_EDGE ( 'NONE', *, *, #96, .T. ) ;
#261 = ORIENTED_EDGE ( 'NONE', *, *, #74, .T. ) ;
#262 = DIRECTION ( 'NONE',  ( 4.275831445896958607E-31, 1.000000000000000000, 1.224646799147353207E-16 ) ) ;
#263 = EDGE_LOOP ( 'NONE', ( #137, #205, #111 ) ) ;
#264 = DIRECTION ( 'NONE',  ( -3.491481338843133355E-15, 1.224646799147353207E-16, -1.000000000000000000 ) ) ;
#265 = AXIS2_PLACEMENT_3D ( 'NONE', #288, #36, #262 ) ;
#266 = ORIENTED_EDGE ( 'NONE', *, *, #68, .F. ) ;
#267 = CARTESIAN_POINT ( 'NONE',  ( 4.364351673553916568E-13, 3.949999999999982858, 125.0000000000000000 ) ) ;
#268 = EDGE_CURVE ( 'NONE', #330, #48, #53, .T. ) ;
#269 = DIRECTION ( 'NONE',  ( 1.000000000000000000, 0.0000000000000000000, 0.0000000000000000000 ) ) ;
#270 = DIRECTION ( 'NONE',  ( 0.0000000000000000000, 1.000000000000000000, 0.0000000000000000000 ) ) ;
#271 = APPROVAL_PERSON_ORGANIZATION ( #85, #291, #241 ) ;
#272 = CALENDAR_DATE ( 2021, 2, 9 ) ;
#273 = DIRECTION ( 'NONE',  ( -3.491481338843133355E-15, 1.224646799147353207E-16, -1.000000000000000000 ) ) ;
#274 = DIRECTION ( 'NONE',  ( -3.491481338843133355E-15, 1.224646799147353207E-16, -1.000000000000000000 ) ) ;
#275 = CYLINDRICAL_SURFACE ( 'NONE', #124, 4.749999999999997335 ) ;
#276 = VECTOR ( 'NONE', #195, 1000.000000000000000 ) ;
#277 = SECURITY_CLASSIFICATION ( '', '', #222 ) ;
#278 = DIRECTION ( 'NONE',  ( -2.382254525458706820E-15, -0.7071067811865500152, -0.7071067811865450192 ) ) ;
#279 = PERSON_AND_ORGANIZATION ( #72, #290 ) ;
#280 = CONICAL_SURFACE ( 'NONE', #35, 4.749999999999984013, 1.029744258676649649 ) ;
#281 = DATE_AND_TIME ( #156, #159 ) ;
#282 = VERTEX_POINT ( 'NONE', #39 ) ;
#283 = LOCAL_TIME ( 15, 38, 20.00000000000000000, #10 ) ;
#284 = UNCERTAINTY_MEASURE_WITH_UNIT (LENGTH_MEASURE( 1.000000000000000082E-05 ), #294, 'distance_accuracy_value', 'NONE');
#285 = ORIENTED_EDGE ( 'NONE', *, *, #297, .T. ) ;
#286 = FACE_OUTER_BOUND ( 'NONE', #263, .T. ) ;
#287 = DIRECTION ( 'NONE',  ( -4.275831445896958607E-31, -1.000000000000000000, -1.224646799147353207E-16 ) ) ;
#288 = CARTESIAN_POINT ( 'NONE',  ( 0.0000000000000000000, 0.0000000000000000000, 0.0000000000000000000 ) ) ;
#289 = ORIENTED_EDGE ( 'NONE', *, *, #268, .F. ) ;
#290 = ORGANIZATION ( 'UNSPECIFIED', 'UNSPECIFIED', '' ) ;
#291 = APPROVAL ( #141, 'UNSPECIFIED' ) ;
#292 = ORIENTED_EDGE ( 'NONE', *, *, #180, .T. ) ;
#293 = CYLINDRICAL_SURFACE ( 'NONE', #117, 4.749999999999988454 ) ;
#294 =( LENGTH_UNIT ( ) NAMED_UNIT ( * ) SI_UNIT ( .MILLI., .METRE. ) );
#295 = CARTESIAN_POINT ( 'NONE',  ( 0.0000000000000000000, 0.0000000000000000000, 0.0000000000000000000 ) ) ;
#296 = DIRECTION ( 'NONE',  ( -3.491481338843133355E-15, 1.224646799147353207E-16, -1.000000000000000000 ) ) ;
#297 = EDGE_CURVE ( 'NONE', #188, #20, #173, .T. ) ;
#298 = CIRCLE ( 'NONE', #307, 4.749999999999993783 ) ;
#299 = CARTESIAN_POINT ( 'NONE',  ( 9.964994783257261271E-15, -4.749999999999984013, 2.854087940380933386 ) ) ;
#300 = CARTESIAN_POINT ( 'NONE',  ( 1.054670201285225638E-14, 4.749999999999984013, 2.854087940380934274 ) ) ;
#301 = DIRECTION ( 'NONE',  ( 0.0000000000000000000, 1.000000000000000000, 0.0000000000000000000 ) ) ;
#302 = CC_DESIGN_DATE_AND_TIME_ASSIGNMENT ( #312, #317, ( #139 ) ) ;
#303 = CIRCLE ( 'NONE', #198, 3.949999999999998845 ) ;
#304 = VECTOR ( 'NONE', #212, 1000.000000000000000 ) ;
#305 = EDGE_CURVE ( 'NONE', #311, #48, #73, .T. ) ;
#306 = SHAPE_DEFINITION_REPRESENTATION ( #98, #13 ) ;
#307 = AXIS2_PLACEMENT_3D ( 'NONE', #84, #255, #327 ) ;
#308 = CONICAL_SURFACE ( 'NONE', #128, 3.949999999999998845, 0.7853981633974520538 ) ;
#309 = ORIENTED_EDGE ( 'NONE', *, *, #204, .F. ) ;
#310 = ORIENTED_EDGE ( 'NONE', *, *, #129, .T. ) ;
#311 = VERTEX_POINT ( 'NONE', #300 ) ;
#312 = DATE_AND_TIME ( #272, #189 ) ;
#313 = DIRECTION ( 'NONE',  ( -3.491481338843133355E-15, 1.224646799147353207E-16, -1.000000000000000000 ) ) ;
#314 = CARTESIAN_POINT ( 'NONE',  ( 2.828099884462938396E-13, 4.749999999999984013, 81.00000000000000000 ) ) ;
#315 = CARTESIAN_POINT ( 'NONE',  ( 9.964994783257262849E-15, -3.495249660672572168E-16, 2.854087940380933830 ) ) ;
#316 = DIRECTION ( 'NONE',  ( -3.491481338843133355E-15, 1.224646799147353207E-16, -1.000000000000000000 ) ) ;
#317 = DATE_TIME_ROLE ( 'creation_date' ) ;
#318 = CARTESIAN_POINT ( 'NONE',  ( 3.588076925949004805E-13, -4.750000000000003553, 81.00000000000000000 ) ) ;
#319 = VECTOR ( 'NONE', #278, 1000.000000000000000 ) ;
#320 = LINE ( 'NONE', #321, #44 ) ;
#321 = CARTESIAN_POINT ( 'NONE',  ( 2.031019936801054156E-30, 4.749999999999997335, 5.817072295949924468E-16 ) ) ;
#322 = CC_DESIGN_DATE_AND_TIME_ASSIGNMENT ( #250, #333, ( #277 ) ) ;
#323 = DIRECTION ( 'NONE',  ( 0.0000000000000000000, 1.000000000000000000, 0.0000000000000000000 ) ) ;
#324 = CARTESIAN_POINT ( 'NONE',  ( 9.964994783257262849E-15, -3.495249660672572168E-16, 2.854087940380933830 ) ) ;
#325 = AXIS2_PLACEMENT_3D ( 'NONE', #215, #316, #201 ) ;
#326 = DIRECTION ( 'NONE',  ( 4.275831445896958607E-31, 1.000000000000000000, 1.224646799147353207E-16 ) ) ;
#327 = DIRECTION ( 'NONE',  ( 0.0000000000000000000, 1.000000000000000000, 0.0000000000000000000 ) ) ;
#328 = ADVANCED_FACE ( 'NONE', ( #245 ), #308, .T. ) ;
#329 = CC_DESIGN_SECURITY_CLASSIFICATION ( #277, ( #42 ) ) ;
#330 = VERTEX_POINT ( 'NONE', #92 ) ;
#331 = APPROVAL_STATUS ( 'not_yet_approved' ) ;
#332 = ADVANCED_FACE ( 'NONE', ( #165 ), #82, .T. ) ;
#333 = DATE_TIME_ROLE ( 'classification_date' ) ;
#334 = CIRCLE ( 'NONE', #2, 4.749999999999993783 ) ;
#335 = ORIENTED_EDGE ( 'NONE', *, *, #305, .F. ) ;
#336 = APPROVAL ( #331, 'UNSPECIFIED' ) ;
#337 = VERTEX_POINT ( 'NONE', #213 ) ;
ENDSEC;
END-ISO-10303-21;
