ISO-10303-21;
HEADER;
FILE_DESCRIPTION (( 'STEP AP203' ),
    '1' );
FILE_NAME ('54655.step',
    '2021-09-03T07:55:19',
    ( '' ),
    ( '' ),
    'SwSTEP 2.0',
    'SolidWorks 2019',
    '' );
FILE_SCHEMA (( 'CONFIG_CONTROL_DESIGN' ));
ENDSEC;

DATA;
#1 = CALENDAR_DATE ( 2021, 3, 9 ) ;
#2 = APPROVAL_DATE_TIME ( #291, #140 ) ;
#3 = EDGE_LOOP ( 'NONE', ( #88, #212 ) ) ;
#4 = SECURITY_CLASSIFICATION_LEVEL ( 'unclassified' ) ;
#5 = VERTEX_POINT ( 'NONE', #165 ) ;
#6 = AXIS2_PLACEMENT_3D ( 'NONE', #231, #209, #22 ) ;
#7 = AXIS2_PLACEMENT_3D ( 'NONE', #170, #164, #211 ) ;
#8 = VERTEX_POINT ( 'NONE', #116 ) ;
#9 = ADVANCED_FACE ( 'NONE', ( #218 ), #112, .T. ) ;
#10 = APPROVAL_STATUS ( 'not_yet_approved' ) ;
#11 = ORIENTED_EDGE ( 'NONE', *, *, #107, .T. ) ;
#12 = EDGE_LOOP ( 'NONE', ( #36, #33, #56, #237 ) ) ;
#13 = AXIS2_PLACEMENT_3D ( 'NONE', #303, #278, #78 ) ;
#14 = LINE ( 'NONE', #150, #322 ) ;
#15 = UNCERTAINTY_MEASURE_WITH_UNIT (LENGTH_MEASURE( 1.000000000000000082E-05 ), #311, 'distance_accuracy_value', 'NONE');
#16 = DIRECTION ( 'NONE',  ( 0.0000000000000000000, 1.000000000000000000, 0.0000000000000000000 ) ) ;
#17 = FACE_OUTER_BOUND ( 'NONE', #38, .T. ) ;
#18 = FACE_OUTER_BOUND ( 'NONE', #136, .T. ) ;
#19 = DIRECTION ( 'NONE',  ( -4.402125587170832814E-31, -1.000000000000000000, -1.239088197126293036E-16 ) ) ;
#20 = MANIFOLD_SOLID_BREP ( 'Corps-Déplacer/Copier1[2]', #266 ) ;
#21 = CARTESIAN_POINT ( 'NONE',  ( 3.743232913357036420E-13, -6.000000000000013323, 107.0000000000000000 ) ) ;
#22 = DIRECTION ( 'NONE',  ( 0.0000000000000000000, 1.000000000000000000, 0.0000000000000000000 ) ) ;
#23 = CARTESIAN_POINT ( 'NONE',  ( 3.735885032562152816E-13, -1.310372075087667979E-14, 107.0000000000000000 ) ) ;
#24 = DIRECTION ( 'NONE',  ( 3.491481338843133355E-15, -1.224646799147353207E-16, 1.000000000000000000 ) ) ;
#25 = DIRECTION ( 'NONE',  ( -2.382254525458717469E-15, -0.7071067811865471286, -0.7071067811865479058 ) ) ;
#26 = AXIS2_PLACEMENT_3D ( 'NONE', #221, #44, #95 ) ;
#27 = LOCAL_TIME ( 9, 55, 19.00000000000000000, #35 ) ;
#28 = PERSON_AND_ORGANIZATION ( #137, #305 ) ;
#29 = ORIENTED_EDGE ( 'NONE', *, *, #325, .F. ) ;
#30 = COORDINATED_UNIVERSAL_TIME_OFFSET ( 1, 0, .AHEAD. ) ;
#31 = VERTEX_POINT ( 'NONE', #43 ) ;
#32 = APPROVAL_ROLE ( '' ) ;
#33 = ORIENTED_EDGE ( 'NONE', *, *, #312, .T. ) ;
#34 = VECTOR ( 'NONE', #47, 1000.000000000000114 ) ;
#35 = COORDINATED_UNIVERSAL_TIME_OFFSET ( 1, 0, .AHEAD. ) ;
#36 = ORIENTED_EDGE ( 'NONE', *, *, #107, .F. ) ;
#37 = EDGE_CURVE ( 'NONE', #259, #290, #174, .T. ) ;
#38 = EDGE_LOOP ( 'NONE', ( #111, #317, #295 ) ) ;
#39 = CARTESIAN_POINT ( 'NONE',  ( 3.700970219173721104E-13, -1.298125607096194306E-14, 106.0000000000000000 ) ) ;
#40 = AXIS2_PLACEMENT_3D ( 'NONE', #122, #323, #96 ) ;
#41 = CC_DESIGN_APPROVAL ( #238, ( #334 ) ) ;
#42 = PRODUCT_DEFINITION_SHAPE ( 'NONE', 'NONE',  #203 ) ;
#43 = CARTESIAN_POINT ( 'NONE',  ( 3.726387830062394619E-13, -6.000000000000013323, 107.0000000000000000 ) ) ;
#44 = DIRECTION ( 'NONE',  ( 3.491481338843133355E-15, -1.224646799147353207E-16, 1.000000000000000000 ) ) ;
#45 = CARTESIAN_POINT ( 'NONE',  ( 1.291848095371959215E-13, -4.531193156845206793E-15, 37.00000000000000000 ) ) ;
#46 = AXIS2_PLACEMENT_3D ( 'NONE', #329, #195, #302 ) ;
#47 = DIRECTION ( 'NONE',  ( 1.903218546456021928E-15, 0.8571673007021098911, 0.5150380749100583744 ) ) ;
#48 = ADVANCED_FACE ( 'NONE', ( #17 ), #337, .T. ) ;
#49 = DIRECTION ( 'NONE',  ( -3.491481338843133355E-15, 1.224646799147353207E-16, -1.000000000000000000 ) ) ;
#50 = DIRECTION ( 'NONE',  ( 4.275831445896958607E-31, 1.000000000000000000, 1.224646799147353207E-16 ) ) ;
#51 = DESIGN_CONTEXT ( 'detailed design', #144, 'design' ) ;
#52 = CIRCLE ( 'NONE', #232, 7.000000000000000000 ) ;
#53 = CC_DESIGN_SECURITY_CLASSIFICATION ( #72, ( #334 ) ) ;
#54 = ADVANCED_FACE ( 'NONE', ( #197 ), #71, .T. ) ;
#55 = DIRECTION ( 'NONE',  ( 1.798245827342159528E-15, -0.8571673007021100021, 0.5150380749100580413 ) ) ;
#56 = ORIENTED_EDGE ( 'NONE', *, *, #178, .T. ) ;
#57 = AXIS2_PLACEMENT_3D ( 'NONE', #182, #49, #156 ) ;
#58 = APPLICATION_PROTOCOL_DEFINITION ( 'international standard', 'config_control_design', 1994, #144 ) ;
#59 = ORIENTED_EDGE ( 'NONE', *, *, #106, .T. ) ;
#60 = APPROVAL_STATUS ( 'not_yet_approved' ) ;
#61 = ORIENTED_EDGE ( 'NONE', *, *, #69, .T. ) ;
#62 = MECHANICAL_CONTEXT ( 'NONE', #175, 'mechanical' ) ;
#63 = VERTEX_POINT ( 'NONE', #124 ) ;
#64 = EDGE_CURVE ( 'NONE', #263, #139, #152, .T. ) ;
#65 = VECTOR ( 'NONE', #155, 1000.000000000000000 ) ;
#66 = COORDINATED_UNIVERSAL_TIME_OFFSET ( 1, 0, .AHEAD. ) ;
#67 = ORIENTED_EDGE ( 'NONE', *, *, #289, .F. ) ;
#68 = CARTESIAN_POINT ( 'NONE',  ( 8.572527594031437691E-16, -6.999999999999995559, -8.572527594031496856E-16 ) ) ;
#69 = EDGE_CURVE ( 'NONE', #5, #285, #277, .T. ) ;
#70 = EDGE_CURVE ( 'NONE', #8, #243, #298, .T. ) ;
#71 = CYLINDRICAL_SURFACE ( 'NONE', #228, 6.999999999999989342 ) ;
#72 = SECURITY_CLASSIFICATION ( '', '', #4 ) ;
#73 = DIRECTION ( 'NONE',  ( -2.468850131082266527E-15, 0.7071067811865473507, -0.7071067811865477948 ) ) ;
#74 = DIRECTION ( 'NONE',  ( -3.491481338843133355E-15, 1.224646799147353207E-16, -1.000000000000000000 ) ) ;
#75 = CC_DESIGN_PERSON_AND_ORGANIZATION_ASSIGNMENT ( #28, #135, ( #203 ) ) ;
#76 = DIRECTION ( 'NONE',  ( 0.0000000000000000000, 1.000000000000000000, 0.0000000000000000000 ) ) ;
#77 = CIRCLE ( 'NONE', #158, 6.999999999999991118 ) ;
#78 = DIRECTION ( 'NONE',  ( -4.275831445896958607E-31, -1.000000000000000000, -1.224646799147353207E-16 ) ) ;
#79 = CYLINDRICAL_SURFACE ( 'NONE', #198, 6.999999999999995559 ) ;
#80 = CIRCLE ( 'NONE', #257, 6.999999999999991118 ) ;
#81 = DIRECTION ( 'NONE',  ( -3.491481338843133355E-15, 1.224646799147353207E-16, -1.000000000000000000 ) ) ;
#82 = SHAPE_DEFINITION_REPRESENTATION ( #42, #333 ) ;
#83 = CARTESIAN_POINT ( 'NONE',  ( 3.735885032562152816E-13, -1.310372075087667979E-14, 107.0000000000000000 ) ) ;
#84 = PERSON_AND_ORGANIZATION ( #137, #305 ) ;
#85 = DIRECTION ( 'NONE',  ( -3.491481338843133355E-15, 1.224646799147353207E-16, -1.000000000000000000 ) ) ;
#86 = AXIS2_PLACEMENT_3D ( 'NONE', #23, #253, #101 ) ;
#87 = APPROVAL_DATE_TIME ( #110, #227 ) ;
#88 = ORIENTED_EDGE ( 'NONE', *, *, #70, .F. ) ;
#89 = ADVANCED_FACE ( 'NONE', ( #250 ), #246, .T. ) ;
#90 = EDGE_CURVE ( 'NONE', #259, #263, #52, .T. ) ;
#91 = EDGE_LOOP ( 'NONE', ( #271, #143, #292, #117 ) ) ;
#92 = ORIENTED_EDGE ( 'NONE', *, *, #132, .F. ) ;
#93 = AXIS2_PLACEMENT_3D ( 'NONE', #147, #276, #273 ) ;
#94 = DIRECTION ( 'NONE',  ( 4.402125587170832814E-31, 1.000000000000000000, 1.239088197126293036E-16 ) ) ;
#95 = DIRECTION ( 'NONE',  ( -4.275831445896958607E-31, -1.000000000000000000, -1.224646799147353207E-16 ) ) ;
#96 = DIRECTION ( 'NONE',  ( 0.0000000000000000000, 1.000000000000000000, 0.0000000000000000000 ) ) ;
#97 = CC_DESIGN_PERSON_AND_ORGANIZATION_ASSIGNMENT ( #134, #236, ( #72 ) ) ;
#98 = DIRECTION ( 'NONE',  ( 0.0000000000000000000, 1.000000000000000000, 0.0000000000000000000 ) ) ;
#99 = DIRECTION ( 'NONE',  ( -3.491481338843133355E-15, 1.224646799147353207E-16, -1.000000000000000000 ) ) ;
#100 = CARTESIAN_POINT ( 'NONE',  ( 2.504981684866870105E-13, -7.000000000000014211, 106.0000000000000000 ) ) ;
#101 = DIRECTION ( 'NONE',  ( 0.0000000000000000000, 1.000000000000000000, 0.0000000000000000000 ) ) ;
#102 = CARTESIAN_POINT ( 'NONE',  ( 1.468525547006334784E-14, -6.999999999999988454, 4.206024333192958764 ) ) ;
#103 = AXIS2_PLACEMENT_3D ( 'NONE', #199, #149, #19 ) ;
#104 = CYLINDRICAL_SURFACE ( 'NONE', #123, 6.999999999999989342 ) ;
#105 = DATE_TIME_ROLE ( 'creation_date' ) ;
#106 = EDGE_CURVE ( 'NONE', #63, #5, #245, .T. ) ;
#107 = EDGE_CURVE ( 'NONE', #243, #285, #327, .T. ) ;
#108 = CALENDAR_DATE ( 2021, 3, 9 ) ;
#109 = ORIENTED_EDGE ( 'NONE', *, *, #265, .F. ) ;
#110 = DATE_AND_TIME ( #233, #159 ) ;
#111 = ORIENTED_EDGE ( 'NONE', *, *, #106, .F. ) ;
#112 = CONICAL_SURFACE ( 'NONE', #153, 6.000000000000000000, 0.7853981633974479459 ) ;
#113 = APPROVAL_DATE_TIME ( #115, #238 ) ;
#114 = EDGE_LOOP ( 'NONE', ( #163, #146, #319, #269 ) ) ;
#115 = DATE_AND_TIME ( #108, #255 ) ;
#116 = CARTESIAN_POINT ( 'NONE',  ( 1.291848095371959215E-13, 6.999999999999987566, 37.00000000000000000 ) ) ;
#117 = ORIENTED_EDGE ( 'NONE', *, *, #90, .F. ) ;
#118 = VECTOR ( 'NONE', #25, 1000.000000000000000 ) ;
#119 = CARTESIAN_POINT ( 'NONE',  ( 1.291848095371959215E-13, -4.531193156845206793E-15, 37.00000000000000000 ) ) ;
#120 = CARTESIAN_POINT ( 'NONE',  ( 1.554250822946650019E-14, 6.999999999999987566, 4.206024333192960540 ) ) ;
#121 = ADVANCED_FACE ( 'NONE', ( #328 ), #249, .T. ) ;
#122 = CARTESIAN_POINT ( 'NONE',  ( 3.735885032562152816E-13, -1.310372075087667979E-14, 107.0000000000000000 ) ) ;
#123 = AXIS2_PLACEMENT_3D ( 'NONE', #306, #81, #157 ) ;
#124 = CARTESIAN_POINT ( 'NONE',  ( 0.0000000000000000000, 0.0000000000000000000, 0.0000000000000000000 ) ) ;
#125 = CARTESIAN_POINT ( 'NONE',  ( 0.0000000000000000000, 0.0000000000000000000, 0.0000000000000000000 ) ) ;
#126 = DIRECTION ( 'NONE',  ( 0.0000000000000000000, 1.000000000000000000, 0.0000000000000000000 ) ) ;
#127 = VECTOR ( 'NONE', #99, 1000.000000000000000 ) ;
#128 = DIRECTION ( 'NONE',  ( -3.491481338843133355E-15, 1.224646799147353207E-16, -1.000000000000000000 ) ) ;
#129 = FACE_OUTER_BOUND ( 'NONE', #321, .T. ) ;
#130 = EDGE_CURVE ( 'NONE', #285, #5, #167, .T. ) ;
#131 = DIRECTION ( 'NONE',  ( -4.402125587170832814E-31, -1.000000000000000000, -1.239088197126293036E-16 ) ) ;
#132 = EDGE_CURVE ( 'NONE', #261, #263, #299, .T. ) ;
#133 = CLOSED_SHELL ( 'NONE', ( #121, #89, #151, #326, #9, #283 ) ) ;
#134 = PERSON_AND_ORGANIZATION ( #137, #305 ) ;
#135 = PERSON_AND_ORGANIZATION_ROLE ( 'creator' ) ;
#136 = EDGE_LOOP ( 'NONE', ( #29, #59, #61 ) ) ;
#137 = PERSON ( 'UNSPECIFIED', 'UNSPECIFIED', 'UNSPECIFIED', ('UNSPECIFIED'), ('UNSPECIFIED'), ('UNSPECIFIED') ) ;
#138 = PERSON_AND_ORGANIZATION ( #137, #305 ) ;
#139 = VERTEX_POINT ( 'NONE', #177 ) ;
#140 = APPROVAL ( #258, 'UNSPECIFIED' ) ;
#141 = EDGE_LOOP ( 'NONE', ( #109, #67 ) ) ;
#142 = APPROVAL_PERSON_ORGANIZATION ( #320, #227, #318 ) ;
#143 = ORIENTED_EDGE ( 'NONE', *, *, #289, .T. ) ;
#144 = APPLICATION_CONTEXT ( 'configuration controlled 3d designs of mechanical parts and assemblies' ) ;
#145 = MANIFOLD_SOLID_BREP ( 'Corps-Déplacer/Copier1[1]', #133 ) ;
#146 = ORIENTED_EDGE ( 'NONE', *, *, #37, .T. ) ;
#147 = CARTESIAN_POINT ( 'NONE',  ( 1.468525547006335100E-14, -5.150894236780638325E-16, 4.206024333192959652 ) ) ;
#148 = VECTOR ( 'NONE', #55, 1000.000000000000000 ) ;
#149 = DIRECTION ( 'NONE',  ( 3.491481338843133355E-15, -1.224646799147353207E-16, 1.000000000000000000 ) ) ;
#150 = CARTESIAN_POINT ( 'NONE',  ( 2.993082012127866646E-30, 6.999999999999989342, 8.572527594031460371E-16 ) ) ;
#151 = ADVANCED_FACE ( 'NONE', ( #272 ), #274, .F. ) ;
#152 = LINE ( 'NONE', #330, #127 ) ;
#153 = AXIS2_PLACEMENT_3D ( 'NONE', #83, #85, #76 ) ;
#154 =( GEOMETRIC_REPRESENTATION_CONTEXT ( 3 ) GLOBAL_UNCERTAINTY_ASSIGNED_CONTEXT ( ( #15 ) ) GLOBAL_UNIT_ASSIGNED_CONTEXT ( ( #311, #252, #336 ) ) REPRESENTATION_CONTEXT ( 'NONE', 'WORKASPACE' ) );
#155 = DIRECTION ( 'NONE',  ( -3.491481338843133355E-15, 1.224646799147353207E-16, -1.000000000000000000 ) ) ;
#156 = DIRECTION ( 'NONE',  ( 0.0000000000000000000, 1.000000000000000000, 0.0000000000000000000 ) ) ;
#157 = DIRECTION ( 'NONE',  ( 4.275831445896958607E-31, 1.000000000000000000, 1.224646799147353454E-16 ) ) ;
#158 = AXIS2_PLACEMENT_3D ( 'NONE', #119, #297, #98 ) ;
#159 = LOCAL_TIME ( 9, 55, 19.00000000000000000, #66 ) ;
#160 = CARTESIAN_POINT ( 'NONE',  ( 3.735885032562152816E-13, 4.499279347985553665E-32, 107.0000000000000000 ) ) ;
#161 = CC_DESIGN_DATE_AND_TIME_ASSIGNMENT ( #234, #105, ( #203 ) ) ;
#162 = PERSON_AND_ORGANIZATION ( #137, #305 ) ;
#163 = ORIENTED_EDGE ( 'NONE', *, *, #254, .T. ) ;
#164 = DIRECTION ( 'NONE',  ( 0.0000000000000000000, 0.0000000000000000000, 1.000000000000000000 ) ) ;
#165 = CARTESIAN_POINT ( 'NONE',  ( 1.554250822946650019E-14, 6.999999999999987566, 4.206024333192960540 ) ) ;
#166 = DATE_AND_TIME ( #313, #300 ) ;
#167 = CIRCLE ( 'NONE', #316, 6.999999999999987566 ) ;
#168 = ORIENTED_EDGE ( 'NONE', *, *, #264, .T. ) ;
#169 = PRODUCT ( '54655', '54655', '', ( #62 ) ) ;
#170 = CARTESIAN_POINT ( 'NONE',  ( 0.0000000000000000000, 0.0000000000000000000, 0.0000000000000000000 ) ) ;
#171 = ORIENTED_EDGE ( 'NONE', *, *, #201, .F. ) ;
#172 = CARTESIAN_POINT ( 'NONE',  ( 3.735885032562152816E-13, 5.999999999999986677, 107.0000000000000000 ) ) ;
#173 = PRODUCT_RELATED_PRODUCT_CATEGORY ( 'detail', '', ( #169 ) ) ;
#174 = LINE ( 'NONE', #68, #239 ) ;
#175 = APPLICATION_CONTEXT ( 'configuration controlled 3d designs of mechanical parts and assemblies' ) ;
#176 = CONICAL_SURFACE ( 'NONE', #244, 6.999999999999987566, 1.029744258676649871 ) ;
#177 = CARTESIAN_POINT ( 'NONE',  ( 1.291848095371959215E-13, 6.999999999999987566, 37.00000000000000000 ) ) ;
#178 = EDGE_CURVE ( 'NONE', #8, #5, #14, .T. ) ;
#179 = CARTESIAN_POINT ( 'NONE',  ( 0.0000000000000000000, 0.0000000000000000000, 0.0000000000000000000 ) ) ;
#180 = DIRECTION ( 'NONE',  ( -3.491481338843133355E-15, 1.224646799147353207E-16, -1.000000000000000000 ) ) ;
#181 = APPROVAL_PERSON_ORGANIZATION ( #138, #140, #217 ) ;
#182 = CARTESIAN_POINT ( 'NONE',  ( 3.735885032562152816E-13, -1.310372075087667979E-14, 107.0000000000000000 ) ) ;
#183 = CARTESIAN_POINT ( 'NONE',  ( 0.0000000000000000000, 0.0000000000000000000, 0.0000000000000000000 ) ) ;
#184 = APPLICATION_PROTOCOL_DEFINITION ( 'international standard', 'config_control_design', 1994, #175 ) ;
#185 = EDGE_CURVE ( 'NONE', #139, #290, #77, .T. ) ;
#186 = AXIS2_PLACEMENT_3D ( 'NONE', #125, #180, #196 ) ;
#187 = DIRECTION ( 'NONE',  ( -3.491481338843133355E-15, 1.224646799147353207E-16, -1.000000000000000000 ) ) ;
#188 = CARTESIAN_POINT ( 'NONE',  ( 1.468525547006334784E-14, -6.999999999999988454, 4.206024333192958764 ) ) ;
#189 = ORIENTED_EDGE ( 'NONE', *, *, #185, .T. ) ;
#190 = ORIENTED_EDGE ( 'NONE', *, *, #64, .T. ) ;
#191 = ORIENTED_EDGE ( 'NONE', *, *, #254, .F. ) ;
#192 = CALENDAR_DATE ( 2021, 3, 9 ) ;
#193 = ORIENTED_EDGE ( 'NONE', *, *, #37, .F. ) ;
#194 = EDGE_LOOP ( 'NONE', ( #216, #168, #191, #92 ) ) ;
#195 = DIRECTION ( 'NONE',  ( -3.491481338843133355E-15, 1.224646799147353207E-16, -1.000000000000000000 ) ) ;
#196 = DIRECTION ( 'NONE',  ( 4.275831445896959482E-31, 1.000000000000000000, 1.224646799147353207E-16 ) ) ;
#197 = FACE_OUTER_BOUND ( 'NONE', #12, .T. ) ;
#198 = AXIS2_PLACEMENT_3D ( 'NONE', #183, #128, #229 ) ;
#199 = CARTESIAN_POINT ( 'NONE',  ( 1.468525547006335100E-14, -5.150894236780638325E-16, 4.206024333192959652 ) ) ;
#200 = DIRECTION ( 'NONE',  ( -3.491481338843133355E-15, 1.224646799147353207E-16, -1.000000000000000000 ) ) ;
#201 = EDGE_CURVE ( 'NONE', #290, #139, #80, .T. ) ;
#202 = PLANE ( 'NONE',  #13 ) ;
#203 = PRODUCT_DEFINITION ( 'UNKNOWN', '', #334, #51 ) ;
#204 = CIRCLE ( 'NONE', #57, 6.000000000000000000 ) ;
#205 = LOCAL_TIME ( 9, 55, 19.00000000000000000, #270 ) ;
#206 = FACE_OUTER_BOUND ( 'NONE', #141, .T. ) ;
#207 = ADVANCED_FACE ( 'NONE', ( #18 ), #176, .T. ) ;
#208 = DIRECTION ( 'NONE',  ( -3.491481338843133355E-15, 1.224646799147353207E-16, -1.000000000000000000 ) ) ;
#209 = DIRECTION ( 'NONE',  ( -3.491481338843133355E-15, 1.224646799147353207E-16, -1.000000000000000000 ) ) ;
#210 = COORDINATED_UNIVERSAL_TIME_OFFSET ( 1, 0, .AHEAD. ) ;
#211 = DIRECTION ( 'NONE',  ( 1.000000000000000000, 0.0000000000000000000, 0.0000000000000000000 ) ) ;
#212 = ORIENTED_EDGE ( 'NONE', *, *, #312, .F. ) ;
#213 = AXIS2_PLACEMENT_3D ( 'NONE', #160, #187, #50 ) ;
#214 = ORIENTED_EDGE ( 'NONE', *, *, #70, .T. ) ;
#215 = ADVANCED_FACE ( 'NONE', ( #307 ), #104, .T. ) ;
#216 = ORIENTED_EDGE ( 'NONE', *, *, #265, .T. ) ;
#217 = APPROVAL_ROLE ( '' ) ;
#218 = FACE_OUTER_BOUND ( 'NONE', #91, .T. ) ;
#219 = ORIENTED_EDGE ( 'NONE', *, *, #69, .F. ) ;
#220 = CC_DESIGN_APPROVAL ( #140, ( #203 ) ) ;
#221 = CARTESIAN_POINT ( 'NONE',  ( 1.291848095371959215E-13, 5.249159239316489585E-32, 37.00000000000000000 ) ) ;
#222 = CARTESIAN_POINT ( 'NONE',  ( 8.572527594031430788E-16, -6.999999999999989342, -8.572527594031488967E-16 ) ) ;
#223 = DIRECTION ( 'NONE',  ( 4.275831445896958607E-31, 1.000000000000000000, 1.224646799147353454E-16 ) ) ;
#224 = CIRCLE ( 'NONE', #310, 7.000000000000000000 ) ;
#225 = DIRECTION ( 'NONE',  ( -3.491481338843133355E-15, 1.224646799147353207E-16, -1.000000000000000000 ) ) ;
#226 = CARTESIAN_POINT ( 'NONE',  ( 3.735885032562152816E-13, 5.999999999999986677, 107.0000000000000000 ) ) ;
#227 = APPROVAL ( #60, 'UNSPECIFIED' ) ;
#228 = AXIS2_PLACEMENT_3D ( 'NONE', #179, #200, #223 ) ;
#229 = DIRECTION ( 'NONE',  ( 4.275831445896959482E-31, 1.000000000000000000, 1.224646799147353207E-16 ) ) ;
#230 = CARTESIAN_POINT ( 'NONE',  ( 7.279228526303275390E-14, -6.999999999999995559, 37.00000000000000000 ) ) ;
#231 = CARTESIAN_POINT ( 'NONE',  ( 1.291848095371959215E-13, -4.531193156845206793E-15, 37.00000000000000000 ) ) ;
#232 = AXIS2_PLACEMENT_3D ( 'NONE', #39, #296, #16 ) ;
#233 = CALENDAR_DATE ( 2021, 3, 9 ) ;
#234 = DATE_AND_TIME ( #1, #205 ) ;
#235 = EDGE_LOOP ( 'NONE', ( #189, #288 ) ) ;
#236 = PERSON_AND_ORGANIZATION_ROLE ( 'classification_officer' ) ;
#237 = ORIENTED_EDGE ( 'NONE', *, *, #130, .F. ) ;
#238 = APPROVAL ( #10, 'UNSPECIFIED' ) ;
#239 = VECTOR ( 'NONE', #74, 1000.000000000000000 ) ;
#240 = ORIENTED_EDGE ( 'NONE', *, *, #178, .F. ) ;
#241 = DATE_TIME_ROLE ( 'classification_date' ) ;
#242 = EDGE_LOOP ( 'NONE', ( #214, #11, #219, #240 ) ) ;
#243 = VERTEX_POINT ( 'NONE', #230 ) ;
#244 = AXIS2_PLACEMENT_3D ( 'NONE', #281, #24, #131 ) ;
#245 = LINE ( 'NONE', #120, #34 ) ;
#246 = CYLINDRICAL_SURFACE ( 'NONE', #186, 6.999999999999995559 ) ;
#247 = DIRECTION ( 'NONE',  ( -3.491481338843133355E-15, 1.224646799147353207E-16, -1.000000000000000000 ) ) ;
#248 = DIRECTION ( 'NONE',  ( 0.0000000000000000000, 1.000000000000000000, 0.0000000000000000000 ) ) ;
#249 = CONICAL_SURFACE ( 'NONE', #40, 6.000000000000000000, 0.7853981633974479459 ) ;
#250 = FACE_OUTER_BOUND ( 'NONE', #114, .T. ) ;
#251 = CC_DESIGN_DATE_AND_TIME_ASSIGNMENT ( #166, #241, ( #72 ) ) ;
#252 =( NAMED_UNIT ( * ) PLANE_ANGLE_UNIT ( ) SI_UNIT ( $, .RADIAN. ) );
#253 = DIRECTION ( 'NONE',  ( -3.491481338843133355E-15, 1.224646799147353207E-16, -1.000000000000000000 ) ) ;
#254 = EDGE_CURVE ( 'NONE', #263, #259, #224, .T. ) ;
#255 = LOCAL_TIME ( 9, 55, 19.00000000000000000, #30 ) ;
#256 = CARTESIAN_POINT ( 'NONE',  ( 3.700970219173721104E-13, 6.999999999999987566, 106.0000000000000000 ) ) ;
#257 = AXIS2_PLACEMENT_3D ( 'NONE', #45, #225, #248 ) ;
#258 = APPROVAL_STATUS ( 'not_yet_approved' ) ;
#259 = VERTEX_POINT ( 'NONE', #100 ) ;
#260 = PERSON_AND_ORGANIZATION ( #137, #305 ) ;
#261 = VERTEX_POINT ( 'NONE', #226 ) ;
#262 = PERSON_AND_ORGANIZATION_ROLE ( 'design_supplier' ) ;
#263 = VERTEX_POINT ( 'NONE', #256 ) ;
#264 = EDGE_CURVE ( 'NONE', #31, #259, #309, .T. ) ;
#265 = EDGE_CURVE ( 'NONE', #261, #31, #304, .T. ) ;
#266 = CLOSED_SHELL ( 'NONE', ( #215, #207, #48, #54, #279 ) ) ;
#267 = CC_DESIGN_APPROVAL ( #227, ( #72 ) ) ;
#268 = PERSON_AND_ORGANIZATION ( #137, #305 ) ;
#269 = ORIENTED_EDGE ( 'NONE', *, *, #64, .F. ) ;
#270 = COORDINATED_UNIVERSAL_TIME_OFFSET ( 1, 0, .AHEAD. ) ;
#271 = ORIENTED_EDGE ( 'NONE', *, *, #264, .F. ) ;
#272 = FACE_OUTER_BOUND ( 'NONE', #235, .T. ) ;
#273 = DIRECTION ( 'NONE',  ( 4.402125587170832814E-31, 1.000000000000000000, 1.239088197126293036E-16 ) ) ;
#274 = PLANE ( 'NONE',  #26 ) ;
#275 = CARTESIAN_POINT ( 'NONE',  ( 1.468525547006335100E-14, -5.150894236780638325E-16, 4.206024333192959652 ) ) ;
#276 = DIRECTION ( 'NONE',  ( -3.491481338843133355E-15, 1.224646799147353207E-16, -1.000000000000000000 ) ) ;
#277 = CIRCLE ( 'NONE', #93, 6.999999999999987566 ) ;
#278 = DIRECTION ( 'NONE',  ( 3.491481338843133355E-15, -1.224646799147353207E-16, 1.000000000000000000 ) ) ;
#279 = ADVANCED_FACE ( 'NONE', ( #332 ), #202, .T. ) ;
#280 = PLANE ( 'NONE',  #213 ) ;
#281 = CARTESIAN_POINT ( 'NONE',  ( 1.468525547006335100E-14, -5.150894236780638325E-16, 4.206024333192959652 ) ) ;
#282 = CC_DESIGN_PERSON_AND_ORGANIZATION_ASSIGNMENT ( #84, #262, ( #334 ) ) ;
#283 = ADVANCED_FACE ( 'NONE', ( #206 ), #280, .F. ) ;
#284 = CARTESIAN_POINT ( 'NONE',  ( 3.700970219173721104E-13, -1.298125607096194306E-14, 106.0000000000000000 ) ) ;
#285 = VERTEX_POINT ( 'NONE', #102 ) ;
#286 = CIRCLE ( 'NONE', #6, 6.999999999999991118 ) ;
#287 = PERSON_AND_ORGANIZATION_ROLE ( 'design_owner' ) ;
#288 = ORIENTED_EDGE ( 'NONE', *, *, #201, .T. ) ;
#289 = EDGE_CURVE ( 'NONE', #31, #261, #204, .T. ) ;
#290 = VERTEX_POINT ( 'NONE', #331 ) ;
#291 = DATE_AND_TIME ( #192, #27 ) ;
#292 = ORIENTED_EDGE ( 'NONE', *, *, #132, .T. ) ;
#293 = VECTOR ( 'NONE', #73, 999.9999999999998863 ) ;
#294 = APPROVAL_PERSON_ORGANIZATION ( #260, #238, #32 ) ;
#295 = ORIENTED_EDGE ( 'NONE', *, *, #130, .T. ) ;
#296 = DIRECTION ( 'NONE',  ( -3.491481338843133355E-15, 1.224646799147353207E-16, -1.000000000000000000 ) ) ;
#297 = DIRECTION ( 'NONE',  ( -3.491481338843133355E-15, 1.224646799147353207E-16, -1.000000000000000000 ) ) ;
#298 = CIRCLE ( 'NONE', #46, 6.999999999999991118 ) ;
#299 = LINE ( 'NONE', #172, #293 ) ;
#300 = LOCAL_TIME ( 9, 55, 19.00000000000000000, #210 ) ;
#301 = DIRECTION ( 'NONE',  ( -3.491481338843133355E-15, 1.224646799147353207E-16, -1.000000000000000000 ) ) ;
#302 = DIRECTION ( 'NONE',  ( 0.0000000000000000000, 1.000000000000000000, 0.0000000000000000000 ) ) ;
#303 = CARTESIAN_POINT ( 'NONE',  ( 1.291848095371959215E-13, 5.249159239316489585E-32, 37.00000000000000000 ) ) ;
#304 = CIRCLE ( 'NONE', #86, 6.000000000000000000 ) ;
#305 = ORGANIZATION ( 'UNSPECIFIED', 'UNSPECIFIED', '' ) ;
#306 = CARTESIAN_POINT ( 'NONE',  ( 0.0000000000000000000, 0.0000000000000000000, 0.0000000000000000000 ) ) ;
#307 = FACE_OUTER_BOUND ( 'NONE', #242, .T. ) ;
#308 = CC_DESIGN_PERSON_AND_ORGANIZATION_ASSIGNMENT ( #268, #314, ( #334 ) ) ;
#309 = LINE ( 'NONE', #21, #118 ) ;
#310 = AXIS2_PLACEMENT_3D ( 'NONE', #284, #208, #126 ) ;
#311 =( LENGTH_UNIT ( ) NAMED_UNIT ( * ) SI_UNIT ( .MILLI., .METRE. ) );
#312 = EDGE_CURVE ( 'NONE', #243, #8, #286, .T. ) ;
#313 = CALENDAR_DATE ( 2021, 3, 9 ) ;
#314 = PERSON_AND_ORGANIZATION_ROLE ( 'creator' ) ;
#315 = ORIENTED_EDGE ( 'NONE', *, *, #90, .T. ) ;
#316 = AXIS2_PLACEMENT_3D ( 'NONE', #275, #301, #94 ) ;
#317 = ORIENTED_EDGE ( 'NONE', *, *, #325, .T. ) ;
#318 = APPROVAL_ROLE ( '' ) ;
#319 = ORIENTED_EDGE ( 'NONE', *, *, #185, .F. ) ;
#320 = PERSON_AND_ORGANIZATION ( #137, #305 ) ;
#321 = EDGE_LOOP ( 'NONE', ( #193, #315, #190, #171 ) ) ;
#322 = VECTOR ( 'NONE', #247, 1000.000000000000000 ) ;
#323 = DIRECTION ( 'NONE',  ( -3.491481338843133355E-15, 1.224646799147353207E-16, -1.000000000000000000 ) ) ;
#324 = CC_DESIGN_PERSON_AND_ORGANIZATION_ASSIGNMENT ( #162, #287, ( #169 ) ) ;
#325 = EDGE_CURVE ( 'NONE', #63, #285, #335, .T. ) ;
#326 = ADVANCED_FACE ( 'NONE', ( #129 ), #79, .T. ) ;
#327 = LINE ( 'NONE', #222, #65 ) ;
#328 = FACE_OUTER_BOUND ( 'NONE', #194, .T. ) ;
#329 = CARTESIAN_POINT ( 'NONE',  ( 1.291848095371959215E-13, -4.531193156845206793E-15, 37.00000000000000000 ) ) ;
#330 = CARTESIAN_POINT ( 'NONE',  ( 2.993082012127869448E-30, 6.999999999999995559, 8.572527594031467273E-16 ) ) ;
#331 = CARTESIAN_POINT ( 'NONE',  ( 2.504981684866871620E-13, -6.999999999999995559, 37.00000000000000000 ) ) ;
#332 = FACE_OUTER_BOUND ( 'NONE', #3, .T. ) ;
#333 = ADVANCED_BREP_SHAPE_REPRESENTATION ( '54655', ( #145, #20, #7 ), #154 ) ;
#334 = PRODUCT_DEFINITION_FORMATION_WITH_SPECIFIED_SOURCE ( 'ANY', '', #169, .NOT_KNOWN. ) ;
#335 = LINE ( 'NONE', #188, #148 ) ;
#336 =( NAMED_UNIT ( * ) SI_UNIT ( $, .STERADIAN. ) SOLID_ANGLE_UNIT ( ) );
#337 = CONICAL_SURFACE ( 'NONE', #103, 6.999999999999987566, 1.029744258676649871 ) ;
ENDSEC;
END-ISO-10303-21;
