ISO-10303-21;
HEADER;
FILE_DESCRIPTION (( 'STEP AP203' ),
    '1' );
FILE_NAME ('54654.step',
    '2021-09-03T07:55:13',
    ( '' ),
    ( '' ),
    'SwSTEP 2.0',
    'SolidWorks 2019',
    '' );
FILE_SCHEMA (( 'CONFIG_CONTROL_DESIGN' ));
ENDSEC;

DATA;
#1 = ORIENTED_EDGE ( 'NONE', *, *, #210, .F. ) ;
#2 = VECTOR ( 'NONE', #4, 1000.000000000000000 ) ;
#3 = LINE ( 'NONE', #237, #253 ) ;
#4 = DIRECTION ( 'NONE',  ( -3.491481338843133355E-15, 1.224646799147353207E-16, -1.000000000000000000 ) ) ;
#5 = AXIS2_PLACEMENT_3D ( 'NONE', #80, #60, #261 ) ;
#6 = FACE_OUTER_BOUND ( 'NONE', #335, .T. ) ;
#7 = EDGE_CURVE ( 'NONE', #267, #245, #160, .T. ) ;
#8 = CARTESIAN_POINT ( 'NONE',  ( 8.266365894244593904E-16, -6.749999999999990230, -8.266365894244650111E-16 ) ) ;
#9 = DESIGN_CONTEXT ( 'detailed design', #42, 'design' ) ;
#10 = EDGE_CURVE ( 'NONE', #13, #337, #299, .T. ) ;
#11 = CARTESIAN_POINT ( 'NONE',  ( 3.735885032562152816E-13, -1.310372075087667979E-14, 107.0000000000000000 ) ) ;
#12 = DIRECTION ( 'NONE',  ( 0.0000000000000000000, 0.0000000000000000000, 1.000000000000000000 ) ) ;
#13 = VERTEX_POINT ( 'NONE', #98 ) ;
#14 =( NAMED_UNIT ( * ) PLANE_ANGLE_UNIT ( ) SI_UNIT ( $, .RADIAN. ) );
#15 = DIRECTION ( 'NONE',  ( -2.382254525458717469E-15, -0.7071067811865471286, -0.7071067811865479058 ) ) ;
#16 = VERTEX_POINT ( 'NONE', #203 ) ;
#17 = LOCAL_TIME ( 9, 55, 13.00000000000000000, #96 ) ;
#18 = COORDINATED_UNIVERSAL_TIME_OFFSET ( 1, 0, .AHEAD. ) ;
#19 = PRODUCT_DEFINITION_SHAPE ( 'NONE', 'NONE',  #167 ) ;
#20 = EDGE_LOOP ( 'NONE', ( #307, #48, #1, #303 ) ) ;
#21 = DIRECTION ( 'NONE',  ( 3.491481338843133355E-15, -1.224646799147353207E-16, 1.000000000000000000 ) ) ;
#22 = AXIS2_PLACEMENT_3D ( 'NONE', #316, #59, #105 ) ;
#23 = DIRECTION ( 'NONE',  ( 4.275831445896958607E-31, 1.000000000000000000, 1.224646799147353207E-16 ) ) ;
#24 = SHAPE_DEFINITION_REPRESENTATION ( #19, #246 ) ;
#25 = DIRECTION ( 'NONE',  ( 0.0000000000000000000, 1.000000000000000000, 0.0000000000000000000 ) ) ;
#26 = ORIENTED_EDGE ( 'NONE', *, *, #262, .T. ) ;
#27 = CIRCLE ( 'NONE', #130, 6.749999999999988454 ) ;
#28 = DIRECTION ( 'NONE',  ( -4.275831445896958607E-31, -1.000000000000000000, -1.224646799147353207E-16 ) ) ;
#29 = CONICAL_SURFACE ( 'NONE', #293, 6.749999999999988454, 1.029744258676649649 ) ;
#30 = PLANE ( 'NONE',  #52 ) ;
#31 = DIRECTION ( 'NONE',  ( -3.491481338843133355E-15, 1.224646799147353207E-16, -1.000000000000000000 ) ) ;
#32 = CC_DESIGN_SECURITY_CLASSIFICATION ( #159, ( #107 ) ) ;
#33 = CARTESIAN_POINT ( 'NONE',  ( 1.416078206041823605E-14, -4.966933728324188612E-16, 4.055809178436069473 ) ) ;
#34 = ADVANCED_FACE ( 'NONE', ( #121 ), #205, .T. ) ;
#35 = DIRECTION ( 'NONE',  ( 0.0000000000000000000, 1.000000000000000000, 0.0000000000000000000 ) ) ;
#36 = PERSON_AND_ORGANIZATION_ROLE ( 'design_owner' ) ;
#37 = VERTEX_POINT ( 'NONE', #49 ) ;
#38 = AXIS2_PLACEMENT_3D ( 'NONE', #260, #208, #69 ) ;
#39 = VERTEX_POINT ( 'NONE', #173 ) ;
#40 = AXIS2_PLACEMENT_3D ( 'NONE', #181, #199, #23 ) ;
#41 = DIRECTION ( 'NONE',  ( -3.491481338843133355E-15, 1.224646799147353207E-16, -1.000000000000000000 ) ) ;
#42 = APPLICATION_CONTEXT ( 'configuration controlled 3d designs of mechanical parts and assemblies' ) ;
#43 = DIRECTION ( 'NONE',  ( 4.275831445896958607E-31, 1.000000000000000000, 1.224646799147353207E-16 ) ) ;
#44 = EDGE_CURVE ( 'NONE', #245, #267, #64, .T. ) ;
#45 = AXIS2_PLACEMENT_3D ( 'NONE', #55, #226, #25 ) ;
#46 = DIRECTION ( 'NONE',  ( -3.491481338843133355E-15, 1.224646799147353207E-16, -1.000000000000000000 ) ) ;
#47 = DATE_AND_TIME ( #171, #17 ) ;
#48 = ORIENTED_EDGE ( 'NONE', *, *, #111, .T. ) ;
#49 = CARTESIAN_POINT ( 'NONE',  ( 1.416078206041823290E-14, -6.749999999999989342, 4.055809178436068585 ) ) ;
#50 = EDGE_CURVE ( 'NONE', #39, #37, #78, .T. ) ;
#51 = CC_DESIGN_APPROVAL ( #82, ( #167 ) ) ;
#52 = AXIS2_PLACEMENT_3D ( 'NONE', #259, #61, #290 ) ;
#53 = PERSON_AND_ORGANIZATION_ROLE ( 'creator' ) ;
#54 = ORIENTED_EDGE ( 'NONE', *, *, #263, .F. ) ;
#55 = CARTESIAN_POINT ( 'NONE',  ( 3.735885032562152816E-13, -1.310372075087667979E-14, 107.0000000000000000 ) ) ;
#56 = CARTESIAN_POINT ( 'NONE',  ( 2.504675523167083709E-13, -6.750000000000014211, 106.0000000000000000 ) ) ;
#57 = CONICAL_SURFACE ( 'NONE', #22, 5.750000000000000888, 0.7853981633974479459 ) ;
#58 = CIRCLE ( 'NONE', #223, 6.749999999999992006 ) ;
#59 = DIRECTION ( 'NONE',  ( -3.491481338843133355E-15, 1.224646799147353207E-16, -1.000000000000000000 ) ) ;
#60 = DIRECTION ( 'NONE',  ( -3.491481338843133355E-15, 1.224646799147353207E-16, -1.000000000000000000 ) ) ;
#61 = DIRECTION ( 'NONE',  ( 3.491481338843133355E-15, -1.224646799147353207E-16, 1.000000000000000000 ) ) ;
#62 = ADVANCED_FACE ( 'NONE', ( #179 ), #93, .T. ) ;
#63 = PLANE ( 'NONE',  #333 ) ;
#64 = CIRCLE ( 'NONE', #248, 6.750000000000000888 ) ;
#65 = ADVANCED_FACE ( 'NONE', ( #285 ), #29, .T. ) ;
#66 = ADVANCED_FACE ( 'NONE', ( #220 ), #313, .T. ) ;
#67 = APPLICATION_PROTOCOL_DEFINITION ( 'international standard', 'config_control_design', 1994, #42 ) ;
#68 = VECTOR ( 'NONE', #232, 1000.000000000000000 ) ;
#69 = DIRECTION ( 'NONE',  ( 0.0000000000000000000, 1.000000000000000000, 0.0000000000000000000 ) ) ;
#70 = ORIENTED_EDGE ( 'NONE', *, *, #195, .T. ) ;
#71 = PERSON_AND_ORGANIZATION_ROLE ( 'creator' ) ;
#72 = VERTEX_POINT ( 'NONE', #222 ) ;
#73 = PRODUCT ( '54654', '54654', '', ( #218 ) ) ;
#74 = ORIENTED_EDGE ( 'NONE', *, *, #120, .F. ) ;
#75 = SECURITY_CLASSIFICATION_LEVEL ( 'unclassified' ) ;
#76 = ORIENTED_EDGE ( 'NONE', *, *, #7, .T. ) ;
#77 = ORIENTED_EDGE ( 'NONE', *, *, #83, .T. ) ;
#78 = LINE ( 'NONE', #148, #324 ) ;
#79 = FACE_OUTER_BOUND ( 'NONE', #240, .T. ) ;
#80 = CARTESIAN_POINT ( 'NONE',  ( 3.735885032562152816E-13, -1.310372075087667979E-14, 107.0000000000000000 ) ) ;
#81 = LINE ( 'NONE', #8, #68 ) ;
#82 = APPROVAL ( #140, 'UNSPECIFIED' ) ;
#83 = EDGE_CURVE ( 'NONE', #254, #72, #155, .T. ) ;
#84 = CARTESIAN_POINT ( 'NONE',  ( 8.266365894244601793E-16, -6.749999999999996447, -8.266365894244657999E-16 ) ) ;
#85 = PLANE ( 'NONE',  #145 ) ;
#86 = APPROVAL_STATUS ( 'not_yet_approved' ) ;
#87 = ORIENTED_EDGE ( 'NONE', *, *, #177, .T. ) ;
#88 = DIRECTION ( 'NONE',  ( 1.903218546456022717E-15, 0.8571673007021097801, 0.5150380749100585964 ) ) ;
#89 = VECTOR ( 'NONE', #286, 1000.000000000000000 ) ;
#90 = PERSON_AND_ORGANIZATION_ROLE ( 'design_supplier' ) ;
#91 = ORIENTED_EDGE ( 'NONE', *, *, #44, .F. ) ;
#92 = DATE_TIME_ROLE ( 'classification_date' ) ;
#93 = CYLINDRICAL_SURFACE ( 'NONE', #40, 6.749999999999996447 ) ;
#94 = PERSON_AND_ORGANIZATION ( #224, #280 ) ;
#95 = EDGE_LOOP ( 'NONE', ( #278, #330, #311, #334 ) ) ;
#96 = COORDINATED_UNIVERSAL_TIME_OFFSET ( 1, 0, .AHEAD. ) ;
#97 = DIRECTION ( 'NONE',  ( -3.491481338843133355E-15, 1.224646799147353207E-16, -1.000000000000000000 ) ) ;
#98 = CARTESIAN_POINT ( 'NONE',  ( 3.726081668362608223E-13, -5.750000000000014211, 107.0000000000000000 ) ) ;
#99 = EDGE_CURVE ( 'NONE', #119, #16, #58, .T. ) ;
#100 = ADVANCED_FACE ( 'NONE', ( #128 ), #85, .F. ) ;
#101 = DIRECTION ( 'NONE',  ( 0.0000000000000000000, 1.000000000000000000, 0.0000000000000000000 ) ) ;
#102 = LINE ( 'NONE', #314, #192 ) ;
#103 = DIRECTION ( 'NONE',  ( -2.468850131082266527E-15, 0.7071067811865473507, -0.7071067811865477948 ) ) ;
#104 = FACE_OUTER_BOUND ( 'NONE', #197, .T. ) ;
#105 = DIRECTION ( 'NONE',  ( 0.0000000000000000000, 1.000000000000000000, 0.0000000000000000000 ) ) ;
#106 = DIRECTION ( 'NONE',  ( -3.491481338843133355E-15, 1.224646799147353207E-16, -1.000000000000000000 ) ) ;
#107 = PRODUCT_DEFINITION_FORMATION_WITH_SPECIFIED_SOURCE ( 'ANY', '', #73, .NOT_KNOWN. ) ;
#108 = PERSON_AND_ORGANIZATION ( #224, #280 ) ;
#109 = APPROVAL_DATE_TIME ( #166, #82 ) ;
#110 = ORIENTED_EDGE ( 'NONE', *, *, #50, .F. ) ;
#111 = EDGE_CURVE ( 'NONE', #119, #37, #81, .T. ) ;
#112 =( LENGTH_UNIT ( ) NAMED_UNIT ( * ) SI_UNIT ( .MILLI., .METRE. ) );
#113 = CARTESIAN_POINT ( 'NONE',  ( 0.0000000000000000000, 0.0000000000000000000, 0.0000000000000000000 ) ) ;
#114 = ORIENTED_EDGE ( 'NONE', *, *, #120, .T. ) ;
#115 = ORIENTED_EDGE ( 'NONE', *, *, #289, .F. ) ;
#116 = DIRECTION ( 'NONE',  ( 4.275831445896958607E-31, 1.000000000000000000, 1.224646799147353207E-16 ) ) ;
#117 = AXIS2_PLACEMENT_3D ( 'NONE', #328, #272, #162 ) ;
#118 = PERSON_AND_ORGANIZATION ( #224, #280 ) ;
#119 = VERTEX_POINT ( 'NONE', #158 ) ;
#120 = EDGE_CURVE ( 'NONE', #267, #254, #292, .T. ) ;
#121 = FACE_OUTER_BOUND ( 'NONE', #252, .T. ) ;
#122 = ADVANCED_FACE ( 'NONE', ( #229 ), #235, .T. ) ;
#123 = ORIENTED_EDGE ( 'NONE', *, *, #177, .F. ) ;
#124 = AXIS2_PLACEMENT_3D ( 'NONE', #256, #250, #176 ) ;
#125 = CYLINDRICAL_SURFACE ( 'NONE', #287, 6.749999999999996447 ) ;
#126 = DIRECTION ( 'NONE',  ( -3.491481338843133355E-15, 1.224646799147353207E-16, -1.000000000000000000 ) ) ;
#127 = APPROVAL ( #86, 'UNSPECIFIED' ) ;
#128 = FACE_OUTER_BOUND ( 'NONE', #273, .T. ) ;
#129 = MANIFOLD_SOLID_BREP ( 'Corps-Déplacer/Copier1[1]', #274 ) ;
#130 = AXIS2_PLACEMENT_3D ( 'NONE', #33, #291, #212 ) ;
#131 = AXIS2_PLACEMENT_3D ( 'NONE', #11, #31, #317 ) ;
#132 = CARTESIAN_POINT ( 'NONE',  ( 1.291848095371959215E-13, 5.061689266483757658E-32, 37.00000000000000000 ) ) ;
#133 = FACE_OUTER_BOUND ( 'NONE', #169, .T. ) ;
#134 = CARTESIAN_POINT ( 'NONE',  ( 3.742926751657250024E-13, -5.750000000000014211, 107.0000000000000000 ) ) ;
#135 = ORIENTED_EDGE ( 'NONE', *, *, #210, .T. ) ;
#136 = APPROVAL_PERSON_ORGANIZATION ( #193, #82, #242 ) ;
#137 = CARTESIAN_POINT ( 'NONE',  ( 1.498741864984270146E-14, 6.749999999999987566, 4.055809178436070361 ) ) ;
#138 = AXIS2_PLACEMENT_3D ( 'NONE', #157, #187, #154 ) ;
#139 = ORIENTED_EDGE ( 'NONE', *, *, #44, .T. ) ;
#140 = APPROVAL_STATUS ( 'not_yet_approved' ) ;
#141 = ADVANCED_FACE ( 'NONE', ( #6 ), #30, .F. ) ;
#142 = CYLINDRICAL_SURFACE ( 'NONE', #310, 6.749999999999990230 ) ;
#143 = CARTESIAN_POINT ( 'NONE',  ( 0.0000000000000000000, 0.0000000000000000000, 0.0000000000000000000 ) ) ;
#144 = ORIENTED_EDGE ( 'NONE', *, *, #10, .F. ) ;
#145 = AXIS2_PLACEMENT_3D ( 'NONE', #236, #211, #207 ) ;
#146 = EDGE_LOOP ( 'NONE', ( #115, #271, #26, #219 ) ) ;
#147 = DIRECTION ( 'NONE',  ( 3.491481338843133355E-15, -1.224646799147353207E-16, 1.000000000000000000 ) ) ;
#148 = CARTESIAN_POINT ( 'NONE',  ( 1.416078206041823290E-14, -6.749999999999989342, 4.055809178436068585 ) ) ;
#149 = PRODUCT_RELATED_PRODUCT_CATEGORY ( 'detail', '', ( #73 ) ) ;
#150 = CIRCLE ( 'NONE', #117, 6.749999999999988454 ) ;
#151 = PERSON_AND_ORGANIZATION_ROLE ( 'classification_officer' ) ;
#152 = ORIENTED_EDGE ( 'NONE', *, *, #289, .T. ) ;
#153 = CARTESIAN_POINT ( 'NONE',  ( 1.416078206041823605E-14, -4.966933728324188612E-16, 4.055809178436069473 ) ) ;
#154 = DIRECTION ( 'NONE',  ( 0.0000000000000000000, 1.000000000000000000, 0.0000000000000000000 ) ) ;
#155 = CIRCLE ( 'NONE', #138, 6.749999999999992006 ) ;
#156 = DIRECTION ( 'NONE',  ( -3.491481338843133355E-15, 1.224646799147353207E-16, -1.000000000000000000 ) ) ;
#157 = CARTESIAN_POINT ( 'NONE',  ( 1.291848095371959215E-13, -4.531193156845206793E-15, 37.00000000000000000 ) ) ;
#158 = CARTESIAN_POINT ( 'NONE',  ( 7.249943238823151580E-14, -6.749999999999995559, 37.00000000000000000 ) ) ;
#159 = SECURITY_CLASSIFICATION ( '', '', #75 ) ;
#160 = CIRCLE ( 'NONE', #124, 6.750000000000000888 ) ;
#161 = CARTESIAN_POINT ( 'NONE',  ( 3.700970219173721104E-13, 6.749999999999987566, 106.0000000000000000 ) ) ;
#162 = DIRECTION ( 'NONE',  ( 4.565167275584567071E-31, 1.000000000000000000, 1.284980352575414918E-16 ) ) ;
#163 = APPROVAL ( #309, 'UNSPECIFIED' ) ;
#164 = APPROVAL_DATE_TIME ( #295, #127 ) ;
#165 = ORIENTED_EDGE ( 'NONE', *, *, #99, .F. ) ;
#166 = DATE_AND_TIME ( #194, #214 ) ;
#167 = PRODUCT_DEFINITION ( 'UNKNOWN', '', #107, #9 ) ;
#168 = CARTESIAN_POINT ( 'NONE',  ( 1.498741864984270146E-14, 6.749999999999987566, 4.055809178436070361 ) ) ;
#169 = EDGE_LOOP ( 'NONE', ( #70, #152, #91, #269 ) ) ;
#170 = APPROVAL_ROLE ( '' ) ;
#171 = CALENDAR_DATE ( 2021, 3, 9 ) ;
#172 = APPROVAL_PERSON_ORGANIZATION ( #118, #163, #201 ) ;
#173 = CARTESIAN_POINT ( 'NONE',  ( 0.0000000000000000000, 0.0000000000000000000, 0.0000000000000000000 ) ) ;
#174 = AXIS2_PLACEMENT_3D ( 'NONE', #228, #147, #308 ) ;
#175 = PERSON_AND_ORGANIZATION ( #224, #280 ) ;
#176 = DIRECTION ( 'NONE',  ( 0.0000000000000000000, 1.000000000000000000, 0.0000000000000000000 ) ) ;
#177 = EDGE_CURVE ( 'NONE', #72, #254, #327, .T. ) ;
#178 = ORIENTED_EDGE ( 'NONE', *, *, #323, .T. ) ;
#179 = FACE_OUTER_BOUND ( 'NONE', #281, .T. ) ;
#180 = AXIS2_PLACEMENT_3D ( 'NONE', #186, #106, #35 ) ;
#181 = CARTESIAN_POINT ( 'NONE',  ( 0.0000000000000000000, 0.0000000000000000000, 0.0000000000000000000 ) ) ;
#182 = CARTESIAN_POINT ( 'NONE',  ( 2.886186225980445527E-30, 6.749999999999996447, 8.266365894244629403E-16 ) ) ;
#183 = ADVANCED_FACE ( 'NONE', ( #104 ), #125, .T. ) ;
#184 = DIRECTION ( 'NONE',  ( -3.491481338843133355E-15, 1.224646799147353207E-16, -1.000000000000000000 ) ) ;
#185 = LOCAL_TIME ( 9, 55, 13.00000000000000000, #306 ) ;
#186 = CARTESIAN_POINT ( 'NONE',  ( 1.291848095371959215E-13, -4.531193156845206793E-15, 37.00000000000000000 ) ) ;
#187 = DIRECTION ( 'NONE',  ( -3.491481338843133355E-15, 1.224646799147353207E-16, -1.000000000000000000 ) ) ;
#188 = CARTESIAN_POINT ( 'NONE',  ( 0.0000000000000000000, 0.0000000000000000000, 0.0000000000000000000 ) ) ;
#189 = PERSON_AND_ORGANIZATION ( #224, #280 ) ;
#190 = FACE_OUTER_BOUND ( 'NONE', #95, .T. ) ;
#191 = APPLICATION_PROTOCOL_DEFINITION ( 'international standard', 'config_control_design', 1994, #233 ) ;
#192 = VECTOR ( 'NONE', #156, 1000.000000000000000 ) ;
#193 = PERSON_AND_ORGANIZATION ( #224, #280 ) ;
#194 = CALENDAR_DATE ( 2021, 3, 9 ) ;
#195 = EDGE_CURVE ( 'NONE', #337, #13, #265, .T. ) ;
#196 = CC_DESIGN_PERSON_AND_ORGANIZATION_ASSIGNMENT ( #108, #71, ( #167 ) ) ;
#197 = EDGE_LOOP ( 'NONE', ( #74, #76, #225, #257 ) ) ;
#198 = AXIS2_PLACEMENT_3D ( 'NONE', #275, #46, #116 ) ;
#199 = DIRECTION ( 'NONE',  ( -3.491481338843133355E-15, 1.224646799147353207E-16, -1.000000000000000000 ) ) ;
#200 = ADVANCED_FACE ( 'NONE', ( #133 ), #57, .T. ) ;
#201 = APPROVAL_ROLE ( '' ) ;
#202 = DIRECTION ( 'NONE',  ( 1.798245827342160317E-15, -0.8571673007021098911, 0.5150380749100582634 ) ) ;
#203 = CARTESIAN_POINT ( 'NONE',  ( 1.291848095371959215E-13, 6.749999999999987566, 37.00000000000000000 ) ) ;
#204 = CC_DESIGN_APPROVAL ( #127, ( #107 ) ) ;
#205 = CONICAL_SURFACE ( 'NONE', #174, 6.749999999999988454, 1.029744258676649649 ) ;
#206 = DIRECTION ( 'NONE',  ( -4.565167275584567071E-31, -1.000000000000000000, -1.284980352575414918E-16 ) ) ;
#207 = DIRECTION ( 'NONE',  ( 4.275831445896958607E-31, 1.000000000000000000, 1.224646799147353207E-16 ) ) ;
#208 = DIRECTION ( 'NONE',  ( -3.491481338843133355E-15, 1.224646799147353207E-16, -1.000000000000000000 ) ) ;
#209 = CIRCLE ( 'NONE', #38, 6.749999999999992006 ) ;
#210 = EDGE_CURVE ( 'NONE', #332, #37, #27, .T. ) ;
#211 = DIRECTION ( 'NONE',  ( -3.491481338843133355E-15, 1.224646799147353207E-16, -1.000000000000000000 ) ) ;
#212 = DIRECTION ( 'NONE',  ( 4.565167275584567071E-31, 1.000000000000000000, 1.284980352575414918E-16 ) ) ;
#213 = DIRECTION ( 'NONE',  ( 0.0000000000000000000, 1.000000000000000000, 0.0000000000000000000 ) ) ;
#214 = LOCAL_TIME ( 9, 55, 13.00000000000000000, #247 ) ;
#215 = CALENDAR_DATE ( 2021, 3, 9 ) ;
#216 = CALENDAR_DATE ( 2021, 3, 9 ) ;
#217 = EDGE_LOOP ( 'NONE', ( #110, #178, #135 ) ) ;
#218 = MECHANICAL_CONTEXT ( 'NONE', #233, 'mechanical' ) ;
#219 = ORIENTED_EDGE ( 'NONE', *, *, #7, .F. ) ;
#220 = FACE_OUTER_BOUND ( 'NONE', #20, .T. ) ;
#221 = CC_DESIGN_PERSON_AND_ORGANIZATION_ASSIGNMENT ( #175, #151, ( #159 ) ) ;
#222 = CARTESIAN_POINT ( 'NONE',  ( 1.291848095371959215E-13, 6.749999999999987566, 37.00000000000000000 ) ) ;
#223 = AXIS2_PLACEMENT_3D ( 'NONE', #230, #184, #213 ) ;
#224 = PERSON ( 'UNSPECIFIED', 'UNSPECIFIED', 'UNSPECIFIED', ('UNSPECIFIED'), ('UNSPECIFIED'), ('UNSPECIFIED') ) ;
#225 = ORIENTED_EDGE ( 'NONE', *, *, #263, .T. ) ;
#226 = DIRECTION ( 'NONE',  ( -3.491481338843133355E-15, 1.224646799147353207E-16, -1.000000000000000000 ) ) ;
#227 = LOCAL_TIME ( 9, 55, 13.00000000000000000, #18 ) ;
#228 = CARTESIAN_POINT ( 'NONE',  ( 1.416078206041823605E-14, -4.966933728324188612E-16, 4.055809178436069473 ) ) ;
#229 = FACE_OUTER_BOUND ( 'NONE', #146, .T. ) ;
#230 = CARTESIAN_POINT ( 'NONE',  ( 1.291848095371959215E-13, -4.531193156845206793E-15, 37.00000000000000000 ) ) ;
#231 = CC_DESIGN_DATE_AND_TIME_ASSIGNMENT ( #47, #92, ( #159 ) ) ;
#232 = DIRECTION ( 'NONE',  ( -3.491481338843133355E-15, 1.224646799147353207E-16, -1.000000000000000000 ) ) ;
#233 = APPLICATION_CONTEXT ( 'configuration controlled 3d designs of mechanical parts and assemblies' ) ;
#234 = APPROVAL_PERSON_ORGANIZATION ( #325, #127, #170 ) ;
#235 = CONICAL_SURFACE ( 'NONE', #131, 5.750000000000000888, 0.7853981633974479459 ) ;
#236 = CARTESIAN_POINT ( 'NONE',  ( 3.735885032562152816E-13, 4.311809375152821738E-32, 107.0000000000000000 ) ) ;
#237 = CARTESIAN_POINT ( 'NONE',  ( 3.735885032562152816E-13, 5.749999999999987566, 107.0000000000000000 ) ) ;
#238 = LINE ( 'NONE', #137, #326 ) ;
#239 = ADVANCED_FACE ( 'NONE', ( #79 ), #63, .T. ) ;
#240 = EDGE_LOOP ( 'NONE', ( #329, #165 ) ) ;
#241 = CARTESIAN_POINT ( 'NONE',  ( 3.735885032562152816E-13, 5.749999999999987566, 107.0000000000000000 ) ) ;
#242 = APPROVAL_ROLE ( '' ) ;
#243 = MANIFOLD_SOLID_BREP ( 'Corps-Déplacer/Copier1[2]', #283 ) ;
#244 =( NAMED_UNIT ( * ) SI_UNIT ( $, .STERADIAN. ) SOLID_ANGLE_UNIT ( ) );
#245 = VERTEX_POINT ( 'NONE', #161 ) ;
#246 = ADVANCED_BREP_SHAPE_REPRESENTATION ( '54654', ( #129, #243, #298 ), #321 ) ;
#247 = COORDINATED_UNIVERSAL_TIME_OFFSET ( 1, 0, .AHEAD. ) ;
#248 = AXIS2_PLACEMENT_3D ( 'NONE', #277, #97, #101 ) ;
#249 = CC_DESIGN_PERSON_AND_ORGANIZATION_ASSIGNMENT ( #279, #53, ( #107 ) ) ;
#250 = DIRECTION ( 'NONE',  ( -3.491481338843133355E-15, 1.224646799147353207E-16, -1.000000000000000000 ) ) ;
#251 = CC_DESIGN_DATE_AND_TIME_ASSIGNMENT ( #300, #268, ( #167 ) ) ;
#252 = EDGE_LOOP ( 'NONE', ( #301, #305, #296 ) ) ;
#253 = VECTOR ( 'NONE', #103, 999.9999999999998863 ) ;
#254 = VERTEX_POINT ( 'NONE', #266 ) ;
#255 = CALENDAR_DATE ( 2021, 3, 9 ) ;
#256 = CARTESIAN_POINT ( 'NONE',  ( 3.700970219173721104E-13, -1.298125607096194306E-14, 106.0000000000000000 ) ) ;
#257 = ORIENTED_EDGE ( 'NONE', *, *, #83, .F. ) ;
#258 = CC_DESIGN_APPROVAL ( #163, ( #159 ) ) ;
#259 = CARTESIAN_POINT ( 'NONE',  ( 1.291848095371959215E-13, 5.061689266483757658E-32, 37.00000000000000000 ) ) ;
#260 = CARTESIAN_POINT ( 'NONE',  ( 1.291848095371959215E-13, -4.531193156845206793E-15, 37.00000000000000000 ) ) ;
#261 = DIRECTION ( 'NONE',  ( 0.0000000000000000000, 1.000000000000000000, 0.0000000000000000000 ) ) ;
#262 = EDGE_CURVE ( 'NONE', #337, #245, #3, .T. ) ;
#263 = EDGE_CURVE ( 'NONE', #245, #72, #288, .T. ) ;
#264 = DIRECTION ( 'NONE',  ( 4.275831445896958607E-31, 1.000000000000000000, 1.224646799147353207E-16 ) ) ;
#265 = CIRCLE ( 'NONE', #5, 5.750000000000000888 ) ;
#266 = CARTESIAN_POINT ( 'NONE',  ( 2.504675523167084719E-13, -6.749999999999996447, 37.00000000000000000 ) ) ;
#267 = VERTEX_POINT ( 'NONE', #56 ) ;
#268 = DATE_TIME_ROLE ( 'creation_date' ) ;
#269 = ORIENTED_EDGE ( 'NONE', *, *, #262, .F. ) ;
#270 = VECTOR ( 'NONE', #15, 1000.000000000000000 ) ;
#271 = ORIENTED_EDGE ( 'NONE', *, *, #10, .T. ) ;
#272 = DIRECTION ( 'NONE',  ( -3.491481338843133355E-15, 1.224646799147353207E-16, -1.000000000000000000 ) ) ;
#273 = EDGE_LOOP ( 'NONE', ( #297, #144 ) ) ;
#274 = CLOSED_SHELL ( 'NONE', ( #200, #62, #141, #183, #122, #100 ) ) ;
#275 = CARTESIAN_POINT ( 'NONE',  ( 0.0000000000000000000, 0.0000000000000000000, 0.0000000000000000000 ) ) ;
#276 = EDGE_CURVE ( 'NONE', #16, #332, #102, .T. ) ;
#277 = CARTESIAN_POINT ( 'NONE',  ( 3.700970219173721104E-13, -1.298125607096194306E-14, 106.0000000000000000 ) ) ;
#278 = ORIENTED_EDGE ( 'NONE', *, *, #111, .F. ) ;
#279 = PERSON_AND_ORGANIZATION ( #224, #280 ) ;
#280 = ORGANIZATION ( 'UNSPECIFIED', 'UNSPECIFIED', '' ) ;
#281 = EDGE_LOOP ( 'NONE', ( #139, #114, #123, #54 ) ) ;
#282 = CC_DESIGN_PERSON_AND_ORGANIZATION_ASSIGNMENT ( #94, #90, ( #107 ) ) ;
#283 = CLOSED_SHELL ( 'NONE', ( #66, #65, #34, #312, #239 ) ) ;
#284 = EDGE_CURVE ( 'NONE', #16, #119, #209, .T. ) ;
#285 = FACE_OUTER_BOUND ( 'NONE', #217, .T. ) ;
#286 = DIRECTION ( 'NONE',  ( -3.491481338843133355E-15, 1.224646799147353207E-16, -1.000000000000000000 ) ) ;
#287 = AXIS2_PLACEMENT_3D ( 'NONE', #188, #126, #264 ) ;
#288 = LINE ( 'NONE', #182, #89 ) ;
#289 = EDGE_CURVE ( 'NONE', #13, #267, #302, .T. ) ;
#290 = DIRECTION ( 'NONE',  ( -4.275831445896958607E-31, -1.000000000000000000, -1.224646799147353207E-16 ) ) ;
#291 = DIRECTION ( 'NONE',  ( -3.491481338843133355E-15, 1.224646799147353207E-16, -1.000000000000000000 ) ) ;
#292 = LINE ( 'NONE', #84, #2 ) ;
#293 = AXIS2_PLACEMENT_3D ( 'NONE', #153, #21, #206 ) ;
#294 = COORDINATED_UNIVERSAL_TIME_OFFSET ( 1, 0, .AHEAD. ) ;
#295 = DATE_AND_TIME ( #216, #227 ) ;
#296 = ORIENTED_EDGE ( 'NONE', *, *, #322, .T. ) ;
#297 = ORIENTED_EDGE ( 'NONE', *, *, #195, .F. ) ;
#298 = AXIS2_PLACEMENT_3D ( 'NONE', #113, #12, #319 ) ;
#299 = CIRCLE ( 'NONE', #45, 5.750000000000000888 ) ;
#300 = DATE_AND_TIME ( #215, #315 ) ;
#301 = ORIENTED_EDGE ( 'NONE', *, *, #323, .F. ) ;
#302 = LINE ( 'NONE', #134, #270 ) ;
#303 = ORIENTED_EDGE ( 'NONE', *, *, #276, .F. ) ;
#304 = DATE_AND_TIME ( #255, #185 ) ;
#305 = ORIENTED_EDGE ( 'NONE', *, *, #50, .T. ) ;
#306 = COORDINATED_UNIVERSAL_TIME_OFFSET ( 1, 0, .AHEAD. ) ;
#307 = ORIENTED_EDGE ( 'NONE', *, *, #284, .T. ) ;
#308 = DIRECTION ( 'NONE',  ( -4.565167275584567071E-31, -1.000000000000000000, -1.284980352575414918E-16 ) ) ;
#309 = APPROVAL_STATUS ( 'not_yet_approved' ) ;
#310 = AXIS2_PLACEMENT_3D ( 'NONE', #143, #41, #43 ) ;
#311 = ORIENTED_EDGE ( 'NONE', *, *, #276, .T. ) ;
#312 = ADVANCED_FACE ( 'NONE', ( #190 ), #142, .T. ) ;
#313 = CYLINDRICAL_SURFACE ( 'NONE', #198, 6.749999999999990230 ) ;
#314 = CARTESIAN_POINT ( 'NONE',  ( 2.886186225980442724E-30, 6.749999999999990230, 8.266365894244622500E-16 ) ) ;
#315 = LOCAL_TIME ( 9, 55, 13.00000000000000000, #294 ) ;
#316 = CARTESIAN_POINT ( 'NONE',  ( 3.735885032562152816E-13, -1.310372075087667979E-14, 107.0000000000000000 ) ) ;
#317 = DIRECTION ( 'NONE',  ( 0.0000000000000000000, 1.000000000000000000, 0.0000000000000000000 ) ) ;
#318 = DIRECTION ( 'NONE',  ( 3.491481338843133355E-15, -1.224646799147353207E-16, 1.000000000000000000 ) ) ;
#319 = DIRECTION ( 'NONE',  ( 1.000000000000000000, 0.0000000000000000000, 0.0000000000000000000 ) ) ;
#320 = CC_DESIGN_PERSON_AND_ORGANIZATION_ASSIGNMENT ( #189, #36, ( #73 ) ) ;
#321 =( GEOMETRIC_REPRESENTATION_CONTEXT ( 3 ) GLOBAL_UNCERTAINTY_ASSIGNED_CONTEXT ( ( #331 ) ) GLOBAL_UNIT_ASSIGNED_CONTEXT ( ( #112, #14, #244 ) ) REPRESENTATION_CONTEXT ( 'NONE', 'WORKASPACE' ) );
#322 = EDGE_CURVE ( 'NONE', #37, #332, #150, .T. ) ;
#323 = EDGE_CURVE ( 'NONE', #39, #332, #238, .T. ) ;
#324 = VECTOR ( 'NONE', #202, 1000.000000000000000 ) ;
#325 = PERSON_AND_ORGANIZATION ( #224, #280 ) ;
#326 = VECTOR ( 'NONE', #88, 999.9999999999998863 ) ;
#327 = CIRCLE ( 'NONE', #180, 6.749999999999992006 ) ;
#328 = CARTESIAN_POINT ( 'NONE',  ( 1.416078206041823605E-14, -4.966933728324188612E-16, 4.055809178436069473 ) ) ;
#329 = ORIENTED_EDGE ( 'NONE', *, *, #284, .F. ) ;
#330 = ORIENTED_EDGE ( 'NONE', *, *, #99, .T. ) ;
#331 = UNCERTAINTY_MEASURE_WITH_UNIT (LENGTH_MEASURE( 1.000000000000000082E-05 ), #112, 'distance_accuracy_value', 'NONE');
#332 = VERTEX_POINT ( 'NONE', #168 ) ;
#333 = AXIS2_PLACEMENT_3D ( 'NONE', #132, #318, #28 ) ;
#334 = ORIENTED_EDGE ( 'NONE', *, *, #322, .F. ) ;
#335 = EDGE_LOOP ( 'NONE', ( #87, #77 ) ) ;
#336 = APPROVAL_DATE_TIME ( #304, #163 ) ;
#337 = VERTEX_POINT ( 'NONE', #241 ) ;
ENDSEC;
END-ISO-10303-21;
