ISO-10303-21;
HEADER;
FILE_DESCRIPTION (( 'STEP AP203' ),
    '1' );
FILE_NAME ('54653.step',
    '2021-09-03T07:55:08',
    ( '' ),
    ( '' ),
    'SwSTEP 2.0',
    'SolidWorks 2019',
    '' );
FILE_SCHEMA (( 'CONFIG_CONTROL_DESIGN' ));
ENDSEC;

DATA;
#1 = CARTESIAN_POINT ( 'NONE',  ( 1.222018468595096801E-13, -4.286263797015736496E-15, 35.00000000000000000 ) ) ;
#2 = DIRECTION ( 'NONE',  ( -3.491481338843133355E-15, 1.224646799147353207E-16, -1.000000000000000000 ) ) ;
#3 = EDGE_LOOP ( 'NONE', ( #190, #38, #292, #159 ) ) ;
#4 = DATE_TIME_ROLE ( 'classification_date' ) ;
#5 = EDGE_CURVE ( 'NONE', #324, #335, #188, .T. ) ;
#6 = DATE_AND_TIME ( #10, #94 ) ;
#7 = CIRCLE ( 'NONE', #236, 6.499999999999992895 ) ;
#8 = ORIENTED_EDGE ( 'NONE', *, *, #49, .F. ) ;
#9 = EDGE_CURVE ( 'NONE', #261, #335, #54, .T. ) ;
#10 = CALENDAR_DATE ( 2021, 3, 9 ) ;
#11 = VERTEX_POINT ( 'NONE', #244 ) ;
#12 = PRODUCT_DEFINITION_SHAPE ( 'NONE', 'NONE',  #179 ) ;
#13 = CARTESIAN_POINT ( 'NONE',  ( 3.561310965619995770E-13, -1.249139735130300089E-14, 102.0000000000000000 ) ) ;
#14 = DIRECTION ( 'NONE',  ( 0.0000000000000000000, 1.000000000000000000, 0.0000000000000000000 ) ) ;
#15 = VECTOR ( 'NONE', #117, 1000.000000000000000 ) ;
#16 = LOCAL_TIME ( 9, 55, 8.000000000000000000, #161 ) ;
#17 = EDGE_CURVE ( 'NONE', #293, #322, #143, .T. ) ;
#18 = CARTESIAN_POINT ( 'NONE',  ( 1.363630865077311480E-14, -6.499999999999990230, 3.905594023679177074 ) ) ;
#19 = FACE_OUTER_BOUND ( 'NONE', #3, .T. ) ;
#20 = DIRECTION ( 'NONE',  ( 0.0000000000000000000, 1.000000000000000000, 0.0000000000000000000 ) ) ;
#21 = CARTESIAN_POINT ( 'NONE',  ( 3.561310965619995770E-13, 4.124339402320090905E-32, 102.0000000000000000 ) ) ;
#22 = FACE_OUTER_BOUND ( 'NONE', #58, .T. ) ;
#23 = DIRECTION ( 'NONE',  ( -4.275831445896958607E-31, -1.000000000000000000, -1.224646799147353207E-16 ) ) ;
#24 = VECTOR ( 'NONE', #300, 999.9999999999998863 ) ;
#25 = ORIENTED_EDGE ( 'NONE', *, *, #254, .F. ) ;
#26 = DIRECTION ( 'NONE',  ( -3.491481338843133355E-15, 1.224646799147353207E-16, -1.000000000000000000 ) ) ;
#27 = CARTESIAN_POINT ( 'NONE',  ( 2.779290439833021956E-30, 6.499999999999997335, 7.960204194457792519E-16 ) ) ;
#28 = ORIENTED_EDGE ( 'NONE', *, *, #9, .T. ) ;
#29 = EDGE_CURVE ( 'NONE', #128, #11, #96, .T. ) ;
#30 = PERSON_AND_ORGANIZATION ( #147, #45 ) ;
#31 = CONICAL_SURFACE ( 'NONE', #151, 5.500000000000000888, 0.7853981633974410625 ) ;
#32 = COORDINATED_UNIVERSAL_TIME_OFFSET ( 1, 0, .AHEAD. ) ;
#33 = ORIENTED_EDGE ( 'NONE', *, *, #311, .T. ) ;
#34 = CC_DESIGN_DATE_AND_TIME_ASSIGNMENT ( #284, #110, ( #179 ) ) ;
#35 = CLOSED_SHELL ( 'NONE', ( #74, #148, #72, #185, #192, #310 ) ) ;
#36 = PERSON_AND_ORGANIZATION ( #147, #45 ) ;
#37 = LOCAL_TIME ( 9, 55, 8.000000000000000000, #32 ) ;
#38 = ORIENTED_EDGE ( 'NONE', *, *, #156, .T. ) ;
#39 = DIRECTION ( 'NONE',  ( 3.491481338843133355E-15, -1.224646799147353207E-16, 1.000000000000000000 ) ) ;
#40 = CARTESIAN_POINT ( 'NONE',  ( 1.363630865077311795E-14, -4.782973219867736926E-16, 3.905594023679177962 ) ) ;
#41 = DIRECTION ( 'NONE',  ( -3.491481338843133355E-15, 1.224646799147353207E-16, -1.000000000000000000 ) ) ;
#42 = SECURITY_CLASSIFICATION ( '', '', #160 ) ;
#43 = DIRECTION ( 'NONE',  ( -3.491481338843133355E-15, 1.224646799147353207E-16, -1.000000000000000000 ) ) ;
#44 = DIRECTION ( 'NONE',  ( -3.491481338843133355E-15, 1.224646799147353207E-16, -1.000000000000000000 ) ) ;
#45 = ORGANIZATION ( 'UNSPECIFIED', 'UNSPECIFIED', '' ) ;
#46 = EDGE_CURVE ( 'NONE', #261, #11, #62, .T. ) ;
#47 = CARTESIAN_POINT ( 'NONE',  ( 2.382167514607788592E-13, -6.499999999999997335, 35.00000000000000000 ) ) ;
#48 = DIRECTION ( 'NONE',  ( -3.491481338843133355E-15, 1.224646799147353207E-16, -1.000000000000000000 ) ) ;
#49 = EDGE_CURVE ( 'NONE', #140, #238, #225, .T. ) ;
#50 = CARTESIAN_POINT ( 'NONE',  ( 1.363630865077311795E-14, -4.782973219867736926E-16, 3.905594023679177962 ) ) ;
#51 = CONICAL_SURFACE ( 'NONE', #99, 6.499999999999989342, 1.029744258676649649 ) ;
#52 = ORIENTED_EDGE ( 'NONE', *, *, #311, .F. ) ;
#53 = CARTESIAN_POINT ( 'NONE',  ( 2.382167514607787583E-13, -6.500000000000012434, 100.9999999999999716 ) ) ;
#54 = LINE ( 'NONE', #253, #232 ) ;
#55 = DATE_AND_TIME ( #135, #37 ) ;
#56 = CIRCLE ( 'NONE', #172, 6.499999999999989342 ) ;
#57 = CC_DESIGN_PERSON_AND_ORGANIZATION_ASSIGNMENT ( #237, #318, ( #288 ) ) ;
#58 = EDGE_LOOP ( 'NONE', ( #216, #126, #87 ) ) ;
#59 = PERSON_AND_ORGANIZATION ( #147, #45 ) ;
#60 = ORIENTED_EDGE ( 'NONE', *, *, #257, .T. ) ;
#61 = PRODUCT ( '54653', '54653', '', ( #187 ) ) ;
#62 = CIRCLE ( 'NONE', #106, 6.500000000000000888 ) ;
#63 = ORIENTED_EDGE ( 'NONE', *, *, #46, .F. ) ;
#64 = EDGE_CURVE ( 'NONE', #293, #308, #150, .T. ) ;
#65 = ADVANCED_FACE ( 'NONE', ( #298 ), #198, .T. ) ;
#66 = CYLINDRICAL_SURFACE ( 'NONE', #314, 6.499999999999997335 ) ;
#67 = CYLINDRICAL_SURFACE ( 'NONE', #138, 6.499999999999991118 ) ;
#68 = CONICAL_SURFACE ( 'NONE', #155, 6.499999999999989342, 1.029744258676649649 ) ;
#69 = FACE_OUTER_BOUND ( 'NONE', #84, .T. ) ;
#70 = DIRECTION ( 'NONE',  ( 0.0000000000000000000, 1.000000000000000000, 0.0000000000000000000 ) ) ;
#71 = CARTESIAN_POINT ( 'NONE',  ( 3.561310965619995770E-13, 5.499999999999988454, 102.0000000000000000 ) ) ;
#72 = ADVANCED_FACE ( 'NONE', ( #220 ), #297, .F. ) ;
#73 = CARTESIAN_POINT ( 'NONE',  ( 1.363630865077311795E-14, -4.782973219867736926E-16, 3.905594023679177962 ) ) ;
#74 = ADVANCED_FACE ( 'NONE', ( #120 ), #125, .T. ) ;
#75 =( NAMED_UNIT ( * ) SI_UNIT ( $, .STERADIAN. ) SOLID_ANGLE_UNIT ( ) );
#76 = ORIENTED_EDGE ( 'NONE', *, *, #285, .T. ) ;
#77 = LINE ( 'NONE', #27, #162 ) ;
#78 = CIRCLE ( 'NONE', #182, 6.500000000000000888 ) ;
#79 = ORIENTED_EDGE ( 'NONE', *, *, #130, .T. ) ;
#80 = APPLICATION_PROTOCOL_DEFINITION ( 'international standard', 'config_control_design', 1994, #319 ) ;
#81 =( GEOMETRIC_REPRESENTATION_CONTEXT ( 3 ) GLOBAL_UNCERTAINTY_ASSIGNED_CONTEXT ( ( #101 ) ) GLOBAL_UNIT_ASSIGNED_CONTEXT ( ( #271, #100, #75 ) ) REPRESENTATION_CONTEXT ( 'NONE', 'WORKASPACE' ) );
#82 = CC_DESIGN_PERSON_AND_ORGANIZATION_ASSIGNMENT ( #30, #166, ( #42 ) ) ;
#83 = APPROVAL_ROLE ( '' ) ;
#84 = EDGE_LOOP ( 'NONE', ( #79, #28, #180, #165 ) ) ;
#85 = APPROVAL_STATUS ( 'not_yet_approved' ) ;
#86 = EDGE_LOOP ( 'NONE', ( #111, #183, #210 ) ) ;
#87 = ORIENTED_EDGE ( 'NONE', *, *, #122, .T. ) ;
#88 = CIRCLE ( 'NONE', #218, 6.499999999999989342 ) ;
#89 = DIRECTION ( 'NONE',  ( 0.0000000000000000000, 1.000000000000000000, 0.0000000000000000000 ) ) ;
#90 = CARTESIAN_POINT ( 'NONE',  ( 0.0000000000000000000, 0.0000000000000000000, 0.0000000000000000000 ) ) ;
#91 = DIRECTION ( 'NONE',  ( -3.491481338843133355E-15, 1.224646799147353207E-16, -1.000000000000000000 ) ) ;
#92 = AXIS2_PLACEMENT_3D ( 'NONE', #299, #91, #89 ) ;
#93 = DIRECTION ( 'NONE',  ( -3.491481338843133355E-15, 1.224646799147353207E-16, -1.000000000000000000 ) ) ;
#94 = LOCAL_TIME ( 9, 55, 8.000000000000000000, #262 ) ;
#95 = CC_DESIGN_PERSON_AND_ORGANIZATION_ASSIGNMENT ( #259, #186, ( #179 ) ) ;
#96 = LINE ( 'NONE', #71, #24 ) ;
#97 = DIRECTION ( 'NONE',  ( 4.740750632337819011E-31, 1.000000000000000000, 1.334402673828315311E-16 ) ) ;
#98 = ADVANCED_FACE ( 'NONE', ( #19 ), #67, .T. ) ;
#99 = AXIS2_PLACEMENT_3D ( 'NONE', #73, #207, #204 ) ;
#100 =( NAMED_UNIT ( * ) PLANE_ANGLE_UNIT ( ) SI_UNIT ( $, .RADIAN. ) );
#101 = UNCERTAINTY_MEASURE_WITH_UNIT (LENGTH_MEASURE( 1.000000000000000082E-05 ), #271, 'distance_accuracy_value', 'NONE');
#102 = ORIENTED_EDGE ( 'NONE', *, *, #249, .F. ) ;
#103 = DIRECTION ( 'NONE',  ( -3.491481338843133355E-15, 1.224646799147353207E-16, -1.000000000000000000 ) ) ;
#104 = APPROVAL ( #136, 'UNSPECIFIED' ) ;
#105 = FACE_OUTER_BOUND ( 'NONE', #282, .T. ) ;
#106 = AXIS2_PLACEMENT_3D ( 'NONE', #142, #270, #174 ) ;
#107 = EDGE_LOOP ( 'NONE', ( #252, #33 ) ) ;
#108 = APPROVAL_DATE_TIME ( #234, #104 ) ;
#109 = APPROVAL_ROLE ( '' ) ;
#110 = DATE_TIME_ROLE ( 'creation_date' ) ;
#111 = ORIENTED_EDGE ( 'NONE', *, *, #17, .F. ) ;
#112 = ORIENTED_EDGE ( 'NONE', *, *, #29, .F. ) ;
#113 = DIRECTION ( 'NONE',  ( 4.275831445896958607E-31, 1.000000000000000000, 1.224646799147353207E-16 ) ) ;
#114 = AXIS2_PLACEMENT_3D ( 'NONE', #336, #26, #154 ) ;
#115 = CC_DESIGN_APPROVAL ( #337, ( #179 ) ) ;
#116 = CARTESIAN_POINT ( 'NONE',  ( 0.0000000000000000000, 0.0000000000000000000, 0.0000000000000000000 ) ) ;
#117 = DIRECTION ( 'NONE',  ( 1.798245827342160317E-15, -0.8571673007021098911, 0.5150380749100582634 ) ) ;
#118 = FACE_OUTER_BOUND ( 'NONE', #206, .T. ) ;
#119 = CLOSED_SHELL ( 'NONE', ( #65, #281, #302, #98, #286 ) ) ;
#120 = FACE_OUTER_BOUND ( 'NONE', #235, .T. ) ;
#121 = LOCAL_TIME ( 9, 55, 8.000000000000000000, #213 ) ;
#122 = EDGE_CURVE ( 'NONE', #322, #308, #88, .T. ) ;
#123 = DIRECTION ( 'NONE',  ( -3.491481338843133355E-15, 1.224646799147353207E-16, -1.000000000000000000 ) ) ;
#124 = DIRECTION ( 'NONE',  ( 3.491481338843133355E-15, -1.224646799147353207E-16, 1.000000000000000000 ) ) ;
#125 = CONICAL_SURFACE ( 'NONE', #272, 5.500000000000000888, 0.7853981633974410625 ) ;
#126 = ORIENTED_EDGE ( 'NONE', *, *, #17, .T. ) ;
#127 = CARTESIAN_POINT ( 'NONE',  ( 1.222018468595096801E-13, -4.286263797015736496E-15, 35.00000000000000000 ) ) ;
#128 = VERTEX_POINT ( 'NONE', #219 ) ;
#129 = CC_DESIGN_DATE_AND_TIME_ASSIGNMENT ( #6, #4, ( #42 ) ) ;
#130 = EDGE_CURVE ( 'NONE', #11, #261, #78, .T. ) ;
#131 = CARTESIAN_POINT ( 'NONE',  ( 6.871509817458715696E-14, -6.499999999999996447, 35.00000000000000000 ) ) ;
#132 = EDGE_LOOP ( 'NONE', ( #169, #102 ) ) ;
#133 = PERSON_AND_ORGANIZATION ( #147, #45 ) ;
#134 = CC_DESIGN_APPROVAL ( #104, ( #42 ) ) ;
#135 = CALENDAR_DATE ( 2021, 3, 9 ) ;
#136 = APPROVAL_STATUS ( 'not_yet_approved' ) ;
#137 = ORIENTED_EDGE ( 'NONE', *, *, #141, .T. ) ;
#138 = AXIS2_PLACEMENT_3D ( 'NONE', #326, #43, #265 ) ;
#139 = CARTESIAN_POINT ( 'NONE',  ( 0.0000000000000000000, 0.0000000000000000000, 0.0000000000000000000 ) ) ;
#140 = VERTEX_POINT ( 'NONE', #197 ) ;
#141 = EDGE_CURVE ( 'NONE', #128, #193, #333, .T. ) ;
#142 = CARTESIAN_POINT ( 'NONE',  ( 3.526396152231564058E-13, -1.236893267138826416E-14, 100.9999999999999716 ) ) ;
#143 = LINE ( 'NONE', #18, #15 ) ;
#144 = AXIS2_PLACEMENT_3D ( 'NONE', #21, #251, #315 ) ;
#145 = CC_DESIGN_SECURITY_CLASSIFICATION ( #42, ( #288 ) ) ;
#146 = DIRECTION ( 'NONE',  ( -3.491481338843133355E-15, 1.224646799147353207E-16, -1.000000000000000000 ) ) ;
#147 = PERSON ( 'UNSPECIFIED', 'UNSPECIFIED', 'UNSPECIFIED', ('UNSPECIFIED'), ('UNSPECIFIED'), ('UNSPECIFIED') ) ;
#148 = ADVANCED_FACE ( 'NONE', ( #69 ), #173, .T. ) ;
#149 = DIRECTION ( 'NONE',  ( 4.275831445896958607E-31, 1.000000000000000000, 1.224646799147353207E-16 ) ) ;
#150 = LINE ( 'NONE', #245, #176 ) ;
#151 = AXIS2_PLACEMENT_3D ( 'NONE', #330, #93, #199 ) ;
#152 = DIRECTION ( 'NONE',  ( -2.382254525458735219E-15, -0.7071067811865422437, -0.7071067811865527908 ) ) ;
#153 = FACE_OUTER_BOUND ( 'NONE', #86, .T. ) ;
#154 = DIRECTION ( 'NONE',  ( 0.0000000000000000000, 1.000000000000000000, 0.0000000000000000000 ) ) ;
#155 = AXIS2_PLACEMENT_3D ( 'NONE', #50, #124, #226 ) ;
#156 = EDGE_CURVE ( 'NONE', #238, #140, #279, .T. ) ;
#157 = ORIENTED_EDGE ( 'NONE', *, *, #239, .F. ) ;
#158 = CARTESIAN_POINT ( 'NONE',  ( 1.222018468595096801E-13, 6.499999999999988454, 35.00000000000000000 ) ) ;
#159 = ORIENTED_EDGE ( 'NONE', *, *, #122, .F. ) ;
#160 = SECURITY_CLASSIFICATION_LEVEL ( 'unclassified' ) ;
#161 = COORDINATED_UNIVERSAL_TIME_OFFSET ( 1, 0, .AHEAD. ) ;
#162 = VECTOR ( 'NONE', #2, 1000.000000000000000 ) ;
#163 = APPROVAL_DATE_TIME ( #283, #337 ) ;
#164 = APPROVAL_STATUS ( 'not_yet_approved' ) ;
#165 = ORIENTED_EDGE ( 'NONE', *, *, #257, .F. ) ;
#166 = PERSON_AND_ORGANIZATION_ROLE ( 'classification_officer' ) ;
#167 = ORIENTED_EDGE ( 'NONE', *, *, #9, .F. ) ;
#168 = AXIS2_PLACEMENT_3D ( 'NONE', #171, #267, #70 ) ;
#169 = ORIENTED_EDGE ( 'NONE', *, *, #141, .F. ) ;
#170 = DIRECTION ( 'NONE',  ( -3.491481338843133355E-15, 1.224646799147353207E-16, -1.000000000000000000 ) ) ;
#171 = CARTESIAN_POINT ( 'NONE',  ( 1.222018468595096801E-13, -4.286263797015736496E-15, 35.00000000000000000 ) ) ;
#172 = AXIS2_PLACEMENT_3D ( 'NONE', #306, #48, #97 ) ;
#173 = CYLINDRICAL_SURFACE ( 'NONE', #264, 6.499999999999997335 ) ;
#174 = DIRECTION ( 'NONE',  ( 0.0000000000000000000, 1.000000000000000000, 0.0000000000000000000 ) ) ;
#175 = DIRECTION ( 'NONE',  ( -3.491481338843133355E-15, 1.224646799147353207E-16, -1.000000000000000000 ) ) ;
#176 = VECTOR ( 'NONE', #301, 999.9999999999998863 ) ;
#177 = PLANE ( 'NONE',  #144 ) ;
#178 = DIRECTION ( 'NONE',  ( -3.491481338843133355E-15, 1.224646799147353207E-16, -1.000000000000000000 ) ) ;
#179 = PRODUCT_DEFINITION ( 'UNKNOWN', '', #288, #307 ) ;
#180 = ORIENTED_EDGE ( 'NONE', *, *, #5, .F. ) ;
#181 = CARTESIAN_POINT ( 'NONE',  ( 0.0000000000000000000, 0.0000000000000000000, 0.0000000000000000000 ) ) ;
#182 = AXIS2_PLACEMENT_3D ( 'NONE', #241, #41, #14 ) ;
#183 = ORIENTED_EDGE ( 'NONE', *, *, #64, .T. ) ;
#184 = DIRECTION ( 'NONE',  ( 0.0000000000000000000, 0.0000000000000000000, 1.000000000000000000 ) ) ;
#185 = ADVANCED_FACE ( 'NONE', ( #118 ), #66, .T. ) ;
#186 = PERSON_AND_ORGANIZATION_ROLE ( 'creator' ) ;
#187 = MECHANICAL_CONTEXT ( 'NONE', #202, 'mechanical' ) ;
#188 = CIRCLE ( 'NONE', #256, 6.499999999999992895 ) ;
#189 = CALENDAR_DATE ( 2021, 3, 9 ) ;
#190 = ORIENTED_EDGE ( 'NONE', *, *, #285, .F. ) ;
#191 = COORDINATED_UNIVERSAL_TIME_OFFSET ( 1, 0, .AHEAD. ) ;
#192 = ADVANCED_FACE ( 'NONE', ( #266 ), #31, .T. ) ;
#193 = VERTEX_POINT ( 'NONE', #274 ) ;
#194 = ORIENTED_EDGE ( 'NONE', *, *, #249, .T. ) ;
#195 = CIRCLE ( 'NONE', #114, 5.500000000000000888 ) ;
#196 = CARTESIAN_POINT ( 'NONE',  ( 0.0000000000000000000, 0.0000000000000000000, 0.0000000000000000000 ) ) ;
#197 = CARTESIAN_POINT ( 'NONE',  ( 1.222018468595096801E-13, 6.499999999999988454, 35.00000000000000000 ) ) ;
#198 = CYLINDRICAL_SURFACE ( 'NONE', #222, 6.499999999999991118 ) ;
#199 = DIRECTION ( 'NONE',  ( 0.0000000000000000000, 1.000000000000000000, 0.0000000000000000000 ) ) ;
#200 = CC_DESIGN_PERSON_AND_ORGANIZATION_ASSIGNMENT ( #59, #233, ( #288 ) ) ;
#201 = DIRECTION ( 'NONE',  ( -3.491481338843133355E-15, 1.224646799147353207E-16, -1.000000000000000000 ) ) ;
#202 = APPLICATION_CONTEXT ( 'configuration controlled 3d designs of mechanical parts and assemblies' ) ;
#203 = AXIS2_PLACEMENT_3D ( 'NONE', #328, #240, #20 ) ;
#204 = DIRECTION ( 'NONE',  ( -4.740750632337819011E-31, -1.000000000000000000, -1.334402673828315311E-16 ) ) ;
#205 = LINE ( 'NONE', #230, #294 ) ;
#206 = EDGE_LOOP ( 'NONE', ( #167, #316, #60, #52 ) ) ;
#207 = DIRECTION ( 'NONE',  ( 3.491481338843133355E-15, -1.224646799147353207E-16, 1.000000000000000000 ) ) ;
#208 = DIRECTION ( 'NONE',  ( 0.0000000000000000000, 1.000000000000000000, 0.0000000000000000000 ) ) ;
#209 = CARTESIAN_POINT ( 'NONE',  ( 1.222018468595096801E-13, 4.874219293651025730E-32, 35.00000000000000000 ) ) ;
#210 = ORIENTED_EDGE ( 'NONE', *, *, #260, .T. ) ;
#211 = APPROVAL_ROLE ( '' ) ;
#212 = PERSON_AND_ORGANIZATION ( #147, #45 ) ;
#213 = COORDINATED_UNIVERSAL_TIME_OFFSET ( 1, 0, .AHEAD. ) ;
#214 = ORIENTED_EDGE ( 'NONE', *, *, #29, .T. ) ;
#215 = PERSON_AND_ORGANIZATION ( #147, #45 ) ;
#216 = ORIENTED_EDGE ( 'NONE', *, *, #64, .F. ) ;
#217 = DIRECTION ( 'NONE',  ( -4.275831445896958607E-31, -1.000000000000000000, -1.224646799147353207E-16 ) ) ;
#218 = AXIS2_PLACEMENT_3D ( 'NONE', #40, #146, #246 ) ;
#219 = CARTESIAN_POINT ( 'NONE',  ( 3.561310965619995770E-13, 5.499999999999988454, 102.0000000000000000 ) ) ;
#220 = FACE_OUTER_BOUND ( 'NONE', #107, .T. ) ;
#221 = DIRECTION ( 'NONE',  ( 4.275831445896958607E-31, 1.000000000000000000, 1.224646799147353207E-16 ) ) ;
#222 = AXIS2_PLACEMENT_3D ( 'NONE', #90, #329, #113 ) ;
#223 = DIRECTION ( 'NONE',  ( -3.491481338843133355E-15, 1.224646799147353207E-16, -1.000000000000000000 ) ) ;
#224 = PLANE ( 'NONE',  #242 ) ;
#225 = CIRCLE ( 'NONE', #203, 6.499999999999992895 ) ;
#226 = DIRECTION ( 'NONE',  ( -4.740750632337819011E-31, -1.000000000000000000, -1.334402673828315311E-16 ) ) ;
#227 = ORIENTED_EDGE ( 'NONE', *, *, #156, .F. ) ;
#228 = DIRECTION ( 'NONE',  ( 0.0000000000000000000, 1.000000000000000000, 0.0000000000000000000 ) ) ;
#229 = ORIENTED_EDGE ( 'NONE', *, *, #130, .F. ) ;
#230 = CARTESIAN_POINT ( 'NONE',  ( 3.568046523015306077E-13, -5.500000000000012434, 102.0000000000000000 ) ) ;
#231 = EDGE_LOOP ( 'NONE', ( #263, #76, #278, #25 ) ) ;
#232 = VECTOR ( 'NONE', #201, 1000.000000000000000 ) ;
#233 = PERSON_AND_ORGANIZATION_ROLE ( 'creator' ) ;
#234 = DATE_AND_TIME ( #189, #121 ) ;
#235 = EDGE_LOOP ( 'NONE', ( #137, #290, #229, #112 ) ) ;
#236 = AXIS2_PLACEMENT_3D ( 'NONE', #127, #175, #228 ) ;
#237 = PERSON_AND_ORGANIZATION ( #147, #45 ) ;
#238 = VERTEX_POINT ( 'NONE', #131 ) ;
#239 = EDGE_CURVE ( 'NONE', #193, #261, #205, .T. ) ;
#240 = DIRECTION ( 'NONE',  ( -3.491481338843133355E-15, 1.224646799147353207E-16, -1.000000000000000000 ) ) ;
#241 = CARTESIAN_POINT ( 'NONE',  ( 3.526396152231564058E-13, -1.236893267138826416E-14, 100.9999999999999716 ) ) ;
#242 = AXIS2_PLACEMENT_3D ( 'NONE', #209, #332, #23 ) ;
#243 = CC_DESIGN_APPROVAL ( #312, ( #288 ) ) ;
#244 = CARTESIAN_POINT ( 'NONE',  ( 3.526396152231564058E-13, 6.499999999999988454, 100.9999999999999716 ) ) ;
#245 = CARTESIAN_POINT ( 'NONE',  ( 1.443232907021889957E-14, 6.499999999999988454, 3.905594023679178850 ) ) ;
#246 = DIRECTION ( 'NONE',  ( 4.740750632337819011E-31, 1.000000000000000000, 1.334402673828315311E-16 ) ) ;
#247 = AXIS2_PLACEMENT_3D ( 'NONE', #331, #39, #217 ) ;
#248 = LINE ( 'NONE', #309, #304 ) ;
#249 = EDGE_CURVE ( 'NONE', #193, #128, #195, .T. ) ;
#250 = LINE ( 'NONE', #277, #334 ) ;
#251 = DIRECTION ( 'NONE',  ( -3.491481338843133355E-15, 1.224646799147353207E-16, -1.000000000000000000 ) ) ;
#252 = ORIENTED_EDGE ( 'NONE', *, *, #5, .T. ) ;
#253 = CARTESIAN_POINT ( 'NONE',  ( 7.960204194457764908E-16, -6.499999999999997335, -7.960204194457819143E-16 ) ) ;
#254 = EDGE_CURVE ( 'NONE', #140, #308, #248, .T. ) ;
#255 = DIRECTION ( 'NONE',  ( 1.000000000000000000, 0.0000000000000000000, 0.0000000000000000000 ) ) ;
#256 = AXIS2_PLACEMENT_3D ( 'NONE', #1, #103, #208 ) ;
#257 = EDGE_CURVE ( 'NONE', #11, #324, #77, .T. ) ;
#258 = APPROVAL_PERSON_ORGANIZATION ( #212, #312, #211 ) ;
#259 = PERSON_AND_ORGANIZATION ( #147, #45 ) ;
#260 = EDGE_CURVE ( 'NONE', #308, #322, #56, .T. ) ;
#261 = VERTEX_POINT ( 'NONE', #53 ) ;
#262 = COORDINATED_UNIVERSAL_TIME_OFFSET ( 1, 0, .AHEAD. ) ;
#263 = ORIENTED_EDGE ( 'NONE', *, *, #49, .T. ) ;
#264 = AXIS2_PLACEMENT_3D ( 'NONE', #196, #170, #149 ) ;
#265 = DIRECTION ( 'NONE',  ( 4.275831445896958607E-31, 1.000000000000000000, 1.224646799147353207E-16 ) ) ;
#266 = FACE_OUTER_BOUND ( 'NONE', #313, .T. ) ;
#267 = DIRECTION ( 'NONE',  ( -3.491481338843133355E-15, 1.224646799147353207E-16, -1.000000000000000000 ) ) ;
#268 = APPROVAL_PERSON_ORGANIZATION ( #133, #104, #109 ) ;
#269 = DIRECTION ( 'NONE',  ( 0.0000000000000000000, 1.000000000000000000, 0.0000000000000000000 ) ) ;
#270 = DIRECTION ( 'NONE',  ( -3.491481338843133355E-15, 1.224646799147353207E-16, -1.000000000000000000 ) ) ;
#271 =( LENGTH_UNIT ( ) NAMED_UNIT ( * ) SI_UNIT ( .MILLI., .METRE. ) );
#272 = AXIS2_PLACEMENT_3D ( 'NONE', #13, #44, #269 ) ;
#273 = APPROVAL_PERSON_ORGANIZATION ( #36, #337, #83 ) ;
#274 = CARTESIAN_POINT ( 'NONE',  ( 3.551201439720664275E-13, -5.500000000000012434, 102.0000000000000000 ) ) ;
#275 = CARTESIAN_POINT ( 'NONE',  ( 1.363630865077311480E-14, -6.499999999999990230, 3.905594023679177074 ) ) ;
#276 = ADVANCED_BREP_SHAPE_REPRESENTATION ( '54653', ( #289, #296, #295 ), #81 ) ;
#277 = CARTESIAN_POINT ( 'NONE',  ( 7.960204194457758006E-16, -6.499999999999991118, -7.960204194457812240E-16 ) ) ;
#278 = ORIENTED_EDGE ( 'NONE', *, *, #260, .F. ) ;
#279 = CIRCLE ( 'NONE', #168, 6.499999999999992895 ) ;
#280 = CARTESIAN_POINT ( 'NONE',  ( 1.443232907021889957E-14, 6.499999999999988454, 3.905594023679178850 ) ) ;
#281 = ADVANCED_FACE ( 'NONE', ( #153 ), #51, .T. ) ;
#282 = EDGE_LOOP ( 'NONE', ( #8, #227 ) ) ;
#283 = DATE_AND_TIME ( #287, #16 ) ;
#284 = DATE_AND_TIME ( #321, #327 ) ;
#285 = EDGE_CURVE ( 'NONE', #238, #322, #250, .T. ) ;
#286 = ADVANCED_FACE ( 'NONE', ( #105 ), #224, .T. ) ;
#287 = CALENDAR_DATE ( 2021, 3, 9 ) ;
#288 = PRODUCT_DEFINITION_FORMATION_WITH_SPECIFIED_SOURCE ( 'ANY', '', #61, .NOT_KNOWN. ) ;
#289 = MANIFOLD_SOLID_BREP ( 'Corps-Déplacer/Copier1[1]', #35 ) ;
#290 = ORIENTED_EDGE ( 'NONE', *, *, #239, .T. ) ;
#291 = APPROVAL_DATE_TIME ( #55, #312 ) ;
#292 = ORIENTED_EDGE ( 'NONE', *, *, #254, .T. ) ;
#293 = VERTEX_POINT ( 'NONE', #181 ) ;
#294 = VECTOR ( 'NONE', #152, 1000.000000000000000 ) ;
#295 = AXIS2_PLACEMENT_3D ( 'NONE', #139, #184, #255 ) ;
#296 = MANIFOLD_SOLID_BREP ( 'Corps-Déplacer/Copier1[2]', #119 ) ;
#297 = PLANE ( 'NONE',  #247 ) ;
#298 = FACE_OUTER_BOUND ( 'NONE', #231, .T. ) ;
#299 = CARTESIAN_POINT ( 'NONE',  ( 3.561310965619995770E-13, -1.249139735130300089E-14, 102.0000000000000000 ) ) ;
#300 = DIRECTION ( 'NONE',  ( -2.468850131082283487E-15, 0.7071067811865424657, -0.7071067811865526798 ) ) ;
#301 = DIRECTION ( 'NONE',  ( 1.903218546456022717E-15, 0.8571673007021097801, 0.5150380749100585964 ) ) ;
#302 = ADVANCED_FACE ( 'NONE', ( #22 ), #68, .T. ) ;
#303 = APPLICATION_PROTOCOL_DEFINITION ( 'international standard', 'config_control_design', 1994, #202 ) ;
#304 = VECTOR ( 'NONE', #178, 1000.000000000000000 ) ;
#305 = FACE_OUTER_BOUND ( 'NONE', #132, .T. ) ;
#306 = CARTESIAN_POINT ( 'NONE',  ( 1.363630865077311795E-14, -4.782973219867736926E-16, 3.905594023679177962 ) ) ;
#307 = DESIGN_CONTEXT ( 'detailed design', #319, 'design' ) ;
#308 = VERTEX_POINT ( 'NONE', #280 ) ;
#309 = CARTESIAN_POINT ( 'NONE',  ( 2.779290439833019153E-30, 6.499999999999991118, 7.960204194457784630E-16 ) ) ;
#310 = ADVANCED_FACE ( 'NONE', ( #305 ), #177, .F. ) ;
#311 = EDGE_CURVE ( 'NONE', #335, #324, #7, .T. ) ;
#312 = APPROVAL ( #164, 'UNSPECIFIED' ) ;
#313 = EDGE_LOOP ( 'NONE', ( #157, #194, #214, #63 ) ) ;
#314 = AXIS2_PLACEMENT_3D ( 'NONE', #116, #223, #221 ) ;
#315 = DIRECTION ( 'NONE',  ( 4.275831445896958607E-31, 1.000000000000000000, 1.224646799147353207E-16 ) ) ;
#316 = ORIENTED_EDGE ( 'NONE', *, *, #46, .T. ) ;
#317 = SHAPE_DEFINITION_REPRESENTATION ( #12, #276 ) ;
#318 = PERSON_AND_ORGANIZATION_ROLE ( 'design_supplier' ) ;
#319 = APPLICATION_CONTEXT ( 'configuration controlled 3d designs of mechanical parts and assemblies' ) ;
#320 = PERSON_AND_ORGANIZATION_ROLE ( 'design_owner' ) ;
#321 = CALENDAR_DATE ( 2021, 3, 9 ) ;
#322 = VERTEX_POINT ( 'NONE', #275 ) ;
#323 = PRODUCT_RELATED_PRODUCT_CATEGORY ( 'detail', '', ( #61 ) ) ;
#324 = VERTEX_POINT ( 'NONE', #158 ) ;
#325 = CC_DESIGN_PERSON_AND_ORGANIZATION_ASSIGNMENT ( #215, #320, ( #61 ) ) ;
#326 = CARTESIAN_POINT ( 'NONE',  ( 0.0000000000000000000, 0.0000000000000000000, 0.0000000000000000000 ) ) ;
#327 = LOCAL_TIME ( 9, 55, 8.000000000000000000, #191 ) ;
#328 = CARTESIAN_POINT ( 'NONE',  ( 1.222018468595096801E-13, -4.286263797015736496E-15, 35.00000000000000000 ) ) ;
#329 = DIRECTION ( 'NONE',  ( -3.491481338843133355E-15, 1.224646799147353207E-16, -1.000000000000000000 ) ) ;
#330 = CARTESIAN_POINT ( 'NONE',  ( 3.561310965619995770E-13, -1.249139735130300089E-14, 102.0000000000000000 ) ) ;
#331 = CARTESIAN_POINT ( 'NONE',  ( 1.222018468595096801E-13, 4.874219293651025730E-32, 35.00000000000000000 ) ) ;
#332 = DIRECTION ( 'NONE',  ( 3.491481338843133355E-15, -1.224646799147353207E-16, 1.000000000000000000 ) ) ;
#333 = CIRCLE ( 'NONE', #92, 5.500000000000000888 ) ;
#334 = VECTOR ( 'NONE', #123, 1000.000000000000000 ) ;
#335 = VERTEX_POINT ( 'NONE', #47 ) ;
#336 = CARTESIAN_POINT ( 'NONE',  ( 3.561310965619995770E-13, -1.249139735130300089E-14, 102.0000000000000000 ) ) ;
#337 = APPROVAL ( #85, 'UNSPECIFIED' ) ;
ENDSEC;
END-ISO-10303-21;
