ISO-10303-21;
HEADER;
FILE_DESCRIPTION (( 'STEP AP203' ),
    '1' );
FILE_NAME ('54651.STEP',
    '2023-01-18T15:40:45',
    ( '' ),
    ( '' ),
    'SwSTEP 2.0',
    'SolidWorks 2019',
    '' );
FILE_SCHEMA (( 'CONFIG_CONTROL_DESIGN' ));
ENDSEC;

DATA;
#1 = PRODUCT_DEFINITION ( 'UNKNOWN', '', #80, #74 ) ;
#2 = FACE_OUTER_BOUND ( 'NONE', #37, .T. ) ;
#3 = PERSON_AND_ORGANIZATION ( #64, #33 ) ;
#4 = PERSON_AND_ORGANIZATION_ROLE ( 'creator' ) ;
#5 = APPLICATION_PROTOCOL_DEFINITION ( 'international standard', 'config_control_design', 1994, #186 ) ;
#6 = APPROVAL_ROLE ( '' ) ;
#7 = CC_DESIGN_PERSON_AND_ORGANIZATION_ASSIGNMENT ( #167, #20, ( #1 ) ) ;
#8 = CARTESIAN_POINT ( 'NONE',  ( 1.222018468595096801E-13, 5.999999999999991118, 35.00000000000000000 ) ) ;
#9 = AXIS2_PLACEMENT_3D ( 'NONE', #165, #102, #155 ) ;
#10 = CARTESIAN_POINT ( 'NONE',  ( 3.561310965619995770E-13, 4.999999999999991118, 102.0000000000000000 ) ) ;
#11 = AXIS2_PLACEMENT_3D ( 'NONE', #177, #152, #95 ) ;
#12 = CARTESIAN_POINT ( 'NONE',  ( 1.258736183148288017E-14, -4.415052202954835034E-16, 3.605163714165395827 ) ) ;
#13 =( NAMED_UNIT ( * ) SI_UNIT ( $, .STERADIAN. ) SOLID_ANGLE_UNIT ( ) );
#14 = APPROVAL ( #156, 'UNSPECIFIED' ) ;
#15 = ADVANCED_FACE ( 'NONE', ( #171, #136 ), #138, .T. ) ;
#16 = EDGE_LOOP ( 'NONE', ( #157 ) ) ;
#17 = LOCAL_TIME ( 16, 40, 45.00000000000000000, #130 ) ;
#18 = PERSON_AND_ORGANIZATION ( #64, #33 ) ;
#19 = APPROVAL_PERSON_ORGANIZATION ( #166, #35, #79 ) ;
#20 = PERSON_AND_ORGANIZATION_ROLE ( 'creator' ) ;
#21 = ORIENTED_EDGE ( 'NONE', *, *, #178, .T. ) ;
#22 = DIRECTION ( 'NONE',  ( 3.491481338843133355E-15, -1.224646799147353207E-16, 1.000000000000000000 ) ) ;
#23 = CIRCLE ( 'NONE', #58, 5.999999999999995559 ) ;
#24 = DIRECTION ( 'NONE',  ( -5.135813185032635656E-31, -1.000000000000000000, -1.445602896647341135E-16 ) ) ;
#25 = ADVANCED_FACE ( 'NONE', ( #2 ), #29, .F. ) ;
#26 = DIRECTION ( 'NONE',  ( -3.491481338843133355E-15, 1.224646799147353207E-16, -1.000000000000000000 ) ) ;
#27 = LOCAL_TIME ( 16, 40, 45.00000000000000000, #67 ) ;
#28 = MANIFOLD_SOLID_BREP ( 'Corps-Déplacer/Copier1[1]', #100 ) ;
#29 = PLANE ( 'NONE',  #11 ) ;
#30 = CIRCLE ( 'NONE', #98, 5.000000000000003553 ) ;
#31 = ORIENTED_EDGE ( 'NONE', *, *, #75, .F. ) ;
#32 = DATE_AND_TIME ( #141, #17 ) ;
#33 = ORGANIZATION ( 'UNSPECIFIED', 'UNSPECIFIED', '' ) ;
#34 = CARTESIAN_POINT ( 'NONE',  ( 1.222018468595096801E-13, -4.286263797015736496E-15, 35.00000000000000000 ) ) ;
#35 = APPROVAL ( #144, 'UNSPECIFIED' ) ;
#36 = ADVANCED_BREP_SHAPE_REPRESENTATION ( '54651', ( #28, #111, #140 ), #85 ) ;
#37 = EDGE_LOOP ( 'NONE', ( #104 ) ) ;
#38 = CC_DESIGN_APPROVAL ( #35, ( #80 ) ) ;
#39 = ADVANCED_FACE ( 'NONE', ( #175 ), #83, .F. ) ;
#40 = EDGE_LOOP ( 'NONE', ( #71 ) ) ;
#41 = DIRECTION ( 'NONE',  ( 0.000000000000000000, 1.000000000000000000, 0.000000000000000000 ) ) ;
#42 = CC_DESIGN_PERSON_AND_ORGANIZATION_ASSIGNMENT ( #153, #139, ( #63 ) ) ;
#43 = CARTESIAN_POINT ( 'NONE',  ( 0.000000000000000000, 0.000000000000000000, 0.000000000000000000 ) ) ;
#44 = DIRECTION ( 'NONE',  ( -3.491481338843133355E-15, 1.224646799147353207E-16, -1.000000000000000000 ) ) ;
#45 =( LENGTH_UNIT ( ) NAMED_UNIT ( * ) SI_UNIT ( .MILLI., .METRE. ) );
#46 = CC_DESIGN_SECURITY_CLASSIFICATION ( #89, ( #80 ) ) ;
#47 = CARTESIAN_POINT ( 'NONE',  ( 1.258736183148288333E-14, 5.999999999999991118, 3.605163714165396716 ) ) ;
#48 = CIRCLE ( 'NONE', #121, 6.000000000000003553 ) ;
#49 = MECHANICAL_CONTEXT ( 'NONE', #127, 'mechanical' ) ;
#50 = EDGE_CURVE ( 'NONE', #88, #88, #93, .T. ) ;
#51 = DIRECTION ( 'NONE',  ( 0.000000000000000000, 1.000000000000000000, 0.000000000000000000 ) ) ;
#52 = EDGE_LOOP ( 'NONE', ( #126 ) ) ;
#53 = AXIS2_PLACEMENT_3D ( 'NONE', #198, #26, #41 ) ;
#54 = DATE_AND_TIME ( #59, #61 ) ;
#55 = ORIENTED_EDGE ( 'NONE', *, *, #97, .T. ) ;
#56 = SECURITY_CLASSIFICATION_LEVEL ( 'unclassified' ) ;
#57 = CARTESIAN_POINT ( 'NONE',  ( 3.526396152231564563E-13, 5.999999999999991118, 100.9999999999999858 ) ) ;
#58 = AXIS2_PLACEMENT_3D ( 'NONE', #34, #149, #145 ) ;
#59 = CALENDAR_DATE ( 2023, 18, 1 ) ;
#60 = CYLINDRICAL_SURFACE ( 'NONE', #195, 6.000000000000000000 ) ;
#61 = LOCAL_TIME ( 16, 40, 45.00000000000000000, #72 ) ;
#62 = DIRECTION ( 'NONE',  ( 3.491481338843133355E-15, -1.224646799147353207E-16, 1.000000000000000000 ) ) ;
#63 = PRODUCT ( '54651', '54651', '', ( #49 ) ) ;
#64 = PERSON ( 'UNSPECIFIED', 'UNSPECIFIED', 'UNSPECIFIED', ('UNSPECIFIED'), ('UNSPECIFIED'), ('UNSPECIFIED') ) ;
#65 = DIRECTION ( 'NONE',  ( 4.275831445896959482E-31, 1.000000000000000000, 1.224646799147353207E-16 ) ) ;
#66 = APPROVAL ( #179, 'UNSPECIFIED' ) ;
#67 = COORDINATED_UNIVERSAL_TIME_OFFSET ( 1, 0, .AHEAD. ) ;
#68 = CLOSED_SHELL ( 'NONE', ( #119, #15, #135 ) ) ;
#69 = CC_DESIGN_PERSON_AND_ORGANIZATION_ASSIGNMENT ( #18, #193, ( #80 ) ) ;
#70 = CARTESIAN_POINT ( 'NONE',  ( 3.526396152231564563E-13, -1.236893267138826574E-14, 100.9999999999999858 ) ) ;
#71 = ORIENTED_EDGE ( 'NONE', *, *, #50, .T. ) ;
#72 = COORDINATED_UNIVERSAL_TIME_OFFSET ( 1, 0, .AHEAD. ) ;
#73 = CALENDAR_DATE ( 2023, 18, 1 ) ;
#74 = DESIGN_CONTEXT ( 'detailed design', #186, 'design' ) ;
#75 = EDGE_CURVE ( 'NONE', #87, #87, #48, .T. ) ;
#76 = PERSON_AND_ORGANIZATION_ROLE ( 'classification_officer' ) ;
#77 = CALENDAR_DATE ( 2023, 18, 1 ) ;
#78 = DIRECTION ( 'NONE',  ( -3.491481338843133355E-15, 1.224646799147353207E-16, -1.000000000000000000 ) ) ;
#79 = APPROVAL_ROLE ( '' ) ;
#80 = PRODUCT_DEFINITION_FORMATION_WITH_SPECIFIED_SOURCE ( 'ANY', '', #63, .NOT_KNOWN. ) ;
#81 = CALENDAR_DATE ( 2023, 18, 1 ) ;
#82 = APPROVAL_PERSON_ORGANIZATION ( #3, #66, #6 ) ;
#83 = PLANE ( 'NONE',  #183 ) ;
#84 = DIRECTION ( 'NONE',  ( -3.491481338843133355E-15, 1.224646799147353207E-16, -1.000000000000000000 ) ) ;
#85 =( GEOMETRIC_REPRESENTATION_CONTEXT ( 3 ) GLOBAL_UNCERTAINTY_ASSIGNED_CONTEXT ( ( #154 ) ) GLOBAL_UNIT_ASSIGNED_CONTEXT ( ( #45, #201, #13 ) ) REPRESENTATION_CONTEXT ( 'NONE', 'WORKASPACE' ) );
#86 = CARTESIAN_POINT ( 'NONE',  ( 1.222018468595096801E-13, 5.999999999999991118, 35.00000000000000000 ) ) ;
#87 = VERTEX_POINT ( 'NONE', #57 ) ;
#88 = VERTEX_POINT ( 'NONE', #86 ) ;
#89 = SECURITY_CLASSIFICATION ( '', '', #56 ) ;
#90 = COORDINATED_UNIVERSAL_TIME_OFFSET ( 1, 0, .AHEAD. ) ;
#91 = FACE_OUTER_BOUND ( 'NONE', #52, .T. ) ;
#92 = PERSON_AND_ORGANIZATION ( #64, #33 ) ;
#93 = CIRCLE ( 'NONE', #9, 5.999999999999995559 ) ;
#94 = PRODUCT_DEFINITION_SHAPE ( 'NONE', 'NONE',  #1 ) ;
#95 = DIRECTION ( 'NONE',  ( 4.275831445896958607E-31, 1.000000000000000000, 1.224646799147353207E-16 ) ) ;
#96 = EDGE_LOOP ( 'NONE', ( #194 ) ) ;
#97 = EDGE_CURVE ( 'NONE', #109, #109, #23, .T. ) ;
#98 = AXIS2_PLACEMENT_3D ( 'NONE', #134, #44, #182 ) ;
#99 = ORIENTED_EDGE ( 'NONE', *, *, #178, .F. ) ;
#100 = CLOSED_SHELL ( 'NONE', ( #39, #151, #124, #25 ) ) ;
#101 = APPROVAL_ROLE ( '' ) ;
#102 = DIRECTION ( 'NONE',  ( -3.491481338843133355E-15, 1.224646799147353207E-16, -1.000000000000000000 ) ) ;
#103 = SHAPE_DEFINITION_REPRESENTATION ( #94, #36 ) ;
#104 = ORIENTED_EDGE ( 'NONE', *, *, #132, .F. ) ;
#105 = PLANE ( 'NONE',  #170 ) ;
#106 = CC_DESIGN_DATE_AND_TIME_ASSIGNMENT ( #164, #125, ( #1 ) ) ;
#107 = APPROVAL_DATE_TIME ( #54, #14 ) ;
#108 = AXIS2_PLACEMENT_3D ( 'NONE', #12, #84, #168 ) ;
#109 = VERTEX_POINT ( 'NONE', #8 ) ;
#110 = CC_DESIGN_PERSON_AND_ORGANIZATION_ASSIGNMENT ( #202, #76, ( #89 ) ) ;
#111 = MANIFOLD_SOLID_BREP ( 'Corps-Déplacer/Copier1[2]', #68 ) ;
#112 = DIRECTION ( 'NONE',  ( 0.000000000000000000, 0.000000000000000000, 1.000000000000000000 ) ) ;
#113 = FACE_OUTER_BOUND ( 'NONE', #131, .T. ) ;
#114 = DIRECTION ( 'NONE',  ( -4.275831445896958607E-31, -1.000000000000000000, -1.224646799147353207E-16 ) ) ;
#115 = APPROVAL_DATE_TIME ( #118, #35 ) ;
#116 = FACE_OUTER_BOUND ( 'NONE', #16, .T. ) ;
#117 = LOCAL_TIME ( 16, 40, 45.00000000000000000, #90 ) ;
#118 = DATE_AND_TIME ( #77, #148 ) ;
#119 = ADVANCED_FACE ( 'NONE', ( #113 ), #161, .T. ) ;
#120 = DIRECTION ( 'NONE',  ( -4.275831445896958607E-31, -1.000000000000000000, -1.224646799147353207E-16 ) ) ;
#121 = AXIS2_PLACEMENT_3D ( 'NONE', #70, #189, #51 ) ;
#122 = EDGE_LOOP ( 'NONE', ( #55 ) ) ;
#123 = EDGE_LOOP ( 'NONE', ( #181 ) ) ;
#124 = ADVANCED_FACE ( 'NONE', ( #173, #197 ), #190, .T. ) ;
#125 = DATE_TIME_ROLE ( 'creation_date' ) ;
#126 = ORIENTED_EDGE ( 'NONE', *, *, #50, .F. ) ;
#127 = APPLICATION_CONTEXT ( 'configuration controlled 3d designs of mechanical parts and assemblies' ) ;
#128 = DIRECTION ( 'NONE',  ( 3.491481338843133355E-15, -1.224646799147353207E-16, 1.000000000000000000 ) ) ;
#129 = CIRCLE ( 'NONE', #108, 5.999999999999992006 ) ;
#130 = COORDINATED_UNIVERSAL_TIME_OFFSET ( 1, 0, .AHEAD. ) ;
#131 = EDGE_LOOP ( 'NONE', ( #21 ) ) ;
#132 = EDGE_CURVE ( 'NONE', #158, #158, #30, .T. ) ;
#133 = EDGE_LOOP ( 'NONE', ( #99 ) ) ;
#134 = CARTESIAN_POINT ( 'NONE',  ( 3.561310965619995770E-13, -1.249139735130300089E-14, 102.0000000000000000 ) ) ;
#135 = ADVANCED_FACE ( 'NONE', ( #91 ), #105, .T. ) ;
#136 = FACE_OUTER_BOUND ( 'NONE', #40, .T. ) ;
#137 = APPLICATION_PROTOCOL_DEFINITION ( 'international standard', 'config_control_design', 1994, #127 ) ;
#138 = CYLINDRICAL_SURFACE ( 'NONE', #203, 5.999999999999993783 ) ;
#139 = PERSON_AND_ORGANIZATION_ROLE ( 'design_owner' ) ;
#140 = AXIS2_PLACEMENT_3D ( 'NONE', #147, #112, #172 ) ;
#141 = CALENDAR_DATE ( 2023, 18, 1 ) ;
#142 = CC_DESIGN_APPROVAL ( #66, ( #89 ) ) ;
#143 = DATE_TIME_ROLE ( 'classification_date' ) ;
#144 = APPROVAL_STATUS ( 'not_yet_approved' ) ;
#145 = DIRECTION ( 'NONE',  ( 0.000000000000000000, 1.000000000000000000, 0.000000000000000000 ) ) ;
#146 = CC_DESIGN_PERSON_AND_ORGANIZATION_ASSIGNMENT ( #92, #4, ( #80 ) ) ;
#147 = CARTESIAN_POINT ( 'NONE',  ( 0.000000000000000000, 0.000000000000000000, 0.000000000000000000 ) ) ;
#148 = LOCAL_TIME ( 16, 40, 45.00000000000000000, #185 ) ;
#149 = DIRECTION ( 'NONE',  ( -3.491481338843133355E-15, 1.224646799147353207E-16, -1.000000000000000000 ) ) ;
#150 = FACE_OUTER_BOUND ( 'NONE', #96, .T. ) ;
#151 = ADVANCED_FACE ( 'NONE', ( #116, #150 ), #60, .T. ) ;
#152 = DIRECTION ( 'NONE',  ( -3.491481338843133355E-15, 1.224646799147353207E-16, -1.000000000000000000 ) ) ;
#153 = PERSON_AND_ORGANIZATION ( #64, #33 ) ;
#154 = UNCERTAINTY_MEASURE_WITH_UNIT (LENGTH_MEASURE( 1.000000000000000082E-05 ), #45, 'distance_accuracy_value', 'NONE');
#155 = DIRECTION ( 'NONE',  ( 0.000000000000000000, 1.000000000000000000, 0.000000000000000000 ) ) ;
#156 = APPROVAL_STATUS ( 'not_yet_approved' ) ;
#157 = ORIENTED_EDGE ( 'NONE', *, *, #97, .F. ) ;
#158 = VERTEX_POINT ( 'NONE', #10 ) ;
#159 = CARTESIAN_POINT ( 'NONE',  ( 1.258736183148288017E-14, -4.415052202954835034E-16, 3.605163714165395827 ) ) ;
#160 = DATE_AND_TIME ( #73, #27 ) ;
#161 = CONICAL_SURFACE ( 'NONE', #174, 5.999999999999992006, 1.029744258676649871 ) ;
#162 = CC_DESIGN_DATE_AND_TIME_ASSIGNMENT ( #160, #143, ( #89 ) ) ;
#163 = APPROVAL_PERSON_ORGANIZATION ( #196, #14, #101 ) ;
#164 = DATE_AND_TIME ( #81, #117 ) ;
#165 = CARTESIAN_POINT ( 'NONE',  ( 1.222018468595096801E-13, -4.286263797015736496E-15, 35.00000000000000000 ) ) ;
#166 = PERSON_AND_ORGANIZATION ( #64, #33 ) ;
#167 = PERSON_AND_ORGANIZATION ( #64, #33 ) ;
#168 = DIRECTION ( 'NONE',  ( 5.135813185032635656E-31, 1.000000000000000000, 1.445602896647341135E-16 ) ) ;
#169 = CARTESIAN_POINT ( 'NONE',  ( 1.222018468595096801E-13, 4.499279347985563518E-32, 35.00000000000000000 ) ) ;
#170 = AXIS2_PLACEMENT_3D ( 'NONE', #169, #22, #114 ) ;
#171 = FACE_OUTER_BOUND ( 'NONE', #133, .T. ) ;
#172 = DIRECTION ( 'NONE',  ( 1.000000000000000000, 0.000000000000000000, 0.000000000000000000 ) ) ;
#173 = FACE_OUTER_BOUND ( 'NONE', #180, .T. ) ;
#174 = AXIS2_PLACEMENT_3D ( 'NONE', #159, #62, #24 ) ;
#175 = FACE_OUTER_BOUND ( 'NONE', #122, .T. ) ;
#176 = VERTEX_POINT ( 'NONE', #47 ) ;
#177 = CARTESIAN_POINT ( 'NONE',  ( 3.561310965619995770E-13, 3.749399456654628693E-32, 102.0000000000000000 ) ) ;
#178 = EDGE_CURVE ( 'NONE', #176, #176, #129, .T. ) ;
#179 = APPROVAL_STATUS ( 'not_yet_approved' ) ;
#180 = EDGE_LOOP ( 'NONE', ( #31 ) ) ;
#181 = ORIENTED_EDGE ( 'NONE', *, *, #132, .T. ) ;
#182 = DIRECTION ( 'NONE',  ( 0.000000000000000000, 1.000000000000000000, 0.000000000000000000 ) ) ;
#183 = AXIS2_PLACEMENT_3D ( 'NONE', #192, #128, #120 ) ;
#184 = CARTESIAN_POINT ( 'NONE',  ( 0.000000000000000000, 0.000000000000000000, 0.000000000000000000 ) ) ;
#185 = COORDINATED_UNIVERSAL_TIME_OFFSET ( 1, 0, .AHEAD. ) ;
#186 = APPLICATION_CONTEXT ( 'configuration controlled 3d designs of mechanical parts and assemblies' ) ;
#187 = DIRECTION ( 'NONE',  ( 4.275831445896958607E-31, 1.000000000000000000, 1.224646799147353207E-16 ) ) ;
#188 = PRODUCT_RELATED_PRODUCT_CATEGORY ( 'detail', '', ( #63 ) ) ;
#189 = DIRECTION ( 'NONE',  ( -3.491481338843133355E-15, 1.224646799147353207E-16, -1.000000000000000000 ) ) ;
#190 = CONICAL_SURFACE ( 'NONE', #53, 5.000000000000003553, 0.7853981633974479459 ) ;
#191 = APPROVAL_DATE_TIME ( #32, #66 ) ;
#192 = CARTESIAN_POINT ( 'NONE',  ( 1.222018468595096801E-13, 4.499279347985563518E-32, 35.00000000000000000 ) ) ;
#193 = PERSON_AND_ORGANIZATION_ROLE ( 'design_supplier' ) ;
#194 = ORIENTED_EDGE ( 'NONE', *, *, #75, .T. ) ;
#195 = AXIS2_PLACEMENT_3D ( 'NONE', #43, #200, #65 ) ;
#196 = PERSON_AND_ORGANIZATION ( #64, #33 ) ;
#197 = FACE_BOUND ( 'NONE', #123, .T. ) ;
#198 = CARTESIAN_POINT ( 'NONE',  ( 3.561310965619995770E-13, -1.249139735130300089E-14, 102.0000000000000000 ) ) ;
#199 = CC_DESIGN_APPROVAL ( #14, ( #1 ) ) ;
#200 = DIRECTION ( 'NONE',  ( -3.491481338843133355E-15, 1.224646799147353207E-16, -1.000000000000000000 ) ) ;
#201 =( NAMED_UNIT ( * ) PLANE_ANGLE_UNIT ( ) SI_UNIT ( $, .RADIAN. ) );
#202 = PERSON_AND_ORGANIZATION ( #64, #33 ) ;
#203 = AXIS2_PLACEMENT_3D ( 'NONE', #184, #78, #187 ) ;
ENDSEC;
END-ISO-10303-21;
