ISO-10303-21;
HEADER;
FILE_DESCRIPTION (( 'STEP AP203' ),
    '1' );
FILE_NAME ('54650.step',
    '2021-09-03T07:55:02',
    ( '' ),
    ( '' ),
    'SwSTEP 2.0',
    'SolidWorks 2019',
    '' );
FILE_SCHEMA (( 'CONFIG_CONTROL_DESIGN' ));
ENDSEC;

DATA;
#1 = CARTESIAN_POINT ( 'NONE',  ( 0.0000000000000000000, 0.0000000000000000000, 0.0000000000000000000 ) ) ;
#2 = VECTOR ( 'NONE', #31, 1000.000000000000000 ) ;
#3 = DIRECTION ( 'NONE',  ( 0.0000000000000000000, 1.000000000000000000, 0.0000000000000000000 ) ) ;
#4 = CC_DESIGN_PERSON_AND_ORGANIZATION_ASSIGNMENT ( #166, #239, ( #284 ) ) ;
#5 = ADVANCED_FACE ( 'NONE', ( #244 ), #298, .T. ) ;
#6 = CIRCLE ( 'NONE', #197, 5.749999999999988454 ) ;
#7 = CC_DESIGN_SECURITY_CLASSIFICATION ( #283, ( #269 ) ) ;
#8 = EDGE_CURVE ( 'NONE', #266, #319, #199, .T. ) ;
#9 = DIRECTION ( 'NONE',  ( -3.491481338843133355E-15, 1.224646799147353454E-16, -1.000000000000000000 ) ) ;
#10 = EDGE_CURVE ( 'NONE', #240, #39, #85, .T. ) ;
#11 = LINE ( 'NONE', #34, #252 ) ;
#12 = DESIGN_CONTEXT ( 'detailed design', #163, 'design' ) ;
#13 = COORDINATED_UNIVERSAL_TIME_OFFSET ( 1, 0, .AHEAD. ) ;
#14 = ORIENTED_EDGE ( 'NONE', *, *, #8, .T. ) ;
#15 = ADVANCED_FACE ( 'NONE', ( #151 ), #307, .T. ) ;
#16 = VERTEX_POINT ( 'NONE', #278 ) ;
#17 = PERSON_AND_ORGANIZATION_ROLE ( 'design_owner' ) ;
#18 = CLOSED_SHELL ( 'NONE', ( #289, #286, #260, #213, #309, #323 ) ) ;
#19 = CIRCLE ( 'NONE', #52, 5.749999999999992895 ) ;
#20 = VECTOR ( 'NONE', #74, 1000.000000000000000 ) ;
#21 = CARTESIAN_POINT ( 'NONE',  ( 3.322724344196926418E-13, -4.750000000000011546, 95.00000000000000000 ) ) ;
#22 = CALENDAR_DATE ( 2021, 3, 9 ) ;
#23 = ORIENTED_EDGE ( 'NONE', *, *, #10, .T. ) ;
#24 = ORIENTED_EDGE ( 'NONE', *, *, #10, .F. ) ;
#25 = APPROVAL_STATUS ( 'not_yet_approved' ) ;
#26 = ORIENTED_EDGE ( 'NONE', *, *, #258, .F. ) ;
#27 = CIRCLE ( 'NONE', #121, 4.750000000000000000 ) ;
#28 = PERSON_AND_ORGANIZATION_ROLE ( 'classification_officer' ) ;
#29 = LINE ( 'NONE', #293, #2 ) ;
#30 = DIRECTION ( 'NONE',  ( -3.491481338843133355E-15, 1.224646799147353454E-16, -1.000000000000000000 ) ) ;
#31 = DIRECTION ( 'NONE',  ( -3.491481338843133355E-15, 1.224646799147353454E-16, -1.000000000000000000 ) ) ;
#32 = CIRCLE ( 'NONE', #277, 5.749999999999988454 ) ;
#33 = AXIS2_PLACEMENT_3D ( 'NONE', #232, #337, #3 ) ;
#34 = CARTESIAN_POINT ( 'NONE',  ( 2.458603081390750192E-30, 5.749999999999996447, 7.041719095097277921E-16 ) ) ;
#35 = DIRECTION ( 'NONE',  ( -3.491481338843133355E-15, 1.224646799147353454E-16, -1.000000000000000000 ) ) ;
#36 = ORIENTED_EDGE ( 'NONE', *, *, #45, .F. ) ;
#37 = DIRECTION ( 'NONE',  ( 1.903218546456022717E-15, 0.8571673007021097801, 0.5150380749100585964 ) ) ;
#38 = DATE_AND_TIME ( #22, #312 ) ;
#39 = VERTEX_POINT ( 'NONE', #305 ) ;
#40 = DIRECTION ( 'NONE',  ( 0.0000000000000000000, 0.0000000000000000000, 1.000000000000000000 ) ) ;
#41 = ORIENTED_EDGE ( 'NONE', *, *, #75, .F. ) ;
#42 = CC_DESIGN_PERSON_AND_ORGANIZATION_ASSIGNMENT ( #180, #152, ( #269 ) ) ;
#43 = ORIENTED_EDGE ( 'NONE', *, *, #200, .T. ) ;
#44 = CARTESIAN_POINT ( 'NONE',  ( 1.206288842183775103E-14, -5.749999999999988454, 3.454948559408501652 ) ) ;
#45 = EDGE_CURVE ( 'NONE', #300, #319, #259, .T. ) ;
#46 = ORIENTED_EDGE ( 'NONE', *, *, #8, .F. ) ;
#47 = DIRECTION ( 'NONE',  ( -2.382254525458717469E-15, -0.7071067811865471286, -0.7071067811865479058 ) ) ;
#48 = LOCAL_TIME ( 9, 55, 2.000000000000000000, #326 ) ;
#49 = PERSON_AND_ORGANIZATION ( #332, #224 ) ;
#50 = DIRECTION ( 'NONE',  ( -3.491481338843133355E-15, 1.224646799147353454E-16, -1.000000000000000000 ) ) ;
#51 = FACE_OUTER_BOUND ( 'NONE', #160, .T. ) ;
#52 = AXIS2_PLACEMENT_3D ( 'NONE', #206, #304, #72 ) ;
#53 = DIRECTION ( 'NONE',  ( -4.275831445896959482E-31, -1.000000000000000000, -1.224646799147353454E-16 ) ) ;
#54 = ORIENTED_EDGE ( 'NONE', *, *, #45, .T. ) ;
#55 = CIRCLE ( 'NONE', #113, 5.749999999999992895 ) ;
#56 = APPLICATION_CONTEXT ( 'configuration controlled 3d designs of mechanical parts and assemblies' ) ;
#57 = CARTESIAN_POINT ( 'NONE',  ( 2.458603081390748090E-30, 5.749999999999991118, 7.041719095097272005E-16 ) ) ;
#58 = CARTESIAN_POINT ( 'NONE',  ( 0.0000000000000000000, 0.0000000000000000000, 0.0000000000000000000 ) ) ;
#59 = CC_DESIGN_PERSON_AND_ORGANIZATION_ASSIGNMENT ( #123, #17, ( #331 ) ) ;
#60 = EDGE_CURVE ( 'NONE', #16, #263, #302, .T. ) ;
#61 = APPROVAL_DATE_TIME ( #270, #145 ) ;
#62 = ORIENTED_EDGE ( 'NONE', *, *, #279, .T. ) ;
#63 = MECHANICAL_CONTEXT ( 'NONE', #56, 'mechanical' ) ;
#64 = AXIS2_PLACEMENT_3D ( 'NONE', #214, #233, #162 ) ;
#65 = ORIENTED_EDGE ( 'NONE', *, *, #189, .T. ) ;
#66 = DIRECTION ( 'NONE',  ( 0.0000000000000000000, 1.000000000000000000, 0.0000000000000000000 ) ) ;
#67 = CARTESIAN_POINT ( 'NONE',  ( 1.206288842183775418E-14, -4.231091694498382362E-16, 3.454948559408502540 ) ) ;
#68 = CALENDAR_DATE ( 2021, 3, 9 ) ;
#69 = ORIENTED_EDGE ( 'NONE', *, *, #73, .T. ) ;
#70 = AXIS2_PLACEMENT_3D ( 'NONE', #184, #35, #212 ) ;
#71 = DIRECTION ( 'NONE',  ( 0.0000000000000000000, 1.000000000000000000, 0.0000000000000000000 ) ) ;
#72 = DIRECTION ( 'NONE',  ( 0.0000000000000000000, 1.000000000000000000, 0.0000000000000000000 ) ) ;
#73 = EDGE_CURVE ( 'NONE', #266, #226, #215, .T. ) ;
#74 = DIRECTION ( 'NONE',  ( 1.798245827342160317E-15, -0.8571673007021098911, 0.5150380749100582634 ) ) ;
#75 = EDGE_CURVE ( 'NONE', #226, #300, #177, .T. ) ;
#76 = DIRECTION ( 'NONE',  ( 0.0000000000000000000, 1.000000000000000000, 0.0000000000000000000 ) ) ;
#77 = LOCAL_TIME ( 9, 55, 2.000000000000000000, #182 ) ;
#78 = DATE_AND_TIME ( #129, #77 ) ;
#79 = CARTESIAN_POINT ( 'NONE',  ( 0.0000000000000000000, 0.0000000000000000000, 0.0000000000000000000 ) ) ;
#80 = CC_DESIGN_APPROVAL ( #145, ( #284 ) ) ;
#81 = CC_DESIGN_DATE_AND_TIME_ASSIGNMENT ( #38, #171, ( #284 ) ) ;
#82 = FACE_OUTER_BOUND ( 'NONE', #178, .T. ) ;
#83 = ORIENTED_EDGE ( 'NONE', *, *, #234, .F. ) ;
#84 = CARTESIAN_POINT ( 'NONE',  ( 1.152188841818234133E-13, -4.041334437186266989E-15, 33.00000000000000000 ) ) ;
#85 = CIRCLE ( 'NONE', #275, 5.749999999999992895 ) ;
#86 = CONICAL_SURFACE ( 'NONE', #176, 4.750000000000000000, 0.7853981633974479459 ) ;
#87 = PLANE ( 'NONE',  #186 ) ;
#88 = EDGE_LOOP ( 'NONE', ( #294, #268, #188 ) ) ;
#89 = ORIENTED_EDGE ( 'NONE', *, *, #75, .T. ) ;
#90 = FACE_OUTER_BOUND ( 'NONE', #242, .T. ) ;
#91 = CARTESIAN_POINT ( 'NONE',  ( 1.152188841818234133E-13, 5.749999999999988454, 33.00000000000000000 ) ) ;
#92 = VECTOR ( 'NONE', #150, 999.9999999999998863 ) ;
#93 = FACE_OUTER_BOUND ( 'NONE', #117, .T. ) ;
#94 = DIRECTION ( 'NONE',  ( 0.0000000000000000000, 1.000000000000000000, 0.0000000000000000000 ) ) ;
#95 = DIRECTION ( 'NONE',  ( -5.359109410468840862E-31, -1.000000000000000000, -1.508455196501574388E-16 ) ) ;
#96 = PERSON_AND_ORGANIZATION_ROLE ( 'creator' ) ;
#97 = PRODUCT_DEFINITION_SHAPE ( 'NONE', 'NONE',  #284 ) ;
#98 = DIRECTION ( 'NONE',  ( -3.491481338843133355E-15, 1.224646799147353454E-16, -1.000000000000000000 ) ) ;
#99 =( GEOMETRIC_REPRESENTATION_CONTEXT ( 3 ) GLOBAL_UNCERTAINTY_ASSIGNED_CONTEXT ( ( #291 ) ) GLOBAL_UNIT_ASSIGNED_CONTEXT ( ( #201, #169, #143 ) ) REPRESENTATION_CONTEXT ( 'NONE', 'WORKASPACE' ) );
#100 = ADVANCED_FACE ( 'NONE', ( #93 ), #109, .T. ) ;
#101 = CARTESIAN_POINT ( 'NONE',  ( 2.224132369260486699E-13, -5.749999999999997335, 33.00000000000000000 ) ) ;
#102 = VERTEX_POINT ( 'NONE', #101 ) ;
#103 = CALENDAR_DATE ( 2021, 3, 9 ) ;
#104 = CARTESIAN_POINT ( 'NONE',  ( 3.281992458512545606E-13, 5.749999999999988454, 94.00000000000000000 ) ) ;
#105 = AXIS2_PLACEMENT_3D ( 'NONE', #84, #238, #76 ) ;
#106 = FACE_OUTER_BOUND ( 'NONE', #124, .T. ) ;
#107 = CC_DESIGN_PERSON_AND_ORGANIZATION_ASSIGNMENT ( #329, #96, ( #269 ) ) ;
#108 = DIRECTION ( 'NONE',  ( -3.491481338843133355E-15, 1.224646799147353454E-16, -1.000000000000000000 ) ) ;
#109 = CONICAL_SURFACE ( 'NONE', #127, 5.749999999999988454, 1.029744258676649649 ) ;
#110 = CARTESIAN_POINT ( 'NONE',  ( 1.276706033134748286E-14, 5.749999999999988454, 3.454948559408503428 ) ) ;
#111 = DIRECTION ( 'NONE',  ( -3.491481338843133355E-15, 1.224646799147353454E-16, -1.000000000000000000 ) ) ;
#112 = ORIENTED_EDGE ( 'NONE', *, *, #208, .T. ) ;
#113 = AXIS2_PLACEMENT_3D ( 'NONE', #165, #30, #133 ) ;
#114 = CARTESIAN_POINT ( 'NONE',  ( 3.316907271900976814E-13, 3.561929483821896218E-32, 95.00000000000000000 ) ) ;
#115 = EDGE_LOOP ( 'NONE', ( #147, #65, #193, #170 ) ) ;
#116 = APPROVAL ( #25, 'UNSPECIFIED' ) ;
#117 = EDGE_LOOP ( 'NONE', ( #321, #146, #43 ) ) ;
#118 = DIRECTION ( 'NONE',  ( 4.275831445896959482E-31, 1.000000000000000000, 1.224646799147353454E-16 ) ) ;
#119 = CARTESIAN_POINT ( 'NONE',  ( 3.316907271900976814E-13, -1.163414459189985801E-14, 95.00000000000000000 ) ) ;
#120 = CARTESIAN_POINT ( 'NONE',  ( 1.276706033134748286E-14, 5.749999999999988454, 3.454948559408503428 ) ) ;
#121 = AXIS2_PLACEMENT_3D ( 'NONE', #210, #108, #94 ) ;
#122 = ORIENTED_EDGE ( 'NONE', *, *, #141, .T. ) ;
#123 = PERSON_AND_ORGANIZATION ( #332, #224 ) ;
#124 = EDGE_LOOP ( 'NONE', ( #271, #23, #273, #167 ) ) ;
#125 = EDGE_CURVE ( 'NONE', #335, #102, #19, .T. ) ;
#126 = ORIENTED_EDGE ( 'NONE', *, *, #141, .F. ) ;
#127 = AXIS2_PLACEMENT_3D ( 'NONE', #67, #229, #333 ) ;
#128 = ORIENTED_EDGE ( 'NONE', *, *, #301, .T. ) ;
#129 = CALENDAR_DATE ( 2021, 3, 9 ) ;
#130 = CARTESIAN_POINT ( 'NONE',  ( 1.206288842183775418E-14, -4.231091694498382362E-16, 3.454948559408502540 ) ) ;
#131 = ADVANCED_FACE ( 'NONE', ( #158 ), #285, .T. ) ;
#132 = ADVANCED_BREP_SHAPE_REPRESENTATION ( '54650', ( #281, #175, #183 ), #99 ) ;
#133 = DIRECTION ( 'NONE',  ( 0.0000000000000000000, 1.000000000000000000, 0.0000000000000000000 ) ) ;
#134 = EDGE_CURVE ( 'NONE', #240, #263, #261, .T. ) ;
#135 = APPROVAL_ROLE ( '' ) ;
#136 = VECTOR ( 'NONE', #295, 1000.000000000000000 ) ;
#137 = CYLINDRICAL_SURFACE ( 'NONE', #288, 5.749999999999996447 ) ;
#138 = LOCAL_TIME ( 9, 55, 2.000000000000000000, #253 ) ;
#139 = FACE_OUTER_BOUND ( 'NONE', #115, .T. ) ;
#140 = CYLINDRICAL_SURFACE ( 'NONE', #219, 5.749999999999996447 ) ;
#141 = EDGE_CURVE ( 'NONE', #39, #240, #55, .T. ) ;
#142 = LOCAL_TIME ( 9, 55, 2.000000000000000000, #297 ) ;
#143 =( NAMED_UNIT ( * ) SI_UNIT ( $, .STERADIAN. ) SOLID_ANGLE_UNIT ( ) );
#144 = FACE_OUTER_BOUND ( 'NONE', #202, .T. ) ;
#145 = APPROVAL ( #296, 'UNSPECIFIED' ) ;
#146 = ORIENTED_EDGE ( 'NONE', *, *, #328, .T. ) ;
#147 = ORIENTED_EDGE ( 'NONE', *, *, #279, .F. ) ;
#148 = APPLICATION_PROTOCOL_DEFINITION ( 'international standard', 'config_control_design', 1994, #163 ) ;
#149 = ORIENTED_EDGE ( 'NONE', *, *, #73, .F. ) ;
#150 = DIRECTION ( 'NONE',  ( -2.468850131082266527E-15, 0.7071067811865473507, -0.7071067811865477948 ) ) ;
#151 = FACE_OUTER_BOUND ( 'NONE', #88, .T. ) ;
#152 = PERSON_AND_ORGANIZATION_ROLE ( 'design_supplier' ) ;
#153 = CARTESIAN_POINT ( 'NONE',  ( 1.152188841818234133E-13, -4.041334437186266989E-15, 33.00000000000000000 ) ) ;
#154 = PERSON_AND_ORGANIZATION ( #332, #224 ) ;
#155 = DIRECTION ( 'NONE',  ( -3.491481338843133355E-15, 1.224646799147353454E-16, -1.000000000000000000 ) ) ;
#156 = DIRECTION ( 'NONE',  ( 3.491481338843133355E-15, -1.224646799147353454E-16, 1.000000000000000000 ) ) ;
#157 = APPROVAL_PERSON_ORGANIZATION ( #322, #145, #196 ) ;
#158 = FACE_OUTER_BOUND ( 'NONE', #249, .T. ) ;
#159 = AXIS2_PLACEMENT_3D ( 'NONE', #327, #325, #95 ) ;
#160 = EDGE_LOOP ( 'NONE', ( #54, #62, #276, #83 ) ) ;
#161 = AXIS2_PLACEMENT_3D ( 'NONE', #254, #228, #204 ) ;
#162 = DIRECTION ( 'NONE',  ( -4.275831445896959482E-31, -1.000000000000000000, -1.224646799147353454E-16 ) ) ;
#163 = APPLICATION_CONTEXT ( 'configuration controlled 3d designs of mechanical parts and assemblies' ) ;
#164 = ORIENTED_EDGE ( 'NONE', *, *, #125, .T. ) ;
#165 = CARTESIAN_POINT ( 'NONE',  ( 1.152188841818234133E-13, -4.041334437186266989E-15, 33.00000000000000000 ) ) ;
#166 = PERSON_AND_ORGANIZATION ( #332, #224 ) ;
#167 = ORIENTED_EDGE ( 'NONE', *, *, #173, .F. ) ;
#168 = APPROVAL_PERSON_ORGANIZATION ( #272, #265, #203 ) ;
#169 =( NAMED_UNIT ( * ) PLANE_ANGLE_UNIT ( ) SI_UNIT ( $, .RADIAN. ) );
#170 = ORIENTED_EDGE ( 'NONE', *, *, #208, .F. ) ;
#171 = DATE_TIME_ROLE ( 'creation_date' ) ;
#172 = EDGE_LOOP ( 'NONE', ( #128, #14, #36, #41 ) ) ;
#173 = EDGE_CURVE ( 'NONE', #263, #247, #32, .T. ) ;
#174 = CARTESIAN_POINT ( 'NONE',  ( 0.0000000000000000000, 0.0000000000000000000, 0.0000000000000000000 ) ) ;
#175 = MANIFOLD_SOLID_BREP ( 'Corps-Déplacer/Copier1[2]', #316 ) ;
#176 = AXIS2_PLACEMENT_3D ( 'NONE', #222, #195, #66 ) ;
#177 = LINE ( 'NONE', #181, #92 ) ;
#178 = EDGE_LOOP ( 'NONE', ( #164, #112 ) ) ;
#179 = CC_DESIGN_DATE_AND_TIME_ASSIGNMENT ( #308, #248, ( #283 ) ) ;
#180 = PERSON_AND_ORGANIZATION ( #332, #224 ) ;
#181 = CARTESIAN_POINT ( 'NONE',  ( 3.316907271900976814E-13, 4.749999999999988454, 95.00000000000000000 ) ) ;
#182 = COORDINATED_UNIVERSAL_TIME_OFFSET ( 1, 0, .AHEAD. ) ;
#183 = AXIS2_PLACEMENT_3D ( 'NONE', #221, #40, #241 ) ;
#184 = CARTESIAN_POINT ( 'NONE',  ( 3.281992458512545606E-13, -1.151167991198512286E-14, 94.00000000000000000 ) ) ;
#185 = DIRECTION ( 'NONE',  ( 4.275831445896959482E-31, 1.000000000000000000, 1.224646799147353454E-16 ) ) ;
#186 = AXIS2_PLACEMENT_3D ( 'NONE', #190, #156, #53 ) ;
#187 = DIRECTION ( 'NONE',  ( 4.275831445896959482E-31, 1.000000000000000000, 1.224646799147353454E-16 ) ) ;
#188 = ORIENTED_EDGE ( 'NONE', *, *, #173, .T. ) ;
#189 = EDGE_CURVE ( 'NONE', #319, #300, #245, .T. ) ;
#190 = CARTESIAN_POINT ( 'NONE',  ( 1.152188841818234133E-13, 4.311809375152831043E-32, 33.00000000000000000 ) ) ;
#191 = VECTOR ( 'NONE', #47, 1000.000000000000000 ) ;
#192 = AXIS2_PLACEMENT_3D ( 'NONE', #79, #218, #185 ) ;
#193 = ORIENTED_EDGE ( 'NONE', *, *, #234, .T. ) ;
#194 = CARTESIAN_POINT ( 'NONE',  ( 3.305879260902284616E-13, -4.750000000000011546, 95.00000000000000000 ) ) ;
#195 = DIRECTION ( 'NONE',  ( -3.491481338843133355E-15, 1.224646799147353454E-16, -1.000000000000000000 ) ) ;
#196 = APPROVAL_ROLE ( '' ) ;
#197 = AXIS2_PLACEMENT_3D ( 'NONE', #130, #111, #311 ) ;
#198 = CARTESIAN_POINT ( 'NONE',  ( 2.224132369260485689E-13, -5.750000000000010658, 94.00000000000000000 ) ) ;
#199 = LINE ( 'NONE', #21, #191 ) ;
#200 = EDGE_CURVE ( 'NONE', #247, #263, #6, .T. ) ;
#201 =( LENGTH_UNIT ( ) NAMED_UNIT ( * ) SI_UNIT ( .MILLI., .METRE. ) );
#202 = EDGE_LOOP ( 'NONE', ( #46, #69, #89, #231 ) ) ;
#203 = APPROVAL_ROLE ( '' ) ;
#204 = DIRECTION ( 'NONE',  ( 0.0000000000000000000, 1.000000000000000000, 0.0000000000000000000 ) ) ;
#205 = AXIS2_PLACEMENT_3D ( 'NONE', #114, #243, #118 ) ;
#206 = CARTESIAN_POINT ( 'NONE',  ( 1.152188841818234133E-13, -4.041334437186266989E-15, 33.00000000000000000 ) ) ;
#207 = DIRECTION ( 'NONE',  ( 0.0000000000000000000, 1.000000000000000000, 0.0000000000000000000 ) ) ;
#208 = EDGE_CURVE ( 'NONE', #102, #335, #303, .T. ) ;
#209 = SHAPE_DEFINITION_REPRESENTATION ( #97, #132 ) ;
#210 = CARTESIAN_POINT ( 'NONE',  ( 3.316907271900976814E-13, -1.163414459189985801E-14, 95.00000000000000000 ) ) ;
#211 = VECTOR ( 'NONE', #256, 1000.000000000000000 ) ;
#212 = DIRECTION ( 'NONE',  ( 0.0000000000000000000, 1.000000000000000000, 0.0000000000000000000 ) ) ;
#213 = ADVANCED_FACE ( 'NONE', ( #139 ), #140, .T. ) ;
#214 = CARTESIAN_POINT ( 'NONE',  ( 1.152188841818234133E-13, 4.311809375152831043E-32, 33.00000000000000000 ) ) ;
#215 = CIRCLE ( 'NONE', #334, 4.750000000000000000 ) ;
#216 = PRODUCT_RELATED_PRODUCT_CATEGORY ( 'detail', '', ( #331 ) ) ;
#217 = LINE ( 'NONE', #57, #136 ) ;
#218 = DIRECTION ( 'NONE',  ( -3.491481338843133355E-15, 1.224646799147353454E-16, -1.000000000000000000 ) ) ;
#219 = AXIS2_PLACEMENT_3D ( 'NONE', #1, #50, #310 ) ;
#220 = ORIENTED_EDGE ( 'NONE', *, *, #134, .T. ) ;
#221 = CARTESIAN_POINT ( 'NONE',  ( 0.0000000000000000000, 0.0000000000000000000, 0.0000000000000000000 ) ) ;
#222 = CARTESIAN_POINT ( 'NONE',  ( 3.316907271900976814E-13, -1.163414459189985801E-14, 95.00000000000000000 ) ) ;
#223 = DIRECTION ( 'NONE',  ( -3.491481338843133355E-15, 1.224646799147353454E-16, -1.000000000000000000 ) ) ;
#224 = ORGANIZATION ( 'UNSPECIFIED', 'UNSPECIFIED', '' ) ;
#225 = APPROVAL_STATUS ( 'not_yet_approved' ) ;
#226 = VERTEX_POINT ( 'NONE', #237 ) ;
#227 = CALENDAR_DATE ( 2021, 3, 9 ) ;
#228 = DIRECTION ( 'NONE',  ( -3.491481338843133355E-15, 1.224646799147353454E-16, -1.000000000000000000 ) ) ;
#229 = DIRECTION ( 'NONE',  ( 3.491481338843133355E-15, -1.224646799147353454E-16, 1.000000000000000000 ) ) ;
#230 = VECTOR ( 'NONE', #37, 999.9999999999998863 ) ;
#231 = ORIENTED_EDGE ( 'NONE', *, *, #189, .F. ) ;
#232 = CARTESIAN_POINT ( 'NONE',  ( 3.316907271900976814E-13, -1.163414459189985801E-14, 95.00000000000000000 ) ) ;
#233 = DIRECTION ( 'NONE',  ( 3.491481338843133355E-15, -1.224646799147353454E-16, 1.000000000000000000 ) ) ;
#234 = EDGE_CURVE ( 'NONE', #300, #335, #11, .T. ) ;
#235 = CARTESIAN_POINT ( 'NONE',  ( 1.206288842183775418E-14, -4.231091694498382362E-16, 3.454948559408502540 ) ) ;
#236 = CC_DESIGN_APPROVAL ( #265, ( #269 ) ) ;
#237 = CARTESIAN_POINT ( 'NONE',  ( 3.316907271900976814E-13, 4.749999999999988454, 95.00000000000000000 ) ) ;
#238 = DIRECTION ( 'NONE',  ( -3.491481338843133355E-15, 1.224646799147353454E-16, -1.000000000000000000 ) ) ;
#239 = PERSON_AND_ORGANIZATION_ROLE ( 'creator' ) ;
#240 = VERTEX_POINT ( 'NONE', #317 ) ;
#241 = DIRECTION ( 'NONE',  ( 1.000000000000000000, 0.0000000000000000000, 0.0000000000000000000 ) ) ;
#242 = EDGE_LOOP ( 'NONE', ( #280, #149 ) ) ;
#243 = DIRECTION ( 'NONE',  ( -3.491481338843133355E-15, 1.224646799147353454E-16, -1.000000000000000000 ) ) ;
#244 = FACE_OUTER_BOUND ( 'NONE', #282, .T. ) ;
#245 = CIRCLE ( 'NONE', #70, 5.750000000000000000 ) ;
#246 = LINE ( 'NONE', #120, #230 ) ;
#247 = VERTEX_POINT ( 'NONE', #110 ) ;
#248 = DATE_TIME_ROLE ( 'classification_date' ) ;
#249 = EDGE_LOOP ( 'NONE', ( #126, #24 ) ) ;
#250 = ADVANCED_FACE ( 'NONE', ( #106 ), #257, .T. ) ;
#251 = DIRECTION ( 'NONE',  ( 4.275831445896959482E-31, 1.000000000000000000, 1.224646799147353454E-16 ) ) ;
#252 = VECTOR ( 'NONE', #155, 1000.000000000000000 ) ;
#253 = COORDINATED_UNIVERSAL_TIME_OFFSET ( 1, 0, .AHEAD. ) ;
#254 = CARTESIAN_POINT ( 'NONE',  ( 3.281992458512545606E-13, -1.151167991198512286E-14, 94.00000000000000000 ) ) ;
#255 = SECURITY_CLASSIFICATION_LEVEL ( 'unclassified' ) ;
#256 = DIRECTION ( 'NONE',  ( -3.491481338843133355E-15, 1.224646799147353454E-16, -1.000000000000000000 ) ) ;
#257 = CYLINDRICAL_SURFACE ( 'NONE', #192, 5.749999999999991118 ) ;
#258 = EDGE_CURVE ( 'NONE', #39, #247, #217, .T. ) ;
#259 = CIRCLE ( 'NONE', #161, 5.750000000000000000 ) ;
#260 = ADVANCED_FACE ( 'NONE', ( #82 ), #87, .F. ) ;
#261 = LINE ( 'NONE', #314, #211 ) ;
#262 = CC_DESIGN_APPROVAL ( #116, ( #283 ) ) ;
#263 = VERTEX_POINT ( 'NONE', #287 ) ;
#264 = DIRECTION ( 'NONE',  ( -3.491481338843133355E-15, 1.224646799147353454E-16, -1.000000000000000000 ) ) ;
#265 = APPROVAL ( #225, 'UNSPECIFIED' ) ;
#266 = VERTEX_POINT ( 'NONE', #194 ) ;
#267 = PLANE ( 'NONE',  #205 ) ;
#268 = ORIENTED_EDGE ( 'NONE', *, *, #60, .T. ) ;
#269 = PRODUCT_DEFINITION_FORMATION_WITH_SPECIFIED_SOURCE ( 'ANY', '', #331, .NOT_KNOWN. ) ;
#270 = DATE_AND_TIME ( #68, #142 ) ;
#271 = ORIENTED_EDGE ( 'NONE', *, *, #134, .F. ) ;
#272 = PERSON_AND_ORGANIZATION ( #332, #224 ) ;
#273 = ORIENTED_EDGE ( 'NONE', *, *, #258, .T. ) ;
#274 = APPROVAL_DATE_TIME ( #299, #265 ) ;
#275 = AXIS2_PLACEMENT_3D ( 'NONE', #153, #98, #207 ) ;
#276 = ORIENTED_EDGE ( 'NONE', *, *, #125, .F. ) ;
#277 = AXIS2_PLACEMENT_3D ( 'NONE', #235, #264, #306 ) ;
#278 = CARTESIAN_POINT ( 'NONE',  ( 0.0000000000000000000, 0.0000000000000000000, 0.0000000000000000000 ) ) ;
#279 = EDGE_CURVE ( 'NONE', #319, #102, #29, .T. ) ;
#280 = ORIENTED_EDGE ( 'NONE', *, *, #301, .F. ) ;
#281 = MANIFOLD_SOLID_BREP ( 'Corps-Déplacer/Copier1[1]', #18 ) ;
#282 = EDGE_LOOP ( 'NONE', ( #122, #220, #313, #26 ) ) ;
#283 = SECURITY_CLASSIFICATION ( '', '', #255 ) ;
#284 = PRODUCT_DEFINITION ( 'UNKNOWN', '', #269, #12 ) ;
#285 = PLANE ( 'NONE',  #64 ) ;
#286 = ADVANCED_FACE ( 'NONE', ( #51 ), #137, .T. ) ;
#287 = CARTESIAN_POINT ( 'NONE',  ( 1.206288842183775103E-14, -5.749999999999988454, 3.454948559408501652 ) ) ;
#288 = AXIS2_PLACEMENT_3D ( 'NONE', #58, #9, #187 ) ;
#289 = ADVANCED_FACE ( 'NONE', ( #290 ), #318, .T. ) ;
#290 = FACE_OUTER_BOUND ( 'NONE', #172, .T. ) ;
#291 = UNCERTAINTY_MEASURE_WITH_UNIT (LENGTH_MEASURE( 1.000000000000000082E-05 ), #201, 'distance_accuracy_value', 'NONE');
#292 = AXIS2_PLACEMENT_3D ( 'NONE', #174, #330, #251 ) ;
#293 = CARTESIAN_POINT ( 'NONE',  ( 7.041719095097253269E-16, -5.749999999999996447, -7.041719095097301587E-16 ) ) ;
#294 = ORIENTED_EDGE ( 'NONE', *, *, #328, .F. ) ;
#295 = DIRECTION ( 'NONE',  ( -3.491481338843133355E-15, 1.224646799147353454E-16, -1.000000000000000000 ) ) ;
#296 = APPROVAL_STATUS ( 'not_yet_approved' ) ;
#297 = COORDINATED_UNIVERSAL_TIME_OFFSET ( 1, 0, .AHEAD. ) ;
#298 = CYLINDRICAL_SURFACE ( 'NONE', #292, 5.749999999999991118 ) ;
#299 = DATE_AND_TIME ( #227, #48 ) ;
#300 = VERTEX_POINT ( 'NONE', #104 ) ;
#301 = EDGE_CURVE ( 'NONE', #226, #266, #27, .T. ) ;
#302 = LINE ( 'NONE', #44, #20 ) ;
#303 = CIRCLE ( 'NONE', #105, 5.749999999999992895 ) ;
#304 = DIRECTION ( 'NONE',  ( -3.491481338843133355E-15, 1.224646799147353454E-16, -1.000000000000000000 ) ) ;
#305 = CARTESIAN_POINT ( 'NONE',  ( 1.152188841818234133E-13, 5.749999999999988454, 33.00000000000000000 ) ) ;
#306 = DIRECTION ( 'NONE',  ( 5.359109410468840862E-31, 1.000000000000000000, 1.508455196501574388E-16 ) ) ;
#307 = CONICAL_SURFACE ( 'NONE', #159, 5.749999999999988454, 1.029744258676649649 ) ;
#308 = DATE_AND_TIME ( #103, #138 ) ;
#309 = ADVANCED_FACE ( 'NONE', ( #144 ), #86, .T. ) ;
#310 = DIRECTION ( 'NONE',  ( 4.275831445896959482E-31, 1.000000000000000000, 1.224646799147353454E-16 ) ) ;
#311 = DIRECTION ( 'NONE',  ( 5.359109410468840862E-31, 1.000000000000000000, 1.508455196501574388E-16 ) ) ;
#312 = LOCAL_TIME ( 9, 55, 2.000000000000000000, #13 ) ;
#313 = ORIENTED_EDGE ( 'NONE', *, *, #200, .F. ) ;
#314 = CARTESIAN_POINT ( 'NONE',  ( 7.041719095097246367E-16, -5.749999999999991118, -7.041719095097296657E-16 ) ) ;
#315 = CC_DESIGN_PERSON_AND_ORGANIZATION_ASSIGNMENT ( #49, #28, ( #283 ) ) ;
#316 = CLOSED_SHELL ( 'NONE', ( #5, #100, #15, #250, #131 ) ) ;
#317 = CARTESIAN_POINT ( 'NONE',  ( 6.434505821134028405E-14, -5.749999999999996447, 33.00000000000000000 ) ) ;
#318 = CONICAL_SURFACE ( 'NONE', #33, 4.750000000000000000, 0.7853981633974479459 ) ;
#319 = VERTEX_POINT ( 'NONE', #198 ) ;
#320 = APPLICATION_PROTOCOL_DEFINITION ( 'international standard', 'config_control_design', 1994, #56 ) ;
#321 = ORIENTED_EDGE ( 'NONE', *, *, #60, .F. ) ;
#322 = PERSON_AND_ORGANIZATION ( #332, #224 ) ;
#323 = ADVANCED_FACE ( 'NONE', ( #90 ), #267, .F. ) ;
#324 = APPROVAL_PERSON_ORGANIZATION ( #154, #116, #135 ) ;
#325 = DIRECTION ( 'NONE',  ( 3.491481338843133355E-15, -1.224646799147353454E-16, 1.000000000000000000 ) ) ;
#326 = COORDINATED_UNIVERSAL_TIME_OFFSET ( 1, 0, .AHEAD. ) ;
#327 = CARTESIAN_POINT ( 'NONE',  ( 1.206288842183775418E-14, -4.231091694498382362E-16, 3.454948559408502540 ) ) ;
#328 = EDGE_CURVE ( 'NONE', #16, #247, #246, .T. ) ;
#329 = PERSON_AND_ORGANIZATION ( #332, #224 ) ;
#330 = DIRECTION ( 'NONE',  ( -3.491481338843133355E-15, 1.224646799147353454E-16, -1.000000000000000000 ) ) ;
#331 = PRODUCT ( '54650', '54650', '', ( #63 ) ) ;
#332 = PERSON ( 'UNSPECIFIED', 'UNSPECIFIED', 'UNSPECIFIED', ('UNSPECIFIED'), ('UNSPECIFIED'), ('UNSPECIFIED') ) ;
#333 = DIRECTION ( 'NONE',  ( -5.359109410468840862E-31, -1.000000000000000000, -1.508455196501574388E-16 ) ) ;
#334 = AXIS2_PLACEMENT_3D ( 'NONE', #119, #223, #71 ) ;
#335 = VERTEX_POINT ( 'NONE', #91 ) ;
#336 = APPROVAL_DATE_TIME ( #78, #116 ) ;
#337 = DIRECTION ( 'NONE',  ( -3.491481338843133355E-15, 1.224646799147353454E-16, -1.000000000000000000 ) ) ;
ENDSEC;
END-ISO-10303-21;
