ISO-10303-21;
HEADER;
FILE_DESCRIPTION (( 'STEP AP203' ),
    '1' );
FILE_NAME ('54649.step',
    '2021-09-03T07:54:56',
    ( '' ),
    ( '' ),
    'SwSTEP 2.0',
    'SolidWorks 2019',
    '' );
FILE_SCHEMA (( 'CONFIG_CONTROL_DESIGN' ));
ENDSEC;

DATA;
#1 = PERSON_AND_ORGANIZATION_ROLE ( 'creator' ) ;
#2 = ORIENTED_EDGE ( 'NONE', *, *, #97, .F. ) ;
#3 = COORDINATED_UNIVERSAL_TIME_OFFSET ( 1, 0, .AHEAD. ) ;
#4 = ORIENTED_EDGE ( 'NONE', *, *, #101, .T. ) ;
#5 = PRODUCT_DEFINITION ( 'UNKNOWN', '', #13, #237 ) ;
#6 = ORIENTED_EDGE ( 'NONE', *, *, #157, .T. ) ;
#7 = AXIS2_PLACEMENT_3D ( 'NONE', #153, #122, #248 ) ;
#8 = ORIENTED_EDGE ( 'NONE', *, *, #184, .T. ) ;
#9 = FACE_OUTER_BOUND ( 'NONE', #85, .T. ) ;
#10 = CC_DESIGN_PERSON_AND_ORGANIZATION_ASSIGNMENT ( #135, #1, ( #5 ) ) ;
#11 = CALENDAR_DATE ( 2021, 3, 9 ) ;
#12 = AXIS2_PLACEMENT_3D ( 'NONE', #30, #228, #208 ) ;
#13 = PRODUCT_DEFINITION_FORMATION_WITH_SPECIFIED_SOURCE ( 'ANY', '', #96, .NOT_KNOWN. ) ;
#14 = CYLINDRICAL_SURFACE ( 'NONE', #54, 5.499999999999997335 ) ;
#15 = FACE_OUTER_BOUND ( 'NONE', #231, .T. ) ;
#16 = CC_DESIGN_PERSON_AND_ORGANIZATION_ASSIGNMENT ( #217, #253, ( #67 ) ) ;
#17 = CARTESIAN_POINT ( 'NONE',  ( 2.351707295243326621E-30, 5.499999999999997335, 6.735557395310440051E-16 ) ) ;
#18 = CARTESIAN_POINT ( 'NONE',  ( 3.322418182497139517E-13, -4.500000000000011546, 95.00000000000000000 ) ) ;
#19 = DIRECTION ( 'NONE',  ( -3.491481338843133355E-15, 1.224646799147353454E-16, -1.000000000000000000 ) ) ;
#20 = CARTESIAN_POINT ( 'NONE',  ( 1.153841501219263451E-14, -4.047131186041931662E-16, 3.304733404651611473 ) ) ;
#21 = VECTOR ( 'NONE', #274, 999.9999999999998863 ) ;
#22 = APPROVAL_STATUS ( 'not_yet_approved' ) ;
#23 = DATE_AND_TIME ( #282, #251 ) ;
#24 = ORIENTED_EDGE ( 'NONE', *, *, #148, .F. ) ;
#25 = AXIS2_PLACEMENT_3D ( 'NONE', #203, #305, #49 ) ;
#26 = CALENDAR_DATE ( 2021, 3, 9 ) ;
#27 = ORIENTED_EDGE ( 'NONE', *, *, #242, .T. ) ;
#28 = ADVANCED_FACE ( 'NONE', ( #213 ), #260, .T. ) ;
#29 = VERTEX_POINT ( 'NONE', #271 ) ;
#30 = CARTESIAN_POINT ( 'NONE',  ( 0.0000000000000000000, 0.0000000000000000000, 0.0000000000000000000 ) ) ;
#31 = ORIENTED_EDGE ( 'NONE', *, *, #97, .T. ) ;
#32 = DIRECTION ( 'NONE',  ( 0.0000000000000000000, 0.0000000000000000000, 1.000000000000000000 ) ) ;
#33 = CARTESIAN_POINT ( 'NONE',  ( 0.0000000000000000000, 0.0000000000000000000, 0.0000000000000000000 ) ) ;
#34 = ADVANCED_FACE ( 'NONE', ( #325 ), #14, .T. ) ;
#35 = APPROVAL_ROLE ( '' ) ;
#36 = LINE ( 'NONE', #197, #297 ) ;
#37 = APPLICATION_CONTEXT ( 'configuration controlled 3d designs of mechanical parts and assemblies' ) ;
#38 = AXIS2_PLACEMENT_3D ( 'NONE', #70, #154, #43 ) ;
#39 = DIRECTION ( 'NONE',  ( 4.275831445896959482E-31, 1.000000000000000000, 1.224646799147353207E-16 ) ) ;
#40 = DIRECTION ( 'NONE',  ( -3.491481338843133355E-15, 1.224646799147353454E-16, -1.000000000000000000 ) ) ;
#41 = DIRECTION ( 'NONE',  ( 0.0000000000000000000, 1.000000000000000000, 0.0000000000000000000 ) ) ;
#42 = CIRCLE ( 'NONE', #38, 4.500000000000000888 ) ;
#43 = DIRECTION ( 'NONE',  ( 0.0000000000000000000, 1.000000000000000000, 0.0000000000000000000 ) ) ;
#44 = FACE_OUTER_BOUND ( 'NONE', #308, .T. ) ;
#45 =( LENGTH_UNIT ( ) NAMED_UNIT ( * ) SI_UNIT ( .MILLI., .METRE. ) );
#46 = AXIS2_PLACEMENT_3D ( 'NONE', #327, #64, #119 ) ;
#47 = CIRCLE ( 'NONE', #7, 5.499999999999989342 ) ;
#48 = EDGE_CURVE ( 'NONE', #230, #158, #200, .T. ) ;
#49 = DIRECTION ( 'NONE',  ( -4.275831445896959482E-31, -1.000000000000000000, -1.224646799147353454E-16 ) ) ;
#50 = APPROVAL_DATE_TIME ( #78, #100 ) ;
#51 = ORIENTED_EDGE ( 'NONE', *, *, #132, .T. ) ;
#52 = APPROVAL_ROLE ( '' ) ;
#53 = ORIENTED_EDGE ( 'NONE', *, *, #242, .F. ) ;
#54 = AXIS2_PLACEMENT_3D ( 'NONE', #33, #120, #244 ) ;
#55 = AXIS2_PLACEMENT_3D ( 'NONE', #220, #221, #146 ) ;
#56 = ORIENTED_EDGE ( 'NONE', *, *, #198, .T. ) ;
#57 = ORIENTED_EDGE ( 'NONE', *, *, #157, .F. ) ;
#58 = ORIENTED_EDGE ( 'NONE', *, *, #90, .F. ) ;
#59 = CONICAL_SURFACE ( 'NONE', #205, 5.499999999999989342, 1.029744258676649649 ) ;
#60 = CARTESIAN_POINT ( 'NONE',  ( 1.152188841818234133E-13, 4.124339402320099116E-32, 33.00000000000000000 ) ) ;
#61 = COORDINATED_UNIVERSAL_TIME_OFFSET ( 1, 0, .AHEAD. ) ;
#62 = FACE_OUTER_BOUND ( 'NONE', #82, .T. ) ;
#63 = APPROVAL_STATUS ( 'not_yet_approved' ) ;
#64 = DIRECTION ( 'NONE',  ( -3.491481338843133355E-15, 1.224646799147353454E-16, -1.000000000000000000 ) ) ;
#65 = ADVANCED_FACE ( 'NONE', ( #94 ), #296, .T. ) ;
#66 = EDGE_CURVE ( 'NONE', #84, #158, #219, .T. ) ;
#67 = SECURITY_CLASSIFICATION ( '', '', #117 ) ;
#68 = LINE ( 'NONE', #166, #105 ) ;
#69 = DIRECTION ( 'NONE',  ( -3.491481338843133355E-15, 1.224646799147353454E-16, -1.000000000000000000 ) ) ;
#70 = CARTESIAN_POINT ( 'NONE',  ( 3.316907271900976814E-13, -1.163414459189985801E-14, 95.00000000000000000 ) ) ;
#71 = LINE ( 'NONE', #124, #21 ) ;
#72 = CIRCLE ( 'NONE', #233, 5.499999999999993783 ) ;
#73 = DIRECTION ( 'NONE',  ( 5.602705292762879162E-31, 1.000000000000000000, 1.577021341797100518E-16 ) ) ;
#74 = CARTESIAN_POINT ( 'NONE',  ( 0.0000000000000000000, 0.0000000000000000000, 0.0000000000000000000 ) ) ;
#75 = CC_DESIGN_PERSON_AND_ORGANIZATION_ASSIGNMENT ( #206, #226, ( #13 ) ) ;
#76 = FACE_OUTER_BOUND ( 'NONE', #137, .T. ) ;
#77 = AXIS2_PLACEMENT_3D ( 'NONE', #144, #239, #39 ) ;
#78 = DATE_AND_TIME ( #11, #269 ) ;
#79 = ORIENTED_EDGE ( 'NONE', *, *, #126, .T. ) ;
#80 = UNCERTAINTY_MEASURE_WITH_UNIT (LENGTH_MEASURE( 1.000000000000000082E-05 ), #45, 'distance_accuracy_value', 'NONE');
#81 = ORIENTED_EDGE ( 'NONE', *, *, #66, .F. ) ;
#82 = EDGE_LOOP ( 'NONE', ( #133, #51, #283, #108 ) ) ;
#83 = APPROVAL_PERSON_ORGANIZATION ( #322, #281, #35 ) ;
#84 = VERTEX_POINT ( 'NONE', #89 ) ;
#85 = EDGE_LOOP ( 'NONE', ( #280, #188 ) ) ;
#86 = CARTESIAN_POINT ( 'NONE',  ( 2.223826207560699798E-13, -5.499999999999998224, 33.00000000000000000 ) ) ;
#87 = PERSON_AND_ORGANIZATION ( #115, #174 ) ;
#88 = AXIS2_PLACEMENT_3D ( 'NONE', #215, #69, #168 ) ;
#89 = CARTESIAN_POINT ( 'NONE',  ( 2.223826207560698788E-13, -5.500000000000011546, 94.00000000000000000 ) ) ;
#90 = EDGE_CURVE ( 'NONE', #109, #230, #121, .T. ) ;
#91 = DIRECTION ( 'NONE',  ( -3.491481338843133355E-15, 1.224646799147353454E-16, -1.000000000000000000 ) ) ;
#92 = CARTESIAN_POINT ( 'NONE',  ( 3.281992458512545606E-13, -1.151167991198512286E-14, 94.00000000000000000 ) ) ;
#93 = AXIS2_PLACEMENT_3D ( 'NONE', #60, #149, #236 ) ;
#94 = FACE_OUTER_BOUND ( 'NONE', #107, .T. ) ;
#95 =( NAMED_UNIT ( * ) SI_UNIT ( $, .STERADIAN. ) SOLID_ANGLE_UNIT ( ) );
#96 = PRODUCT ( '54649', '54649', '', ( #290 ) ) ;
#97 = EDGE_CURVE ( 'NONE', #84, #109, #241, .T. ) ;
#98 = DIRECTION ( 'NONE',  ( -3.491481338843133355E-15, 1.224646799147353454E-16, -1.000000000000000000 ) ) ;
#99 = CIRCLE ( 'NONE', #277, 5.499999999999993783 ) ;
#100 = APPROVAL ( #22, 'UNSPECIFIED' ) ;
#101 = EDGE_CURVE ( 'NONE', #210, #29, #36, .T. ) ;
#102 = DIRECTION ( 'NONE',  ( 4.275831445896959482E-31, 1.000000000000000000, 1.224646799147353454E-16 ) ) ;
#103 = FACE_OUTER_BOUND ( 'NONE', #187, .T. ) ;
#104 = DATE_TIME_ROLE ( 'creation_date' ) ;
#105 = VECTOR ( 'NONE', #265, 1000.000000000000000 ) ;
#106 = PERSON_AND_ORGANIZATION ( #115, #174 ) ;
#107 = EDGE_LOOP ( 'NONE', ( #289, #286, #160, #53 ) ) ;
#108 = ORIENTED_EDGE ( 'NONE', *, *, #302, .F. ) ;
#109 = VERTEX_POINT ( 'NONE', #142 ) ;
#110 = AXIS2_PLACEMENT_3D ( 'NONE', #324, #270, #295 ) ;
#111 = APPROVAL_PERSON_ORGANIZATION ( #87, #257, #52 ) ;
#112 = ORIENTED_EDGE ( 'NONE', *, *, #48, .T. ) ;
#113 = ORIENTED_EDGE ( 'NONE', *, *, #303, .F. ) ;
#114 = CALENDAR_DATE ( 2021, 3, 9 ) ;
#115 = PERSON ( 'UNSPECIFIED', 'UNSPECIFIED', 'UNSPECIFIED', ('UNSPECIFIED'), ('UNSPECIFIED'), ('UNSPECIFIED') ) ;
#116 = CARTESIAN_POINT ( 'NONE',  ( 1.152188841818234133E-13, -4.041334437186266989E-15, 33.00000000000000000 ) ) ;
#117 = SECURITY_CLASSIFICATION_LEVEL ( 'unclassified' ) ;
#118 = APPROVAL_PERSON_ORGANIZATION ( #336, #100, #279 ) ;
#119 = DIRECTION ( 'NONE',  ( 0.0000000000000000000, 1.000000000000000000, 0.0000000000000000000 ) ) ;
#120 = DIRECTION ( 'NONE',  ( -3.491481338843133355E-15, 1.224646799147353454E-16, -1.000000000000000000 ) ) ;
#121 = LINE ( 'NONE', #17, #240 ) ;
#122 = DIRECTION ( 'NONE',  ( -3.491481338843133355E-15, 1.224646799147353454E-16, -1.000000000000000000 ) ) ;
#123 = DIRECTION ( 'NONE',  ( -5.602705292762879162E-31, -1.000000000000000000, -1.577021341797100518E-16 ) ) ;
#124 = CARTESIAN_POINT ( 'NONE',  ( 3.316907271900976814E-13, 4.499999999999989342, 95.00000000000000000 ) ) ;
#125 = ADVANCED_FACE ( 'NONE', ( #9 ), #298, .T. ) ;
#126 = EDGE_CURVE ( 'NONE', #158, #230, #72, .T. ) ;
#127 = ADVANCED_BREP_SHAPE_REPRESENTATION ( '54649', ( #218, #216, #134 ), #255 ) ;
#128 = DIRECTION ( 'NONE',  ( 1.903218546456022717E-15, 0.8571673007021097801, 0.5150380749100585964 ) ) ;
#129 = LOCAL_TIME ( 9, 54, 56.00000000000000000, #256 ) ;
#130 = PERSON_AND_ORGANIZATION ( #115, #174 ) ;
#131 = APPROVAL_STATUS ( 'not_yet_approved' ) ;
#132 = EDGE_CURVE ( 'NONE', #313, #262, #179, .T. ) ;
#133 = ORIENTED_EDGE ( 'NONE', *, *, #138, .F. ) ;
#134 = AXIS2_PLACEMENT_3D ( 'NONE', #182, #32, #293 ) ;
#135 = PERSON_AND_ORGANIZATION ( #115, #174 ) ;
#136 = VERTEX_POINT ( 'NONE', #245 ) ;
#137 = EDGE_LOOP ( 'NONE', ( #8, #161, #209, #113 ) ) ;
#138 = EDGE_CURVE ( 'NONE', #313, #29, #68, .T. ) ;
#139 = EDGE_LOOP ( 'NONE', ( #232, #141, #254, #58 ) ) ;
#140 = VECTOR ( 'NONE', #170, 1000.000000000000000 ) ;
#141 = ORIENTED_EDGE ( 'NONE', *, *, #66, .T. ) ;
#142 = CARTESIAN_POINT ( 'NONE',  ( 3.281992458512545606E-13, 5.499999999999989342, 94.00000000000000000 ) ) ;
#143 = DATE_AND_TIME ( #26, #155 ) ;
#144 = CARTESIAN_POINT ( 'NONE',  ( 0.0000000000000000000, 0.0000000000000000000, 0.0000000000000000000 ) ) ;
#145 = CC_DESIGN_PERSON_AND_ORGANIZATION_ASSIGNMENT ( #130, #167, ( #13 ) ) ;
#146 = DIRECTION ( 'NONE',  ( 0.0000000000000000000, 1.000000000000000000, 0.0000000000000000000 ) ) ;
#147 = CARTESIAN_POINT ( 'NONE',  ( 3.316907271900976814E-13, -1.163414459189985801E-14, 95.00000000000000000 ) ) ;
#148 = EDGE_CURVE ( 'NONE', #162, #84, #294, .T. ) ;
#149 = DIRECTION ( 'NONE',  ( 3.491481338843133355E-15, -1.224646799147353454E-16, 1.000000000000000000 ) ) ;
#150 = CONICAL_SURFACE ( 'NONE', #190, 5.499999999999989342, 1.029744258676649649 ) ;
#151 = DIRECTION ( 'NONE',  ( -3.491481338843133355E-15, 1.224646799147353454E-16, -1.000000000000000000 ) ) ;
#152 = ADVANCED_FACE ( 'NONE', ( #326 ), #150, .T. ) ;
#153 = CARTESIAN_POINT ( 'NONE',  ( 1.153841501219263451E-14, -4.047131186041931662E-16, 3.304733404651611473 ) ) ;
#154 = DIRECTION ( 'NONE',  ( -3.491481338843133355E-15, 1.224646799147353454E-16, -1.000000000000000000 ) ) ;
#155 = LOCAL_TIME ( 9, 54, 56.00000000000000000, #3 ) ;
#156 =( NAMED_UNIT ( * ) PLANE_ANGLE_UNIT ( ) SI_UNIT ( $, .RADIAN. ) );
#157 = EDGE_CURVE ( 'NONE', #162, #136, #337, .T. ) ;
#158 = VERTEX_POINT ( 'NONE', #86 ) ;
#159 = COORDINATED_UNIVERSAL_TIME_OFFSET ( 1, 0, .AHEAD. ) ;
#160 = ORIENTED_EDGE ( 'NONE', *, *, #267, .F. ) ;
#161 = ORIENTED_EDGE ( 'NONE', *, *, #138, .T. ) ;
#162 = VERTEX_POINT ( 'NONE', #243 ) ;
#163 = ORIENTED_EDGE ( 'NONE', *, *, #311, .T. ) ;
#164 = CIRCLE ( 'NONE', #333, 5.500000000000000888 ) ;
#165 = DIRECTION ( 'NONE',  ( 3.491481338843133355E-15, -1.224646799147353454E-16, 1.000000000000000000 ) ) ;
#166 = CARTESIAN_POINT ( 'NONE',  ( 6.735557395310408497E-16, -5.499999999999991118, -6.735557395310455828E-16 ) ) ;
#167 = PERSON_AND_ORGANIZATION_ROLE ( 'creator' ) ;
#168 = DIRECTION ( 'NONE',  ( 0.0000000000000000000, 1.000000000000000000, 0.0000000000000000000 ) ) ;
#169 = AXIS2_PLACEMENT_3D ( 'NONE', #147, #304, #252 ) ;
#170 = DIRECTION ( 'NONE',  ( -2.382254525458717469E-15, -0.7071067811865471286, -0.7071067811865479058 ) ) ;
#171 = PRODUCT_RELATED_PRODUCT_CATEGORY ( 'detail', '', ( #96 ) ) ;
#172 = DIRECTION ( 'NONE',  ( 1.798245827342160317E-15, -0.8571673007021098911, 0.5150380749100582634 ) ) ;
#173 = PLANE ( 'NONE',  #186 ) ;
#174 = ORGANIZATION ( 'UNSPECIFIED', 'UNSPECIFIED', '' ) ;
#175 = CC_DESIGN_PERSON_AND_ORGANIZATION_ASSIGNMENT ( #106, #235, ( #96 ) ) ;
#176 = DIRECTION ( 'NONE',  ( -3.491481338843133355E-15, 1.224646799147353454E-16, -1.000000000000000000 ) ) ;
#177 = CARTESIAN_POINT ( 'NONE',  ( 1.152188841818234133E-13, 5.499999999999989342, 33.00000000000000000 ) ) ;
#178 = CARTESIAN_POINT ( 'NONE',  ( 3.281992458512545606E-13, -1.151167991198512286E-14, 94.00000000000000000 ) ) ;
#179 = CIRCLE ( 'NONE', #88, 5.499999999999993783 ) ;
#180 = CALENDAR_DATE ( 2021, 3, 9 ) ;
#181 = ORIENTED_EDGE ( 'NONE', *, *, #261, .F. ) ;
#182 = CARTESIAN_POINT ( 'NONE',  ( 0.0000000000000000000, 0.0000000000000000000, 0.0000000000000000000 ) ) ;
#183 = ORIENTED_EDGE ( 'NONE', *, *, #126, .F. ) ;
#184 = EDGE_CURVE ( 'NONE', #262, #313, #99, .T. ) ;
#185 = ORIENTED_EDGE ( 'NONE', *, *, #302, .T. ) ;
#186 = AXIS2_PLACEMENT_3D ( 'NONE', #332, #98, #102 ) ;
#187 = EDGE_LOOP ( 'NONE', ( #181, #57 ) ) ;
#188 = ORIENTED_EDGE ( 'NONE', *, *, #132, .F. ) ;
#189 = CARTESIAN_POINT ( 'NONE',  ( 1.152188841818234133E-13, -4.041334437186266989E-15, 33.00000000000000000 ) ) ;
#190 = AXIS2_PLACEMENT_3D ( 'NONE', #321, #165, #268 ) ;
#191 = ADVANCED_FACE ( 'NONE', ( #62 ), #291, .T. ) ;
#192 = ADVANCED_FACE ( 'NONE', ( #15 ), #272, .T. ) ;
#193 = DIRECTION ( 'NONE',  ( 0.0000000000000000000, 1.000000000000000000, 0.0000000000000000000 ) ) ;
#194 = DIRECTION ( 'NONE',  ( -3.491481338843133355E-15, 1.224646799147353454E-16, -1.000000000000000000 ) ) ;
#195 = DIRECTION ( 'NONE',  ( 0.0000000000000000000, 1.000000000000000000, 0.0000000000000000000 ) ) ;
#196 = CC_DESIGN_APPROVAL ( #257, ( #67 ) ) ;
#197 = CARTESIAN_POINT ( 'NONE',  ( 1.153841501219263135E-14, -5.499999999999989342, 3.304733404651610584 ) ) ;
#198 = EDGE_CURVE ( 'NONE', #259, #29, #328, .T. ) ;
#199 = DIRECTION ( 'NONE',  ( -3.491481338843133355E-15, 1.224646799147353454E-16, -1.000000000000000000 ) ) ;
#200 = CIRCLE ( 'NONE', #110, 5.499999999999993783 ) ;
#201 = LOCAL_TIME ( 9, 54, 56.00000000000000000, #159 ) ;
#202 = LINE ( 'NONE', #335, #246 ) ;
#203 = CARTESIAN_POINT ( 'NONE',  ( 1.152188841818234133E-13, 4.124339402320099116E-32, 33.00000000000000000 ) ) ;
#204 = CARTESIAN_POINT ( 'NONE',  ( 2.351707295243323818E-30, 5.499999999999991118, 6.735557395310432162E-16 ) ) ;
#205 = AXIS2_PLACEMENT_3D ( 'NONE', #20, #225, #123 ) ;
#206 = PERSON_AND_ORGANIZATION ( #115, #174 ) ;
#207 = APPLICATION_PROTOCOL_DEFINITION ( 'international standard', 'config_control_design', 1994, #329 ) ;
#208 = DIRECTION ( 'NONE',  ( 4.275831445896959482E-31, 1.000000000000000000, 1.224646799147353207E-16 ) ) ;
#209 = ORIENTED_EDGE ( 'NONE', *, *, #198, .F. ) ;
#210 = VERTEX_POINT ( 'NONE', #74 ) ;
#211 = CC_DESIGN_APPROVAL ( #281, ( #13 ) ) ;
#212 = CC_DESIGN_SECURITY_CLASSIFICATION ( #67, ( #13 ) ) ;
#213 = FACE_OUTER_BOUND ( 'NONE', #139, .T. ) ;
#214 = DIRECTION ( 'NONE',  ( -3.491481338843133355E-15, 1.224646799147353454E-16, -1.000000000000000000 ) ) ;
#215 = CARTESIAN_POINT ( 'NONE',  ( 1.152188841818234133E-13, -4.041334437186266989E-15, 33.00000000000000000 ) ) ;
#216 = MANIFOLD_SOLID_BREP ( 'Corps-Déplacer/Copier1[2]', #250 ) ;
#217 = PERSON_AND_ORGANIZATION ( #115, #174 ) ;
#218 = MANIFOLD_SOLID_BREP ( 'Corps-Déplacer/Copier1[1]', #316 ) ;
#219 = LINE ( 'NONE', #292, #276 ) ;
#220 = CARTESIAN_POINT ( 'NONE',  ( 3.316907271900976814E-13, -1.163414459189985801E-14, 95.00000000000000000 ) ) ;
#221 = DIRECTION ( 'NONE',  ( -3.491481338843133355E-15, 1.224646799147353454E-16, -1.000000000000000000 ) ) ;
#222 = CARTESIAN_POINT ( 'NONE',  ( 1.221197075172368098E-14, 5.499999999999989342, 3.304733404651612361 ) ) ;
#223 = CYLINDRICAL_SURFACE ( 'NONE', #263, 5.499999999999991118 ) ;
#224 = LINE ( 'NONE', #204, #284 ) ;
#225 = DIRECTION ( 'NONE',  ( 3.491481338843133355E-15, -1.224646799147353454E-16, 1.000000000000000000 ) ) ;
#226 = PERSON_AND_ORGANIZATION_ROLE ( 'design_supplier' ) ;
#227 = APPROVAL_DATE_TIME ( #143, #257 ) ;
#228 = DIRECTION ( 'NONE',  ( -3.491481338843133355E-15, 1.224646799147353454E-16, -1.000000000000000000 ) ) ;
#229 = DATE_AND_TIME ( #180, #201 ) ;
#230 = VERTEX_POINT ( 'NONE', #177 ) ;
#231 = EDGE_LOOP ( 'NONE', ( #24, #6, #27, #2 ) ) ;
#232 = ORIENTED_EDGE ( 'NONE', *, *, #267, .T. ) ;
#233 = AXIS2_PLACEMENT_3D ( 'NONE', #116, #194, #41 ) ;
#234 = ORIENTED_EDGE ( 'NONE', *, *, #311, .F. ) ;
#235 = PERSON_AND_ORGANIZATION_ROLE ( 'design_owner' ) ;
#236 = DIRECTION ( 'NONE',  ( -4.275831445896959482E-31, -1.000000000000000000, -1.224646799147353454E-16 ) ) ;
#237 = DESIGN_CONTEXT ( 'detailed design', #329, 'design' ) ;
#238 = SHAPE_DEFINITION_REPRESENTATION ( #300, #127 ) ;
#239 = DIRECTION ( 'NONE',  ( -3.491481338843133355E-15, 1.224646799147353454E-16, -1.000000000000000000 ) ) ;
#240 = VECTOR ( 'NONE', #214, 1000.000000000000000 ) ;
#241 = CIRCLE ( 'NONE', #323, 5.500000000000000888 ) ;
#242 = EDGE_CURVE ( 'NONE', #136, #109, #71, .T. ) ;
#243 = CARTESIAN_POINT ( 'NONE',  ( 3.305573099202497210E-13, -4.500000000000011546, 95.00000000000000000 ) ) ;
#244 = DIRECTION ( 'NONE',  ( 4.275831445896959482E-31, 1.000000000000000000, 1.224646799147353207E-16 ) ) ;
#245 = CARTESIAN_POINT ( 'NONE',  ( 3.316907271900976814E-13, 4.499999999999989342, 95.00000000000000000 ) ) ;
#246 = VECTOR ( 'NONE', #128, 999.9999999999998863 ) ;
#247 = DIRECTION ( 'NONE',  ( 4.275831445896959482E-31, 1.000000000000000000, 1.224646799147353207E-16 ) ) ;
#248 = DIRECTION ( 'NONE',  ( 5.602705292762879162E-31, 1.000000000000000000, 1.577021341797100518E-16 ) ) ;
#249 = CC_DESIGN_DATE_AND_TIME_ASSIGNMENT ( #314, #104, ( #5 ) ) ;
#250 = CLOSED_SHELL ( 'NONE', ( #288, #310, #152, #191, #125 ) ) ;
#251 = LOCAL_TIME ( 9, 54, 56.00000000000000000, #61 ) ;
#252 = DIRECTION ( 'NONE',  ( 0.0000000000000000000, 1.000000000000000000, 0.0000000000000000000 ) ) ;
#253 = PERSON_AND_ORGANIZATION_ROLE ( 'classification_officer' ) ;
#254 = ORIENTED_EDGE ( 'NONE', *, *, #48, .F. ) ;
#255 =( GEOMETRIC_REPRESENTATION_CONTEXT ( 3 ) GLOBAL_UNCERTAINTY_ASSIGNED_CONTEXT ( ( #80 ) ) GLOBAL_UNIT_ASSIGNED_CONTEXT ( ( #45, #156, #95 ) ) REPRESENTATION_CONTEXT ( 'NONE', 'WORKASPACE' ) );
#256 = COORDINATED_UNIVERSAL_TIME_OFFSET ( 1, 0, .AHEAD. ) ;
#257 = APPROVAL ( #131, 'UNSPECIFIED' ) ;
#258 = EDGE_LOOP ( 'NONE', ( #81, #31, #285, #183 ) ) ;
#259 = VERTEX_POINT ( 'NONE', #222 ) ;
#260 = CYLINDRICAL_SURFACE ( 'NONE', #12, 5.499999999999997335 ) ;
#261 = EDGE_CURVE ( 'NONE', #136, #162, #42, .T. ) ;
#262 = VERTEX_POINT ( 'NONE', #299 ) ;
#263 = AXIS2_PLACEMENT_3D ( 'NONE', #275, #176, #247 ) ;
#264 = APPROVAL_DATE_TIME ( #229, #281 ) ;
#265 = DIRECTION ( 'NONE',  ( -3.491481338843133355E-15, 1.224646799147353454E-16, -1.000000000000000000 ) ) ;
#266 = DIRECTION ( 'NONE',  ( -3.491481338843133355E-15, 1.224646799147353454E-16, -1.000000000000000000 ) ) ;
#267 = EDGE_CURVE ( 'NONE', #109, #84, #164, .T. ) ;
#268 = DIRECTION ( 'NONE',  ( -5.602705292762879162E-31, -1.000000000000000000, -1.577021341797100518E-16 ) ) ;
#269 = LOCAL_TIME ( 9, 54, 56.00000000000000000, #312 ) ;
#270 = DIRECTION ( 'NONE',  ( -3.491481338843133355E-15, 1.224646799147353454E-16, -1.000000000000000000 ) ) ;
#271 = CARTESIAN_POINT ( 'NONE',  ( 1.153841501219263135E-14, -5.499999999999989342, 3.304733404651610584 ) ) ;
#272 = CONICAL_SURFACE ( 'NONE', #169, 4.500000000000000888, 0.7853981633974479459 ) ;
#273 = DIRECTION ( 'NONE',  ( 0.0000000000000000000, 1.000000000000000000, 0.0000000000000000000 ) ) ;
#274 = DIRECTION ( 'NONE',  ( -2.468850131082266527E-15, 0.7071067811865473507, -0.7071067811865477948 ) ) ;
#275 = CARTESIAN_POINT ( 'NONE',  ( 0.0000000000000000000, 0.0000000000000000000, 0.0000000000000000000 ) ) ;
#276 = VECTOR ( 'NONE', #91, 1000.000000000000000 ) ;
#277 = AXIS2_PLACEMENT_3D ( 'NONE', #189, #40, #193 ) ;
#278 = FACE_OUTER_BOUND ( 'NONE', #320, .T. ) ;
#279 = APPROVAL_ROLE ( '' ) ;
#280 = ORIENTED_EDGE ( 'NONE', *, *, #184, .F. ) ;
#281 = APPROVAL ( #63, 'UNSPECIFIED' ) ;
#282 = CALENDAR_DATE ( 2021, 3, 9 ) ;
#283 = ORIENTED_EDGE ( 'NONE', *, *, #303, .T. ) ;
#284 = VECTOR ( 'NONE', #199, 1000.000000000000000 ) ;
#285 = ORIENTED_EDGE ( 'NONE', *, *, #90, .T. ) ;
#286 = ORIENTED_EDGE ( 'NONE', *, *, #148, .T. ) ;
#287 = CC_DESIGN_DATE_AND_TIME_ASSIGNMENT ( #23, #307, ( #67 ) ) ;
#288 = ADVANCED_FACE ( 'NONE', ( #76 ), #223, .T. ) ;
#289 = ORIENTED_EDGE ( 'NONE', *, *, #261, .T. ) ;
#290 = MECHANICAL_CONTEXT ( 'NONE', #37, 'mechanical' ) ;
#291 = CYLINDRICAL_SURFACE ( 'NONE', #77, 5.499999999999991118 ) ;
#292 = CARTESIAN_POINT ( 'NONE',  ( 6.735557395310416385E-16, -5.499999999999997335, -6.735557395310463717E-16 ) ) ;
#293 = DIRECTION ( 'NONE',  ( 1.000000000000000000, 0.0000000000000000000, 0.0000000000000000000 ) ) ;
#294 = LINE ( 'NONE', #18, #140 ) ;
#295 = DIRECTION ( 'NONE',  ( 0.0000000000000000000, 1.000000000000000000, 0.0000000000000000000 ) ) ;
#296 = CONICAL_SURFACE ( 'NONE', #46, 4.500000000000000888, 0.7853981633974479459 ) ;
#297 = VECTOR ( 'NONE', #172, 1000.000000000000000 ) ;
#298 = PLANE ( 'NONE',  #93 ) ;
#299 = CARTESIAN_POINT ( 'NONE',  ( 1.152188841818234133E-13, 5.499999999999989342, 33.00000000000000000 ) ) ;
#300 = PRODUCT_DEFINITION_SHAPE ( 'NONE', 'NONE',  #5 ) ;
#301 = CC_DESIGN_APPROVAL ( #100, ( #5 ) ) ;
#302 = EDGE_CURVE ( 'NONE', #29, #259, #47, .T. ) ;
#303 = EDGE_CURVE ( 'NONE', #262, #259, #224, .T. ) ;
#304 = DIRECTION ( 'NONE',  ( -3.491481338843133355E-15, 1.224646799147353454E-16, -1.000000000000000000 ) ) ;
#305 = DIRECTION ( 'NONE',  ( 3.491481338843133355E-15, -1.224646799147353454E-16, 1.000000000000000000 ) ) ;
#306 = CARTESIAN_POINT ( 'NONE',  ( 1.153841501219263451E-14, -4.047131186041931662E-16, 3.304733404651611473 ) ) ;
#307 = DATE_TIME_ROLE ( 'classification_date' ) ;
#308 = EDGE_LOOP ( 'NONE', ( #319, #163, #56 ) ) ;
#309 = ADVANCED_FACE ( 'NONE', ( #103 ), #173, .F. ) ;
#310 = ADVANCED_FACE ( 'NONE', ( #44 ), #59, .T. ) ;
#311 = EDGE_CURVE ( 'NONE', #210, #259, #202, .T. ) ;
#312 = COORDINATED_UNIVERSAL_TIME_OFFSET ( 1, 0, .AHEAD. ) ;
#313 = VERTEX_POINT ( 'NONE', #330 ) ;
#314 = DATE_AND_TIME ( #114, #129 ) ;
#315 = EDGE_LOOP ( 'NONE', ( #234, #4, #185 ) ) ;
#316 = CLOSED_SHELL ( 'NONE', ( #65, #28, #318, #34, #192, #309 ) ) ;
#317 = AXIS2_PLACEMENT_3D ( 'NONE', #306, #19, #73 ) ;
#318 = ADVANCED_FACE ( 'NONE', ( #278 ), #334, .F. ) ;
#319 = ORIENTED_EDGE ( 'NONE', *, *, #101, .F. ) ;
#320 = EDGE_LOOP ( 'NONE', ( #112, #79 ) ) ;
#321 = CARTESIAN_POINT ( 'NONE',  ( 1.153841501219263451E-14, -4.047131186041931662E-16, 3.304733404651611473 ) ) ;
#322 = PERSON_AND_ORGANIZATION ( #115, #174 ) ;
#323 = AXIS2_PLACEMENT_3D ( 'NONE', #92, #266, #195 ) ;
#324 = CARTESIAN_POINT ( 'NONE',  ( 1.152188841818234133E-13, -4.041334437186266989E-15, 33.00000000000000000 ) ) ;
#325 = FACE_OUTER_BOUND ( 'NONE', #258, .T. ) ;
#326 = FACE_OUTER_BOUND ( 'NONE', #315, .T. ) ;
#327 = CARTESIAN_POINT ( 'NONE',  ( 3.316907271900976814E-13, -1.163414459189985801E-14, 95.00000000000000000 ) ) ;
#328 = CIRCLE ( 'NONE', #317, 5.499999999999989342 ) ;
#329 = APPLICATION_CONTEXT ( 'configuration controlled 3d designs of mechanical parts and assemblies' ) ;
#330 = CARTESIAN_POINT ( 'NONE',  ( 6.405220533653900808E-14, -5.499999999999998224, 33.00000000000000000 ) ) ;
#331 = APPLICATION_PROTOCOL_DEFINITION ( 'international standard', 'config_control_design', 1994, #37 ) ;
#332 = CARTESIAN_POINT ( 'NONE',  ( 3.316907271900976814E-13, 3.374459510989164838E-32, 95.00000000000000000 ) ) ;
#333 = AXIS2_PLACEMENT_3D ( 'NONE', #178, #151, #273 ) ;
#334 = PLANE ( 'NONE',  #25 ) ;
#335 = CARTESIAN_POINT ( 'NONE',  ( 1.221197075172368098E-14, 5.499999999999989342, 3.304733404651612361 ) ) ;
#336 = PERSON_AND_ORGANIZATION ( #115, #174 ) ;
#337 = CIRCLE ( 'NONE', #55, 4.500000000000000888 ) ;
ENDSEC;
END-ISO-10303-21;
