ISO-10303-21;
HEADER;
FILE_DESCRIPTION (( 'STEP AP203' ),
    '1' );
FILE_NAME ('54648.step',
    '2021-09-03T07:54:51',
    ( '' ),
    ( '' ),
    'SwSTEP 2.0',
    'SolidWorks 2019',
    '' );
FILE_SCHEMA (( 'CONFIG_CONTROL_DESIGN' ));
ENDSEC;

DATA;
#1 = APPROVAL_STATUS ( 'not_yet_approved' ) ;
#2 =( GEOMETRIC_REPRESENTATION_CONTEXT ( 3 ) GLOBAL_UNCERTAINTY_ASSIGNED_CONTEXT ( ( #291 ) ) GLOBAL_UNIT_ASSIGNED_CONTEXT ( ( #80, #254, #212 ) ) REPRESENTATION_CONTEXT ( 'NONE', 'WORKASPACE' ) );
#3 = FACE_OUTER_BOUND ( 'NONE', #112, .T. ) ;
#4 = ORIENTED_EDGE ( 'NONE', *, *, #264, .T. ) ;
#5 = PRODUCT_RELATED_PRODUCT_CATEGORY ( 'detail', '', ( #282 ) ) ;
#6 = DIRECTION ( 'NONE',  ( -3.491481338843133355E-15, 1.224646799147353207E-16, -1.000000000000000000 ) ) ;
#7 = CARTESIAN_POINT ( 'NONE',  ( 3.107418391570388560E-13, 3.186989538156431816E-32, 89.00000000000000000 ) ) ;
#8 = ORIENTED_EDGE ( 'NONE', *, *, #195, .T. ) ;
#9 = CLOSED_SHELL ( 'NONE', ( #315, #148, #123, #288, #255 ) ) ;
#10 = AXIS2_PLACEMENT_3D ( 'NONE', #197, #224, #175 ) ;
#11 = ORIENTED_EDGE ( 'NONE', *, *, #97, .F. ) ;
#12 = CC_DESIGN_PERSON_AND_ORGANIZATION_ASSIGNMENT ( #137, #188, ( #30 ) ) ;
#13 = EDGE_CURVE ( 'NONE', #83, #135, #198, .T. ) ;
#14 = ORIENTED_EDGE ( 'NONE', *, *, #47, .T. ) ;
#15 = CIRCLE ( 'NONE', #225, 5.250000000000000000 ) ;
#16 = APPROVAL_DATE_TIME ( #221, #122 ) ;
#17 = CARTESIAN_POINT ( 'NONE',  ( 1.101394160254751641E-14, -3.863170677585479483E-16, 3.154518249894720405 ) ) ;
#18 = CARTESIAN_POINT ( 'NONE',  ( 1.101394160254751483E-14, -5.249999999999990230, 3.154518249894719961 ) ) ;
#19 = CARTESIAN_POINT ( 'NONE',  ( 3.107418391570388560E-13, -1.089935651241144239E-14, 89.00000000000000000 ) ) ;
#20 = CIRCLE ( 'NONE', #330, 5.249999999999993783 ) ;
#21 = LINE ( 'NONE', #192, #169 ) ;
#22 = CARTESIAN_POINT ( 'NONE',  ( 1.082359215041371340E-13, 3.936869429487366641E-32, 31.00000000000000000 ) ) ;
#23 = CYLINDRICAL_SURFACE ( 'NONE', #77, 5.249999999999996447 ) ;
#24 = FACE_OUTER_BOUND ( 'NONE', #326, .T. ) ;
#25 = CARTESIAN_POINT ( 'NONE',  ( 1.165688117209987909E-14, 5.249999999999990230, 3.154518249894720405 ) ) ;
#26 = APPLICATION_CONTEXT ( 'configuration controlled 3d designs of mechanical parts and assemblies' ) ;
#27 = CC_DESIGN_PERSON_AND_ORGANIZATION_ASSIGNMENT ( #313, #239, ( #30 ) ) ;
#28 = COORDINATED_UNIVERSAL_TIME_OFFSET ( 1, 0, .AHEAD. ) ;
#29 = ORIENTED_EDGE ( 'NONE', *, *, #183, .T. ) ;
#30 = PRODUCT_DEFINITION_FORMATION_WITH_SPECIFIED_SOURCE ( 'ANY', '', #282, .NOT_KNOWN. ) ;
#31 = DIRECTION ( 'NONE',  ( 0.0000000000000000000, 0.0000000000000000000, 1.000000000000000000 ) ) ;
#32 = ORIENTED_EDGE ( 'NONE', *, *, #324, .F. ) ;
#33 = APPROVAL_DATE_TIME ( #209, #177 ) ;
#34 = VERTEX_POINT ( 'NONE', #118 ) ;
#35 = MECHANICAL_CONTEXT ( 'NONE', #69, 'mechanical' ) ;
#36 = VERTEX_POINT ( 'NONE', #88 ) ;
#37 = AXIS2_PLACEMENT_3D ( 'NONE', #22, #155, #101 ) ;
#38 = ADVANCED_FACE ( 'NONE', ( #64 ), #104, .T. ) ;
#39 = FACE_OUTER_BOUND ( 'NONE', #290, .T. ) ;
#40 = MANIFOLD_SOLID_BREP ( 'Corps-Déplacer/Copier1[1]', #156 ) ;
#41 = DIRECTION ( 'NONE',  ( 0.0000000000000000000, 1.000000000000000000, 0.0000000000000000000 ) ) ;
#42 = CARTESIAN_POINT ( 'NONE',  ( 0.0000000000000000000, 0.0000000000000000000, 0.0000000000000000000 ) ) ;
#43 = DIRECTION ( 'NONE',  ( -2.934750391447221876E-31, -1.000000000000000000, -8.260587980841953571E-17 ) ) ;
#44 = CYLINDRICAL_SURFACE ( 'NONE', #119, 5.249999999999996447 ) ;
#45 = ORGANIZATION ( 'UNSPECIFIED', 'UNSPECIFIED', '' ) ;
#46 = DIRECTION ( 'NONE',  ( -2.382254525458719047E-15, -0.7071067811865467956, -0.7071067811865483499 ) ) ;
#47 = EDGE_CURVE ( 'NONE', #165, #135, #243, .T. ) ;
#48 = LINE ( 'NONE', #154, #296 ) ;
#49 = DIRECTION ( 'NONE',  ( -3.491481338843133355E-15, 1.224646799147353207E-16, -1.000000000000000000 ) ) ;
#50 = EDGE_CURVE ( 'NONE', #294, #236, #92, .T. ) ;
#51 = VECTOR ( 'NONE', #222, 999.9999999999998863 ) ;
#52 = CARTESIAN_POINT ( 'NONE',  ( 3.107418391570388560E-13, 4.249999999999990230, 89.00000000000000000 ) ) ;
#53 = VECTOR ( 'NONE', #176, 1000.000000000000000 ) ;
#54 = DIRECTION ( 'NONE',  ( 4.275831445896957731E-31, 1.000000000000000000, 1.224646799147353207E-16 ) ) ;
#55 = CALENDAR_DATE ( 2021, 3, 9 ) ;
#56 = COORDINATED_UNIVERSAL_TIME_OFFSET ( 1, 0, .AHEAD. ) ;
#57 = ORIENTED_EDGE ( 'NONE', *, *, #93, .F. ) ;
#58 = VECTOR ( 'NONE', #271, 1000.000000000000000 ) ;
#59 = DIRECTION ( 'NONE',  ( -3.491481338843133355E-15, 1.224646799147353207E-16, -1.000000000000000000 ) ) ;
#60 = ORIENTED_EDGE ( 'NONE', *, *, #260, .T. ) ;
#61 = ORIENTED_EDGE ( 'NONE', *, *, #97, .T. ) ;
#62 = ADVANCED_FACE ( 'NONE', ( #90 ), #44, .T. ) ;
#63 = EDGE_CURVE ( 'NONE', #294, #267, #15, .T. ) ;
#64 = FACE_OUTER_BOUND ( 'NONE', #211, .T. ) ;
#65 = CARTESIAN_POINT ( 'NONE',  ( 2.244811509095901648E-30, 5.249999999999996447, 6.429395695523600208E-16 ) ) ;
#66 = CONICAL_SURFACE ( 'NONE', #114, 4.250000000000000888, 0.7853981633974473908 ) ;
#67 = DIRECTION ( 'NONE',  ( 0.0000000000000000000, 1.000000000000000000, 0.0000000000000000000 ) ) ;
#68 = CARTESIAN_POINT ( 'NONE',  ( 1.082359215041371340E-13, 3.936869429487366641E-32, 31.00000000000000000 ) ) ;
#69 = APPLICATION_CONTEXT ( 'configuration controlled 3d designs of mechanical parts and assemblies' ) ;
#70 = PLANE ( 'NONE',  #37 ) ;
#71 = AXIS2_PLACEMENT_3D ( 'NONE', #248, #218, #43 ) ;
#72 = DIRECTION ( 'NONE',  ( 4.275831445896957731E-31, 1.000000000000000000, 1.224646799147353207E-16 ) ) ;
#73 = CARTESIAN_POINT ( 'NONE',  ( 2.244811509095899546E-30, 5.249999999999992006, 6.429395695523594292E-16 ) ) ;
#74 = ADVANCED_FACE ( 'NONE', ( #39 ), #299, .F. ) ;
#75 = FACE_OUTER_BOUND ( 'NONE', #220, .T. ) ;
#76 = CARTESIAN_POINT ( 'NONE',  ( 3.112623140466765372E-13, -4.250000000000012434, 89.00000000000000000 ) ) ;
#77 = AXIS2_PLACEMENT_3D ( 'NONE', #102, #121, #180 ) ;
#78 = SECURITY_CLASSIFICATION_LEVEL ( 'unclassified' ) ;
#79 = DATE_AND_TIME ( #55, #275 ) ;
#80 =( LENGTH_UNIT ( ) NAMED_UNIT ( * ) SI_UNIT ( .MILLI., .METRE. ) );
#81 = CIRCLE ( 'NONE', #204, 5.249999999999993783 ) ;
#82 = PERSON_AND_ORGANIZATION_ROLE ( 'creator' ) ;
#83 = VERTEX_POINT ( 'NONE', #245 ) ;
#84 = CARTESIAN_POINT ( 'NONE',  ( 1.082359215041371340E-13, -3.796405077356795115E-15, 31.00000000000000000 ) ) ;
#85 = EDGE_CURVE ( 'NONE', #135, #165, #244, .T. ) ;
#86 = APPROVAL_PERSON_ORGANIZATION ( #110, #96, #216 ) ;
#87 = APPROVAL_PERSON_ORGANIZATION ( #328, #122, #142 ) ;
#88 = CARTESIAN_POINT ( 'NONE',  ( 2.083860792307187563E-13, -5.249999999999996447, 31.00000000000000000 ) ) ;
#89 = ORIENTED_EDGE ( 'NONE', *, *, #187, .T. ) ;
#90 = FACE_OUTER_BOUND ( 'NONE', #293, .T. ) ;
#91 = CALENDAR_DATE ( 2021, 3, 9 ) ;
#92 = LINE ( 'NONE', #65, #58 ) ;
#93 = EDGE_CURVE ( 'NONE', #83, #165, #246, .T. ) ;
#94 = DIRECTION ( 'NONE',  ( 0.0000000000000000000, 1.000000000000000000, 0.0000000000000000000 ) ) ;
#95 = LINE ( 'NONE', #73, #240 ) ;
#96 = APPROVAL ( #1, 'UNSPECIFIED' ) ;
#97 = EDGE_CURVE ( 'NONE', #238, #149, #234, .T. ) ;
#98 = VECTOR ( 'NONE', #46, 1000.000000000000000 ) ;
#99 = CIRCLE ( 'NONE', #312, 5.249999999999993783 ) ;
#100 = CARTESIAN_POINT ( 'NONE',  ( 1.101394160254751641E-14, -3.863170677585479483E-16, 3.154518249894720405 ) ) ;
#101 = DIRECTION ( 'NONE',  ( -4.275831445896958607E-31, -1.000000000000000000, -1.224646799147353207E-16 ) ) ;
#102 = CARTESIAN_POINT ( 'NONE',  ( 0.0000000000000000000, 0.0000000000000000000, 0.0000000000000000000 ) ) ;
#103 = APPROVAL_DATE_TIME ( #79, #96 ) ;
#104 = CONICAL_SURFACE ( 'NONE', #109, 4.250000000000000888, 0.7853981633974473908 ) ;
#105 = EDGE_LOOP ( 'NONE', ( #134, #111, #14 ) ) ;
#106 = COORDINATED_UNIVERSAL_TIME_OFFSET ( 1, 0, .AHEAD. ) ;
#107 = ORIENTED_EDGE ( 'NONE', *, *, #311, .F. ) ;
#108 = CARTESIAN_POINT ( 'NONE',  ( 0.0000000000000000000, 0.0000000000000000000, 0.0000000000000000000 ) ) ;
#109 = AXIS2_PLACEMENT_3D ( 'NONE', #19, #241, #297 ) ;
#110 = PERSON_AND_ORGANIZATION ( #145, #45 ) ;
#111 = ORIENTED_EDGE ( 'NONE', *, *, #93, .T. ) ;
#112 = EDGE_LOOP ( 'NONE', ( #295, #11 ) ) ;
#113 = ORIENTED_EDGE ( 'NONE', *, *, #133, .T. ) ;
#114 = AXIS2_PLACEMENT_3D ( 'NONE', #120, #274, #303 ) ;
#115 = DIRECTION ( 'NONE',  ( -3.491481338843133355E-15, 1.224646799147353207E-16, -1.000000000000000000 ) ) ;
#116 = CARTESIAN_POINT ( 'NONE',  ( 3.072503578181957353E-13, -1.077689183249670724E-14, 88.00000000000000000 ) ) ;
#117 = SHAPE_DEFINITION_REPRESENTATION ( #320, #322 ) ;
#118 = CARTESIAN_POINT ( 'NONE',  ( 6.026787112289464924E-14, -5.249999999999996447, 31.00000000000000000 ) ) ;
#119 = AXIS2_PLACEMENT_3D ( 'NONE', #42, #201, #172 ) ;
#120 = CARTESIAN_POINT ( 'NONE',  ( 3.107418391570388560E-13, -1.089935651241144239E-14, 89.00000000000000000 ) ) ;
#121 = DIRECTION ( 'NONE',  ( -3.491481338843133355E-15, 1.224646799147353207E-16, -1.000000000000000000 ) ) ;
#122 = APPROVAL ( #298, 'UNSPECIFIED' ) ;
#123 = ADVANCED_FACE ( 'NONE', ( #272 ), #200, .T. ) ;
#124 = DIRECTION ( 'NONE',  ( -3.491481338843133355E-15, 1.224646799147353207E-16, -1.000000000000000000 ) ) ;
#125 = CIRCLE ( 'NONE', #157, 5.250000000000000000 ) ;
#126 = CC_DESIGN_APPROVAL ( #122, ( #152 ) ) ;
#127 = DIRECTION ( 'NONE',  ( -3.491481338843133355E-15, 1.224646799147353207E-16, -1.000000000000000000 ) ) ;
#128 = CARTESIAN_POINT ( 'NONE',  ( 2.083860792307186553E-13, -5.250000000000010658, 88.00000000000000000 ) ) ;
#129 = PRODUCT_DEFINITION ( 'UNKNOWN', '', #30, #305 ) ;
#130 = DIRECTION ( 'NONE',  ( 1.000000000000000000, 0.0000000000000000000, 0.0000000000000000000 ) ) ;
#131 = PERSON_AND_ORGANIZATION ( #145, #45 ) ;
#132 = AXIS2_PLACEMENT_3D ( 'NONE', #223, #273, #67 ) ;
#133 = EDGE_CURVE ( 'NONE', #34, #189, #99, .T. ) ;
#134 = ORIENTED_EDGE ( 'NONE', *, *, #13, .F. ) ;
#135 = VERTEX_POINT ( 'NONE', #25 ) ;
#136 = ADVANCED_FACE ( 'NONE', ( #202 ), #23, .T. ) ;
#137 = PERSON_AND_ORGANIZATION ( #145, #45 ) ;
#138 = EDGE_LOOP ( 'NONE', ( #167, #8, #107, #261 ) ) ;
#139 = PERSON_AND_ORGANIZATION ( #145, #45 ) ;
#140 = VECTOR ( 'NONE', #306, 1000.000000000000000 ) ;
#141 = ORIENTED_EDGE ( 'NONE', *, *, #195, .F. ) ;
#142 = APPROVAL_ROLE ( '' ) ;
#143 = CC_DESIGN_PERSON_AND_ORGANIZATION_ASSIGNMENT ( #186, #82, ( #129 ) ) ;
#144 = ORIENTED_EDGE ( 'NONE', *, *, #251, .F. ) ;
#145 = PERSON ( 'UNSPECIFIED', 'UNSPECIFIED', 'UNSPECIFIED', ('UNSPECIFIED'), ('UNSPECIFIED'), ('UNSPECIFIED') ) ;
#146 = DIRECTION ( 'NONE',  ( -4.275831445896958607E-31, -1.000000000000000000, -1.224646799147353207E-16 ) ) ;
#147 = DIRECTION ( 'NONE',  ( 3.491481338843133355E-15, -1.224646799147353207E-16, 1.000000000000000000 ) ) ;
#148 = ADVANCED_FACE ( 'NONE', ( #160 ), #279, .T. ) ;
#149 = VERTEX_POINT ( 'NONE', #52 ) ;
#150 = ORIENTED_EDGE ( 'NONE', *, *, #85, .T. ) ;
#151 = AXIS2_PLACEMENT_3D ( 'NONE', #332, #182, #181 ) ;
#152 = SECURITY_CLASSIFICATION ( '', '', #78 ) ;
#153 = FACE_OUTER_BOUND ( 'NONE', #193, .T. ) ;
#154 = CARTESIAN_POINT ( 'NONE',  ( 3.107418391570388560E-13, 4.249999999999990230, 89.00000000000000000 ) ) ;
#155 = DIRECTION ( 'NONE',  ( 3.491481338843133355E-15, -1.224646799147353207E-16, 1.000000000000000000 ) ) ;
#156 = CLOSED_SHELL ( 'NONE', ( #38, #136, #74, #62, #159, #337 ) ) ;
#157 = AXIS2_PLACEMENT_3D ( 'NONE', #250, #277, #280 ) ;
#158 = CARTESIAN_POINT ( 'NONE',  ( 1.101394160254751483E-14, -5.249999999999990230, 3.154518249894719961 ) ) ;
#159 = ADVANCED_FACE ( 'NONE', ( #75 ), #66, .T. ) ;
#160 = FACE_OUTER_BOUND ( 'NONE', #215, .T. ) ;
#161 = DATE_AND_TIME ( #289, #179 ) ;
#162 = ORIENTED_EDGE ( 'NONE', *, *, #324, .T. ) ;
#163 = CALENDAR_DATE ( 2021, 3, 9 ) ;
#164 = AXIS2_PLACEMENT_3D ( 'NONE', #17, #115, #327 ) ;
#165 = VERTEX_POINT ( 'NONE', #158 ) ;
#166 = CALENDAR_DATE ( 2021, 3, 9 ) ;
#167 = ORIENTED_EDGE ( 'NONE', *, *, #63, .T. ) ;
#168 = ORIENTED_EDGE ( 'NONE', *, *, #264, .F. ) ;
#169 = VECTOR ( 'NONE', #6, 1000.000000000000000 ) ;
#170 = DATE_TIME_ROLE ( 'classification_date' ) ;
#171 = DIRECTION ( 'NONE',  ( 0.0000000000000000000, 1.000000000000000000, 0.0000000000000000000 ) ) ;
#172 = DIRECTION ( 'NONE',  ( 4.275831445896958607E-31, 1.000000000000000000, 1.224646799147353207E-16 ) ) ;
#173 = ORIENTED_EDGE ( 'NONE', *, *, #310, .T. ) ;
#174 = AXIS2_PLACEMENT_3D ( 'NONE', #100, #228, #178 ) ;
#175 = DIRECTION ( 'NONE',  ( 2.934750391447221876E-31, 1.000000000000000000, 8.260587980841953571E-17 ) ) ;
#176 = DIRECTION ( 'NONE',  ( 1.798245827342160317E-15, -0.8571673007021098911, 0.5150380749100582634 ) ) ;
#177 = APPROVAL ( #237, 'UNSPECIFIED' ) ;
#178 = DIRECTION ( 'NONE',  ( -2.934750391447221876E-31, -1.000000000000000000, -8.260587980841953571E-17 ) ) ;
#179 = LOCAL_TIME ( 9, 54, 51.00000000000000000, #190 ) ;
#180 = DIRECTION ( 'NONE',  ( 4.275831445896958607E-31, 1.000000000000000000, 1.224646799147353207E-16 ) ) ;
#181 = DIRECTION ( 'NONE',  ( 0.0000000000000000000, 1.000000000000000000, 0.0000000000000000000 ) ) ;
#182 = DIRECTION ( 'NONE',  ( -3.491481338843133355E-15, 1.224646799147353207E-16, -1.000000000000000000 ) ) ;
#183 = EDGE_CURVE ( 'NONE', #238, #267, #249, .T. ) ;
#184 = AXIS2_PLACEMENT_3D ( 'NONE', #308, #335, #54 ) ;
#185 = DIRECTION ( 'NONE',  ( -2.468850131082267710E-15, 0.7071067811865470176, -0.7071067811865481278 ) ) ;
#186 = PERSON_AND_ORGANIZATION ( #145, #45 ) ;
#187 = EDGE_CURVE ( 'NONE', #189, #135, #95, .T. ) ;
#188 = PERSON_AND_ORGANIZATION_ROLE ( 'creator' ) ;
#189 = VERTEX_POINT ( 'NONE', #206 ) ;
#190 = COORDINATED_UNIVERSAL_TIME_OFFSET ( 1, 0, .AHEAD. ) ;
#191 = ORIENTED_EDGE ( 'NONE', *, *, #50, .T. ) ;
#192 = CARTESIAN_POINT ( 'NONE',  ( 6.429395695523571612E-16, -5.249999999999992006, -6.429395695523615986E-16 ) ) ;
#193 = EDGE_LOOP ( 'NONE', ( #32, #113, #89, #257 ) ) ;
#194 = CC_DESIGN_DATE_AND_TIME_ASSIGNMENT ( #161, #262, ( #129 ) ) ;
#195 = EDGE_CURVE ( 'NONE', #267, #36, #205, .T. ) ;
#196 = DIRECTION ( 'NONE',  ( -3.491481338843133355E-15, 1.224646799147353207E-16, -1.000000000000000000 ) ) ;
#197 = CARTESIAN_POINT ( 'NONE',  ( 1.101394160254751641E-14, -3.863170677585479483E-16, 3.154518249894720405 ) ) ;
#198 = LINE ( 'NONE', #331, #51 ) ;
#199 = ORIENTED_EDGE ( 'NONE', *, *, #13, .T. ) ;
#200 = CONICAL_SURFACE ( 'NONE', #71, 5.249999999999990230, 1.029744258676649649 ) ;
#201 = DIRECTION ( 'NONE',  ( -3.491481338843133355E-15, 1.224646799147353207E-16, -1.000000000000000000 ) ) ;
#202 = FACE_OUTER_BOUND ( 'NONE', #138, .T. ) ;
#203 = CARTESIAN_POINT ( 'NONE',  ( 0.0000000000000000000, 0.0000000000000000000, 0.0000000000000000000 ) ) ;
#204 = AXIS2_PLACEMENT_3D ( 'NONE', #307, #124, #227 ) ;
#205 = LINE ( 'NONE', #253, #140 ) ;
#206 = CARTESIAN_POINT ( 'NONE',  ( 1.082359215041371340E-13, 5.249999999999990230, 31.00000000000000000 ) ) ;
#207 = DIRECTION ( 'NONE',  ( 0.0000000000000000000, 1.000000000000000000, 0.0000000000000000000 ) ) ;
#208 = AXIS2_PLACEMENT_3D ( 'NONE', #7, #59, #235 ) ;
#209 = DATE_AND_TIME ( #166, #258 ) ;
#210 = APPLICATION_PROTOCOL_DEFINITION ( 'international standard', 'config_control_design', 1994, #69 ) ;
#211 = EDGE_LOOP ( 'NONE', ( #60, #29, #323, #213 ) ) ;
#212 =( NAMED_UNIT ( * ) SI_UNIT ( $, .STERADIAN. ) SOLID_ANGLE_UNIT ( ) );
#213 = ORIENTED_EDGE ( 'NONE', *, *, #302, .F. ) ;
#214 = AXIS2_PLACEMENT_3D ( 'NONE', #68, #147, #146 ) ;
#215 = EDGE_LOOP ( 'NONE', ( #57, #199, #150 ) ) ;
#216 = APPROVAL_ROLE ( '' ) ;
#217 = ORIENTED_EDGE ( 'NONE', *, *, #187, .F. ) ;
#218 = DIRECTION ( 'NONE',  ( 3.491481338843133355E-15, -1.224646799147353207E-16, 1.000000000000000000 ) ) ;
#219 = APPROVAL_PERSON_ORGANIZATION ( #131, #177, #319 ) ;
#220 = EDGE_LOOP ( 'NONE', ( #321, #61, #247, #314 ) ) ;
#221 = DATE_AND_TIME ( #91, #287 ) ;
#222 = DIRECTION ( 'NONE',  ( 1.903218546456022717E-15, 0.8571673007021097801, 0.5150380749100585964 ) ) ;
#223 = CARTESIAN_POINT ( 'NONE',  ( 3.107418391570388560E-13, -1.089935651241144239E-14, 89.00000000000000000 ) ) ;
#224 = DIRECTION ( 'NONE',  ( -3.491481338843133355E-15, 1.224646799147353207E-16, -1.000000000000000000 ) ) ;
#225 = AXIS2_PLACEMENT_3D ( 'NONE', #116, #268, #41 ) ;
#226 = CC_DESIGN_SECURITY_CLASSIFICATION ( #152, ( #30 ) ) ;
#227 = DIRECTION ( 'NONE',  ( 0.0000000000000000000, 1.000000000000000000, 0.0000000000000000000 ) ) ;
#228 = DIRECTION ( 'NONE',  ( 3.491481338843133355E-15, -1.224646799147353207E-16, 1.000000000000000000 ) ) ;
#229 = CYLINDRICAL_SURFACE ( 'NONE', #269, 5.249999999999992006 ) ;
#230 = AXIS2_PLACEMENT_3D ( 'NONE', #336, #49, #207 ) ;
#231 = CYLINDRICAL_SURFACE ( 'NONE', #184, 5.249999999999992006 ) ;
#232 = DIRECTION ( 'NONE',  ( -3.491481338843133355E-15, 1.224646799147353207E-16, -1.000000000000000000 ) ) ;
#233 = PERSON_AND_ORGANIZATION_ROLE ( 'design_owner' ) ;
#234 = CIRCLE ( 'NONE', #132, 4.250000000000000888 ) ;
#235 = DIRECTION ( 'NONE',  ( 4.275831445896958607E-31, 1.000000000000000000, 1.224646799147353207E-16 ) ) ;
#236 = VERTEX_POINT ( 'NONE', #300 ) ;
#237 = APPROVAL_STATUS ( 'not_yet_approved' ) ;
#238 = VERTEX_POINT ( 'NONE', #333 ) ;
#239 = PERSON_AND_ORGANIZATION_ROLE ( 'design_supplier' ) ;
#240 = VECTOR ( 'NONE', #232, 1000.000000000000000 ) ;
#241 = DIRECTION ( 'NONE',  ( -3.491481338843133355E-15, 1.224646799147353207E-16, -1.000000000000000000 ) ) ;
#242 = COORDINATED_UNIVERSAL_TIME_OFFSET ( 1, 0, .AHEAD. ) ;
#243 = CIRCLE ( 'NONE', #10, 5.249999999999990230 ) ;
#244 = CIRCLE ( 'NONE', #164, 5.249999999999990230 ) ;
#245 = CARTESIAN_POINT ( 'NONE',  ( 0.0000000000000000000, 0.0000000000000000000, 0.0000000000000000000 ) ) ;
#246 = LINE ( 'NONE', #18, #53 ) ;
#247 = ORIENTED_EDGE ( 'NONE', *, *, #302, .T. ) ;
#248 = CARTESIAN_POINT ( 'NONE',  ( 1.101394160254751641E-14, -3.863170677585479483E-16, 3.154518249894720405 ) ) ;
#249 = LINE ( 'NONE', #76, #98 ) ;
#250 = CARTESIAN_POINT ( 'NONE',  ( 3.072503578181957353E-13, -1.077689183249670724E-14, 88.00000000000000000 ) ) ;
#251 = EDGE_CURVE ( 'NONE', #36, #236, #81, .T. ) ;
#252 = CARTESIAN_POINT ( 'NONE',  ( 3.072503578181957353E-13, 5.249999999999990230, 88.00000000000000000 ) ) ;
#253 = CARTESIAN_POINT ( 'NONE',  ( 6.429395695523578515E-16, -5.249999999999996447, -6.429395695523622888E-16 ) ) ;
#254 =( NAMED_UNIT ( * ) PLANE_ANGLE_UNIT ( ) SI_UNIT ( $, .RADIAN. ) );
#255 = ADVANCED_FACE ( 'NONE', ( #276 ), #70, .T. ) ;
#256 = APPLICATION_PROTOCOL_DEFINITION ( 'international standard', 'config_control_design', 1994, #26 ) ;
#257 = ORIENTED_EDGE ( 'NONE', *, *, #47, .F. ) ;
#258 = LOCAL_TIME ( 9, 54, 51.00000000000000000, #106 ) ;
#259 = DATE_AND_TIME ( #163, #270 ) ;
#260 = EDGE_CURVE ( 'NONE', #149, #238, #286, .T. ) ;
#261 = ORIENTED_EDGE ( 'NONE', *, *, #50, .F. ) ;
#262 = DATE_TIME_ROLE ( 'creation_date' ) ;
#263 = ORIENTED_EDGE ( 'NONE', *, *, #85, .F. ) ;
#264 = EDGE_CURVE ( 'NONE', #189, #34, #20, .T. ) ;
#265 = MANIFOLD_SOLID_BREP ( 'Corps-Déplacer/Copier1[2]', #9 ) ;
#266 = CIRCLE ( 'NONE', #230, 5.249999999999993783 ) ;
#267 = VERTEX_POINT ( 'NONE', #128 ) ;
#268 = DIRECTION ( 'NONE',  ( -3.491481338843133355E-15, 1.224646799147353207E-16, -1.000000000000000000 ) ) ;
#269 = AXIS2_PLACEMENT_3D ( 'NONE', #203, #334, #72 ) ;
#270 = LOCAL_TIME ( 9, 54, 51.00000000000000000, #56 ) ;
#271 = DIRECTION ( 'NONE',  ( -3.491481338843133355E-15, 1.224646799147353207E-16, -1.000000000000000000 ) ) ;
#272 = FACE_OUTER_BOUND ( 'NONE', #105, .T. ) ;
#273 = DIRECTION ( 'NONE',  ( -3.491481338843133355E-15, 1.224646799147353207E-16, -1.000000000000000000 ) ) ;
#274 = DIRECTION ( 'NONE',  ( -3.491481338843133355E-15, 1.224646799147353207E-16, -1.000000000000000000 ) ) ;
#275 = LOCAL_TIME ( 9, 54, 51.00000000000000000, #28 ) ;
#276 = FACE_OUTER_BOUND ( 'NONE', #292, .T. ) ;
#277 = DIRECTION ( 'NONE',  ( -3.491481338843133355E-15, 1.224646799147353207E-16, -1.000000000000000000 ) ) ;
#278 = CARTESIAN_POINT ( 'NONE',  ( 1.082359215041371340E-13, -3.796405077356795115E-15, 31.00000000000000000 ) ) ;
#279 = CONICAL_SURFACE ( 'NONE', #174, 5.249999999999990230, 1.029744258676649649 ) ;
#280 = DIRECTION ( 'NONE',  ( 0.0000000000000000000, 1.000000000000000000, 0.0000000000000000000 ) ) ;
#281 = CC_DESIGN_PERSON_AND_ORGANIZATION_ASSIGNMENT ( #283, #284, ( #152 ) ) ;
#282 = PRODUCT ( '54648', '54648', '', ( #35 ) ) ;
#283 = PERSON_AND_ORGANIZATION ( #145, #45 ) ;
#284 = PERSON_AND_ORGANIZATION_ROLE ( 'classification_officer' ) ;
#285 = ORIENTED_EDGE ( 'NONE', *, *, #133, .F. ) ;
#286 = CIRCLE ( 'NONE', #151, 4.250000000000000888 ) ;
#287 = LOCAL_TIME ( 9, 54, 51.00000000000000000, #242 ) ;
#288 = ADVANCED_FACE ( 'NONE', ( #153 ), #229, .T. ) ;
#289 = CALENDAR_DATE ( 2021, 3, 9 ) ;
#290 = EDGE_LOOP ( 'NONE', ( #317, #329 ) ) ;
#291 = UNCERTAINTY_MEASURE_WITH_UNIT (LENGTH_MEASURE( 1.000000000000000082E-05 ), #80, 'distance_accuracy_value', 'NONE');
#292 = EDGE_LOOP ( 'NONE', ( #168, #285 ) ) ;
#293 = EDGE_LOOP ( 'NONE', ( #141, #173, #191, #144 ) ) ;
#294 = VERTEX_POINT ( 'NONE', #252 ) ;
#295 = ORIENTED_EDGE ( 'NONE', *, *, #260, .F. ) ;
#296 = VECTOR ( 'NONE', #185, 1000.000000000000000 ) ;
#297 = DIRECTION ( 'NONE',  ( 0.0000000000000000000, 1.000000000000000000, 0.0000000000000000000 ) ) ;
#298 = APPROVAL_STATUS ( 'not_yet_approved' ) ;
#299 = PLANE ( 'NONE',  #214 ) ;
#300 = CARTESIAN_POINT ( 'NONE',  ( 1.082359215041371340E-13, 5.249999999999990230, 31.00000000000000000 ) ) ;
#301 = CC_DESIGN_DATE_AND_TIME_ASSIGNMENT ( #259, #170, ( #152 ) ) ;
#302 = EDGE_CURVE ( 'NONE', #149, #294, #48, .T. ) ;
#303 = DIRECTION ( 'NONE',  ( 0.0000000000000000000, 1.000000000000000000, 0.0000000000000000000 ) ) ;
#304 = CC_DESIGN_APPROVAL ( #177, ( #30 ) ) ;
#305 = DESIGN_CONTEXT ( 'detailed design', #26, 'design' ) ;
#306 = DIRECTION ( 'NONE',  ( -3.491481338843133355E-15, 1.224646799147353207E-16, -1.000000000000000000 ) ) ;
#307 = CARTESIAN_POINT ( 'NONE',  ( 1.082359215041371340E-13, -3.796405077356795115E-15, 31.00000000000000000 ) ) ;
#308 = CARTESIAN_POINT ( 'NONE',  ( 0.0000000000000000000, 0.0000000000000000000, 0.0000000000000000000 ) ) ;
#309 = CC_DESIGN_PERSON_AND_ORGANIZATION_ASSIGNMENT ( #139, #233, ( #282 ) ) ;
#310 = EDGE_CURVE ( 'NONE', #267, #294, #125, .T. ) ;
#311 = EDGE_CURVE ( 'NONE', #236, #36, #266, .T. ) ;
#312 = AXIS2_PLACEMENT_3D ( 'NONE', #84, #196, #171 ) ;
#313 = PERSON_AND_ORGANIZATION ( #145, #45 ) ;
#314 = ORIENTED_EDGE ( 'NONE', *, *, #310, .F. ) ;
#315 = ADVANCED_FACE ( 'NONE', ( #24 ), #231, .T. ) ;
#316 = PLANE ( 'NONE',  #208 ) ;
#317 = ORIENTED_EDGE ( 'NONE', *, *, #311, .T. ) ;
#318 = AXIS2_PLACEMENT_3D ( 'NONE', #108, #31, #130 ) ;
#319 = APPROVAL_ROLE ( '' ) ;
#320 = PRODUCT_DEFINITION_SHAPE ( 'NONE', 'NONE',  #129 ) ;
#321 = ORIENTED_EDGE ( 'NONE', *, *, #183, .F. ) ;
#322 = ADVANCED_BREP_SHAPE_REPRESENTATION ( '54648', ( #40, #265, #318 ), #2 ) ;
#323 = ORIENTED_EDGE ( 'NONE', *, *, #63, .F. ) ;
#324 = EDGE_CURVE ( 'NONE', #34, #165, #21, .T. ) ;
#325 = CC_DESIGN_APPROVAL ( #96, ( #129 ) ) ;
#326 = EDGE_LOOP ( 'NONE', ( #4, #162, #263, #217 ) ) ;
#327 = DIRECTION ( 'NONE',  ( 2.934750391447221876E-31, 1.000000000000000000, 8.260587980841953571E-17 ) ) ;
#328 = PERSON_AND_ORGANIZATION ( #145, #45 ) ;
#329 = ORIENTED_EDGE ( 'NONE', *, *, #251, .T. ) ;
#330 = AXIS2_PLACEMENT_3D ( 'NONE', #278, #127, #94 ) ;
#331 = CARTESIAN_POINT ( 'NONE',  ( 1.165688117209987751E-14, 5.249999999999990230, 3.154518249894720405 ) ) ;
#332 = CARTESIAN_POINT ( 'NONE',  ( 3.107418391570388560E-13, -1.089935651241144239E-14, 89.00000000000000000 ) ) ;
#333 = CARTESIAN_POINT ( 'NONE',  ( 3.095778057172123065E-13, -4.250000000000012434, 89.00000000000000000 ) ) ;
#334 = DIRECTION ( 'NONE',  ( -3.491481338843133355E-15, 1.224646799147353207E-16, -1.000000000000000000 ) ) ;
#335 = DIRECTION ( 'NONE',  ( -3.491481338843133355E-15, 1.224646799147353207E-16, -1.000000000000000000 ) ) ;
#336 = CARTESIAN_POINT ( 'NONE',  ( 1.082359215041371340E-13, -3.796405077356795115E-15, 31.00000000000000000 ) ) ;
#337 = ADVANCED_FACE ( 'NONE', ( #3 ), #316, .F. ) ;
ENDSEC;
END-ISO-10303-21;
