ISO-10303-21;
HEADER;
FILE_DESCRIPTION (( 'STEP AP203' ),
    '1' );
FILE_NAME ('54647.step',
    '2021-09-03T07:54:46',
    ( '' ),
    ( '' ),
    'SwSTEP 2.0',
    'SolidWorks 2019',
    '' );
FILE_SCHEMA (( 'CONFIG_CONTROL_DESIGN' ));
ENDSEC;

DATA;
#1 = CARTESIAN_POINT ( 'NONE',  ( 1.082359215041371340E-13, -3.796405077356795115E-15, 31.00000000000000000 ) ) ;
#2 = ADVANCED_BREP_SHAPE_REPRESENTATION ( '54647', ( #6, #218, #307 ), #106 ) ;
#3 = PERSON_AND_ORGANIZATION ( #28, #74 ) ;
#4 = EDGE_CURVE ( 'NONE', #301, #237, #66, .T. ) ;
#5 = CARTESIAN_POINT ( 'NONE',  ( 2.180674037407447155E-30, 5.099999999999996092, 6.245698675651496895E-16 ) ) ;
#6 = MANIFOLD_SOLID_BREP ( 'Corps-Déplacer/Copier1[1]', #127 ) ;
#7 = AXIS2_PLACEMENT_3D ( 'NONE', #254, #101, #309 ) ;
#8 = FACE_OUTER_BOUND ( 'NONE', #275, .T. ) ;
#9 = EDGE_CURVE ( 'NONE', #143, #91, #208, .T. ) ;
#10 = CYLINDRICAL_SURFACE ( 'NONE', #7, 5.099999999999990763 ) ;
#11 = AXIS2_PLACEMENT_3D ( 'NONE', #54, #217, #252 ) ;
#12 = DIRECTION ( 'NONE',  ( -3.491481338843133355E-15, 1.224646799147353207E-16, -1.000000000000000000 ) ) ;
#13 = LINE ( 'NONE', #255, #131 ) ;
#14 = CARTESIAN_POINT ( 'NONE',  ( 1.069925755676044081E-14, -3.752794372511607880E-16, 3.064389157040584788 ) ) ;
#15 = DIRECTION ( 'NONE',  ( 1.000000000000000000, 0.0000000000000000000, 0.0000000000000000000 ) ) ;
#16 = COORDINATED_UNIVERSAL_TIME_OFFSET ( 1, 0, .AHEAD. ) ;
#17 = DIRECTION ( 'NONE',  ( 1.798245827342160317E-15, -0.8571673007021098911, 0.5150380749100582634 ) ) ;
#18 = VECTOR ( 'NONE', #304, 1000.000000000000000 ) ;
#19 = ADVANCED_FACE ( 'NONE', ( #20 ), #119, .T. ) ;
#20 = FACE_OUTER_BOUND ( 'NONE', #43, .T. ) ;
#21 = CARTESIAN_POINT ( 'NONE',  ( 3.107418391570388560E-13, -1.089935651241144239E-14, 89.00000000000000000 ) ) ;
#22 = ORIENTED_EDGE ( 'NONE', *, *, #200, .F. ) ;
#23 = FACE_OUTER_BOUND ( 'NONE', #211, .T. ) ;
#24 = ORIENTED_EDGE ( 'NONE', *, *, #295, .F. ) ;
#25 = DIRECTION ( 'NONE',  ( -3.491481338843133355E-15, 1.224646799147353207E-16, -1.000000000000000000 ) ) ;
#26 = VERTEX_POINT ( 'NONE', #122 ) ;
#27 = CARTESIAN_POINT ( 'NONE',  ( 3.107418391570388560E-13, -1.089935651241144239E-14, 89.00000000000000000 ) ) ;
#28 = PERSON ( 'UNSPECIFIED', 'UNSPECIFIED', 'UNSPECIFIED', ('UNSPECIFIED'), ('UNSPECIFIED'), ('UNSPECIFIED') ) ;
#29 = LOCAL_TIME ( 9, 54, 46.00000000000000000, #318 ) ;
#30 = PRODUCT_RELATED_PRODUCT_CATEGORY ( 'detail', '', ( #103 ) ) ;
#31 = PERSON_AND_ORGANIZATION ( #28, #74 ) ;
#32 = CARTESIAN_POINT ( 'NONE',  ( 3.107418391570388560E-13, 4.099999999999988987, 89.00000000000000000 ) ) ;
#33 = LINE ( 'NONE', #171, #198 ) ;
#34 = PERSON_AND_ORGANIZATION ( #28, #74 ) ;
#35 = APPROVAL_DATE_TIME ( #256, #135 ) ;
#36 = CC_DESIGN_SECURITY_CLASSIFICATION ( #278, ( #316 ) ) ;
#37 = FACE_OUTER_BOUND ( 'NONE', #207, .T. ) ;
#38 = DATE_AND_TIME ( #132, #264 ) ;
#39 = CIRCLE ( 'NONE', #263, 5.099999999999988987 ) ;
#40 = CALENDAR_DATE ( 2021, 3, 9 ) ;
#41 = DIRECTION ( 'NONE',  ( 0.0000000000000000000, 1.000000000000000000, 0.0000000000000000000 ) ) ;
#42 = FACE_OUTER_BOUND ( 'NONE', #52, .T. ) ;
#43 = EDGE_LOOP ( 'NONE', ( #65, #331, #85 ) ) ;
#44 = DIRECTION ( 'NONE',  ( 3.021066579430964546E-31, 1.000000000000000000, 8.503546450866719304E-17 ) ) ;
#45 = EDGE_CURVE ( 'NONE', #191, #163, #296, .T. ) ;
#46 = VECTOR ( 'NONE', #241, 1000.000000000000000 ) ;
#47 = ORIENTED_EDGE ( 'NONE', *, *, #4, .F. ) ;
#48 = DIRECTION ( 'NONE',  ( 4.275831445896958607E-31, 1.000000000000000000, 1.224646799147353207E-16 ) ) ;
#49 = CC_DESIGN_PERSON_AND_ORGANIZATION_ASSIGNMENT ( #214, #160, ( #316 ) ) ;
#50 = ORIENTED_EDGE ( 'NONE', *, *, #284, .F. ) ;
#51 = DIRECTION ( 'NONE',  ( -3.491481338843133355E-15, 1.224646799147353207E-16, -1.000000000000000000 ) ) ;
#52 = EDGE_LOOP ( 'NONE', ( #185, #93, #297, #213 ) ) ;
#53 = CARTESIAN_POINT ( 'NONE',  ( 1.082359215041371340E-13, -3.796405077356795115E-15, 31.00000000000000000 ) ) ;
#54 = CARTESIAN_POINT ( 'NONE',  ( 3.107418391570388560E-13, 3.074507554456791675E-32, 89.00000000000000000 ) ) ;
#55 = AXIS2_PLACEMENT_3D ( 'NONE', #117, #25, #41 ) ;
#56 = CARTESIAN_POINT ( 'NONE',  ( 1.069925755676044081E-14, -5.099999999999988987, 3.064389157040584344 ) ) ;
#57 = CARTESIAN_POINT ( 'NONE',  ( 0.0000000000000000000, 0.0000000000000000000, 0.0000000000000000000 ) ) ;
#58 = CONICAL_SURFACE ( 'NONE', #230, 4.100000000000000533, 0.7853981633974473908 ) ;
#59 = APPROVAL_DATE_TIME ( #287, #77 ) ;
#60 = EDGE_CURVE ( 'NONE', #267, #143, #96, .T. ) ;
#61 = DIRECTION ( 'NONE',  ( 3.021066579430964546E-31, 1.000000000000000000, 8.503546450866719304E-17 ) ) ;
#62 = LINE ( 'NONE', #299, #303 ) ;
#63 = DIRECTION ( 'NONE',  ( 0.0000000000000000000, 1.000000000000000000, 0.0000000000000000000 ) ) ;
#64 = APPLICATION_CONTEXT ( 'configuration controlled 3d designs of mechanical parts and assemblies' ) ;
#65 = ORIENTED_EDGE ( 'NONE', *, *, #334, .F. ) ;
#66 = CIRCLE ( 'NONE', #281, 5.099999999999992539 ) ;
#67 = ORIENTED_EDGE ( 'NONE', *, *, #284, .T. ) ;
#68 = PERSON_AND_ORGANIZATION ( #28, #74 ) ;
#69 = DIRECTION ( 'NONE',  ( -2.382254525458719047E-15, -0.7071067811865467956, -0.7071067811865483499 ) ) ;
#70 = ORIENTED_EDGE ( 'NONE', *, *, #140, .F. ) ;
#71 = ORIENTED_EDGE ( 'NONE', *, *, #45, .T. ) ;
#72 = CARTESIAN_POINT ( 'NONE',  ( 1.082359215041371340E-13, 5.099999999999988987, 31.00000000000000000 ) ) ;
#73 = UNCERTAINTY_MEASURE_WITH_UNIT (LENGTH_MEASURE( 1.000000000000000082E-05 ), #167, 'distance_accuracy_value', 'NONE');
#74 = ORGANIZATION ( 'UNSPECIFIED', 'UNSPECIFIED', '' ) ;
#75 = APPROVAL_ROLE ( '' ) ;
#76 = APPROVAL_STATUS ( 'not_yet_approved' ) ;
#77 = APPROVAL ( #108, 'UNSPECIFIED' ) ;
#78 = CONICAL_SURFACE ( 'NONE', #330, 5.099999999999988987, 1.029744258676649649 ) ;
#79 = CC_DESIGN_APPROVAL ( #77, ( #316 ) ) ;
#80 = CALENDAR_DATE ( 2021, 3, 9 ) ;
#81 = CARTESIAN_POINT ( 'NONE',  ( 3.107418391570388560E-13, -1.089935651241144239E-14, 89.00000000000000000 ) ) ;
#82 = FACE_OUTER_BOUND ( 'NONE', #324, .T. ) ;
#83 = APPROVAL_ROLE ( '' ) ;
#84 = DIRECTION ( 'NONE',  ( 0.0000000000000000000, 1.000000000000000000, 0.0000000000000000000 ) ) ;
#85 = ORIENTED_EDGE ( 'NONE', *, *, #310, .T. ) ;
#86 = MECHANICAL_CONTEXT ( 'NONE', #335, 'mechanical' ) ;
#87 = DATE_TIME_ROLE ( 'creation_date' ) ;
#88 =( NAMED_UNIT ( * ) PLANE_ANGLE_UNIT ( ) SI_UNIT ( $, .RADIAN. ) );
#89 = ORIENTED_EDGE ( 'NONE', *, *, #60, .F. ) ;
#90 = PERSON_AND_ORGANIZATION_ROLE ( 'design_supplier' ) ;
#91 = VERTEX_POINT ( 'NONE', #72 ) ;
#92 = DIRECTION ( 'NONE',  ( -3.491481338843133355E-15, 1.224646799147353207E-16, -1.000000000000000000 ) ) ;
#93 = ORIENTED_EDGE ( 'NONE', *, *, #60, .T. ) ;
#94 = ORIENTED_EDGE ( 'NONE', *, *, #154, .F. ) ;
#95 = EDGE_CURVE ( 'NONE', #237, #159, #33, .T. ) ;
#96 = LINE ( 'NONE', #194, #18 ) ;
#97 = APPLICATION_PROTOCOL_DEFINITION ( 'international standard', 'config_control_design', 1994, #64 ) ;
#98 = CARTESIAN_POINT ( 'NONE',  ( 1.069925755676044081E-14, -3.752794372511607880E-16, 3.064389157040584788 ) ) ;
#99 = AXIS2_PLACEMENT_3D ( 'NONE', #14, #212, #44 ) ;
#100 = CC_DESIGN_APPROVAL ( #135, ( #193 ) ) ;
#101 = DIRECTION ( 'NONE',  ( -3.491481338843133355E-15, 1.224646799147353207E-16, -1.000000000000000000 ) ) ;
#102 = PLANE ( 'NONE',  #234 ) ;
#103 = PRODUCT ( '54647', '54647', '', ( #86 ) ) ;
#104 = CARTESIAN_POINT ( 'NONE',  ( 0.0000000000000000000, 0.0000000000000000000, 0.0000000000000000000 ) ) ;
#105 = EDGE_CURVE ( 'NONE', #144, #91, #248, .T. ) ;
#106 =( GEOMETRIC_REPRESENTATION_CONTEXT ( 3 ) GLOBAL_UNCERTAINTY_ASSIGNED_CONTEXT ( ( #73 ) ) GLOBAL_UNIT_ASSIGNED_CONTEXT ( ( #167, #88, #161 ) ) REPRESENTATION_CONTEXT ( 'NONE', 'WORKASPACE' ) );
#107 = DIRECTION ( 'NONE',  ( -3.491481338843133355E-15, 1.224646799147353207E-16, -1.000000000000000000 ) ) ;
#108 = APPROVAL_STATUS ( 'not_yet_approved' ) ;
#109 = PERSON_AND_ORGANIZATION ( #28, #74 ) ;
#110 = EDGE_CURVE ( 'NONE', #91, #143, #123, .T. ) ;
#111 = DIRECTION ( 'NONE',  ( 0.0000000000000000000, 1.000000000000000000, 0.0000000000000000000 ) ) ;
#112 = DIRECTION ( 'NONE',  ( 0.0000000000000000000, 0.0000000000000000000, 1.000000000000000000 ) ) ;
#113 = VECTOR ( 'NONE', #282, 1000.000000000000000 ) ;
#114 = DIRECTION ( 'NONE',  ( 3.491481338843133355E-15, -1.224646799147353207E-16, 1.000000000000000000 ) ) ;
#115 = VERTEX_POINT ( 'NONE', #156 ) ;
#116 = ORIENTED_EDGE ( 'NONE', *, *, #95, .T. ) ;
#117 = CARTESIAN_POINT ( 'NONE',  ( 3.072503578181957353E-13, -1.077689183249670724E-14, 88.00000000000000000 ) ) ;
#118 = ORIENTED_EDGE ( 'NONE', *, *, #154, .T. ) ;
#119 = CONICAL_SURFACE ( 'NONE', #145, 5.099999999999988987, 1.029744258676649649 ) ;
#120 = ORIENTED_EDGE ( 'NONE', *, *, #224, .T. ) ;
#121 = ADVANCED_FACE ( 'NONE', ( #152 ), #258, .T. ) ;
#122 = CARTESIAN_POINT ( 'NONE',  ( 1.132382742432559228E-14, 5.099999999999988987, 3.064389157040585232 ) ) ;
#123 = CIRCLE ( 'NONE', #271, 5.099999999999992539 ) ;
#124 = DIRECTION ( 'NONE',  ( 3.491481338843133355E-15, -1.224646799147353207E-16, 1.000000000000000000 ) ) ;
#125 = DIRECTION ( 'NONE',  ( -3.491481338843133355E-15, 1.224646799147353207E-16, -1.000000000000000000 ) ) ;
#126 = APPROVAL_STATUS ( 'not_yet_approved' ) ;
#127 = CLOSED_SHELL ( 'NONE', ( #222, #322, #186, #195, #172, #162 ) ) ;
#128 = PERSON_AND_ORGANIZATION ( #28, #74 ) ;
#129 = EDGE_LOOP ( 'NONE', ( #327, #116, #137, #242 ) ) ;
#130 = CARTESIAN_POINT ( 'NONE',  ( 3.095594360152250622E-13, -4.100000000000011191, 89.00000000000000000 ) ) ;
#131 = VECTOR ( 'NONE', #69, 1000.000000000000000 ) ;
#132 = CALENDAR_DATE ( 2021, 3, 9 ) ;
#133 = LINE ( 'NONE', #231, #46 ) ;
#134 = DATE_AND_TIME ( #40, #29 ) ;
#135 = APPROVAL ( #126, 'UNSPECIFIED' ) ;
#136 = CARTESIAN_POINT ( 'NONE',  ( 1.069925755676044081E-14, -5.099999999999988987, 3.064389157040584344 ) ) ;
#137 = ORIENTED_EDGE ( 'NONE', *, *, #290, .F. ) ;
#138 = VECTOR ( 'NONE', #17, 1000.000000000000000 ) ;
#139 = CARTESIAN_POINT ( 'NONE',  ( 1.082359215041371340E-13, -3.796405077356795115E-15, 31.00000000000000000 ) ) ;
#140 = EDGE_CURVE ( 'NONE', #191, #267, #13, .T. ) ;
#141 = ORIENTED_EDGE ( 'NONE', *, *, #9, .T. ) ;
#142 = DIRECTION ( 'NONE',  ( 1.903218546456022717E-15, 0.8571673007021097801, 0.5150380749100585964 ) ) ;
#143 = VERTEX_POINT ( 'NONE', #183 ) ;
#144 = VERTEX_POINT ( 'NONE', #223 ) ;
#145 = AXIS2_PLACEMENT_3D ( 'NONE', #98, #124, #174 ) ;
#146 = AXIS2_PLACEMENT_3D ( 'NONE', #189, #92, #48 ) ;
#147 = DIRECTION ( 'NONE',  ( -3.491481338843133355E-15, 1.224646799147353207E-16, -1.000000000000000000 ) ) ;
#148 = CC_DESIGN_DATE_AND_TIME_ASSIGNMENT ( #134, #313, ( #278 ) ) ;
#149 = VECTOR ( 'NONE', #221, 1000.000000000000000 ) ;
#150 = CALENDAR_DATE ( 2021, 3, 9 ) ;
#151 = DIRECTION ( 'NONE',  ( 0.0000000000000000000, 1.000000000000000000, 0.0000000000000000000 ) ) ;
#152 = FACE_OUTER_BOUND ( 'NONE', #333, .T. ) ;
#153 = AXIS2_PLACEMENT_3D ( 'NONE', #27, #192, #336 ) ;
#154 = EDGE_CURVE ( 'NONE', #163, #144, #197, .T. ) ;
#155 = CALENDAR_DATE ( 2021, 3, 9 ) ;
#156 = CARTESIAN_POINT ( 'NONE',  ( 0.0000000000000000000, 0.0000000000000000000, 0.0000000000000000000 ) ) ;
#157 = DIRECTION ( 'NONE',  ( -3.491481338843133355E-15, 1.224646799147353207E-16, -1.000000000000000000 ) ) ;
#158 = DIRECTION ( 'NONE',  ( -3.491481338843133355E-15, 1.224646799147353207E-16, -1.000000000000000000 ) ) ;
#159 = VERTEX_POINT ( 'NONE', #56 ) ;
#160 = PERSON_AND_ORGANIZATION_ROLE ( 'creator' ) ;
#161 =( NAMED_UNIT ( * ) SI_UNIT ( $, .STERADIAN. ) SOLID_ANGLE_UNIT ( ) );
#162 = ADVANCED_FACE ( 'NONE', ( #247 ), #244, .F. ) ;
#163 = VERTEX_POINT ( 'NONE', #32 ) ;
#164 = CIRCLE ( 'NONE', #99, 5.099999999999988987 ) ;
#165 = CARTESIAN_POINT ( 'NONE',  ( 1.082359215041371340E-13, 5.099999999999988987, 31.00000000000000000 ) ) ;
#166 = ORIENTED_EDGE ( 'NONE', *, *, #276, .F. ) ;
#167 =( LENGTH_UNIT ( ) NAMED_UNIT ( * ) SI_UNIT ( .MILLI., .METRE. ) );
#168 = ORIENTED_EDGE ( 'NONE', *, *, #334, .T. ) ;
#169 = ORIENTED_EDGE ( 'NONE', *, *, #290, .T. ) ;
#170 = ADVANCED_FACE ( 'NONE', ( #302 ), #10, .T. ) ;
#171 = CARTESIAN_POINT ( 'NONE',  ( 6.245698675651469284E-16, -5.099999999999990763, -6.245698675651511686E-16 ) ) ;
#172 = ADVANCED_FACE ( 'NONE', ( #181 ), #58, .T. ) ;
#173 = AXIS2_PLACEMENT_3D ( 'NONE', #326, #238, #182 ) ;
#174 = DIRECTION ( 'NONE',  ( -3.021066579430964546E-31, -1.000000000000000000, -8.503546450866719304E-17 ) ) ;
#175 = DATE_AND_TIME ( #155, #289 ) ;
#176 = APPROVAL_ROLE ( '' ) ;
#177 = APPROVAL_DATE_TIME ( #175, #305 ) ;
#178 = DIRECTION ( 'NONE',  ( 3.491481338843133355E-15, -1.224646799147353207E-16, 1.000000000000000000 ) ) ;
#179 = AXIS2_PLACEMENT_3D ( 'NONE', #21, #274, #268 ) ;
#180 = CC_DESIGN_APPROVAL ( #305, ( #278 ) ) ;
#181 = FACE_OUTER_BOUND ( 'NONE', #216, .T. ) ;
#182 = DIRECTION ( 'NONE',  ( 0.0000000000000000000, 1.000000000000000000, 0.0000000000000000000 ) ) ;
#183 = CARTESIAN_POINT ( 'NONE',  ( 2.083677095287315372E-13, -5.099999999999996092, 31.00000000000000000 ) ) ;
#184 = EDGE_LOOP ( 'NONE', ( #47, #286 ) ) ;
#185 = ORIENTED_EDGE ( 'NONE', *, *, #295, .T. ) ;
#186 = ADVANCED_FACE ( 'NONE', ( #37 ), #102, .F. ) ;
#187 = ORIENTED_EDGE ( 'NONE', *, *, #9, .F. ) ;
#188 = CIRCLE ( 'NONE', #55, 5.099999999999999645 ) ;
#189 = CARTESIAN_POINT ( 'NONE',  ( 0.0000000000000000000, 0.0000000000000000000, 0.0000000000000000000 ) ) ;
#190 = EDGE_LOOP ( 'NONE', ( #50, #300 ) ) ;
#191 = VERTEX_POINT ( 'NONE', #130 ) ;
#192 = DIRECTION ( 'NONE',  ( -3.491481338843133355E-15, 1.224646799147353207E-16, -1.000000000000000000 ) ) ;
#193 = PRODUCT_DEFINITION ( 'UNKNOWN', '', #316, #245 ) ;
#194 = CARTESIAN_POINT ( 'NONE',  ( 6.245698675651475201E-16, -5.099999999999996092, -6.245698675651517602E-16 ) ) ;
#195 = ADVANCED_FACE ( 'NONE', ( #8 ), #314, .T. ) ;
#196 = CC_DESIGN_DATE_AND_TIME_ASSIGNMENT ( #38, #87, ( #193 ) ) ;
#197 = LINE ( 'NONE', #279, #113 ) ;
#198 = VECTOR ( 'NONE', #125, 1000.000000000000000 ) ;
#199 = DIRECTION ( 'NONE',  ( -3.491481338843133355E-15, 1.224646799147353207E-16, -1.000000000000000000 ) ) ;
#200 = EDGE_CURVE ( 'NONE', #115, #159, #236, .T. ) ;
#201 = DIRECTION ( 'NONE',  ( -4.275831445896958607E-31, -1.000000000000000000, -1.224646799147353207E-16 ) ) ;
#202 = CIRCLE ( 'NONE', #173, 5.099999999999999645 ) ;
#203 = DIRECTION ( 'NONE',  ( 4.275831445896958607E-31, 1.000000000000000000, 1.224646799147353207E-16 ) ) ;
#204 = PERSON_AND_ORGANIZATION_ROLE ( 'classification_officer' ) ;
#205 = FACE_OUTER_BOUND ( 'NONE', #184, .T. ) ;
#206 = CARTESIAN_POINT ( 'NONE',  ( 6.009215939801389628E-14, -5.099999999999996092, 31.00000000000000000 ) ) ;
#207 = EDGE_LOOP ( 'NONE', ( #209, #141 ) ) ;
#208 = CIRCLE ( 'NONE', #249, 5.099999999999992539 ) ;
#209 = ORIENTED_EDGE ( 'NONE', *, *, #110, .T. ) ;
#210 = PLANE ( 'NONE',  #219 ) ;
#211 = EDGE_LOOP ( 'NONE', ( #67, #246, #24, #94 ) ) ;
#212 = DIRECTION ( 'NONE',  ( -3.491481338843133355E-15, 1.224646799147353207E-16, -1.000000000000000000 ) ) ;
#213 = ORIENTED_EDGE ( 'NONE', *, *, #105, .F. ) ;
#214 = PERSON_AND_ORGANIZATION ( #28, #74 ) ;
#215 = LOCAL_TIME ( 9, 54, 46.00000000000000000, #293 ) ;
#216 = EDGE_LOOP ( 'NONE', ( #70, #71, #118, #166 ) ) ;
#217 = DIRECTION ( 'NONE',  ( -3.491481338843133355E-15, 1.224646799147353207E-16, -1.000000000000000000 ) ) ;
#218 = MANIFOLD_SOLID_BREP ( 'Corps-Déplacer/Copier1[2]', #243 ) ;
#219 = AXIS2_PLACEMENT_3D ( 'NONE', #288, #114, #265 ) ;
#220 = CIRCLE ( 'NONE', #250, 5.099999999999992539 ) ;
#221 = DIRECTION ( 'NONE',  ( -3.491481338843133355E-15, 1.224646799147353207E-16, -1.000000000000000000 ) ) ;
#222 = ADVANCED_FACE ( 'NONE', ( #23 ), #337, .T. ) ;
#223 = CARTESIAN_POINT ( 'NONE',  ( 3.072503578181957353E-13, 5.099999999999988987, 88.00000000000000000 ) ) ;
#224 = EDGE_CURVE ( 'NONE', #301, #26, #133, .T. ) ;
#225 = PERSON_AND_ORGANIZATION_ROLE ( 'creator' ) ;
#226 = SHAPE_DEFINITION_REPRESENTATION ( #311, #2 ) ;
#227 = CARTESIAN_POINT ( 'NONE',  ( 1.082359215041371340E-13, 3.824387445787725952E-32, 31.00000000000000000 ) ) ;
#228 = ADVANCED_FACE ( 'NONE', ( #205 ), #210, .T. ) ;
#229 = CARTESIAN_POINT ( 'NONE',  ( 0.0000000000000000000, 0.0000000000000000000, 0.0000000000000000000 ) ) ;
#230 = AXIS2_PLACEMENT_3D ( 'NONE', #81, #12, #151 ) ;
#231 = CARTESIAN_POINT ( 'NONE',  ( 2.180674037407445053E-30, 5.099999999999990763, 6.245698675651489992E-16 ) ) ;
#232 = DIRECTION ( 'NONE',  ( 0.0000000000000000000, 1.000000000000000000, 0.0000000000000000000 ) ) ;
#233 = CARTESIAN_POINT ( 'NONE',  ( 1.082359215041371340E-13, -3.796405077356795115E-15, 31.00000000000000000 ) ) ;
#234 = AXIS2_PLACEMENT_3D ( 'NONE', #227, #178, #201 ) ;
#235 = LOCAL_TIME ( 9, 54, 46.00000000000000000, #283 ) ;
#236 = LINE ( 'NONE', #136, #138 ) ;
#237 = VERTEX_POINT ( 'NONE', #206 ) ;
#238 = DIRECTION ( 'NONE',  ( -3.491481338843133355E-15, 1.224646799147353207E-16, -1.000000000000000000 ) ) ;
#239 = ORIENTED_EDGE ( 'NONE', *, *, #325, .T. ) ;
#240 = SECURITY_CLASSIFICATION_LEVEL ( 'unclassified' ) ;
#241 = DIRECTION ( 'NONE',  ( -3.491481338843133355E-15, 1.224646799147353207E-16, -1.000000000000000000 ) ) ;
#242 = ORIENTED_EDGE ( 'NONE', *, *, #224, .F. ) ;
#243 = CLOSED_SHELL ( 'NONE', ( #170, #280, #19, #121, #228 ) ) ;
#244 = PLANE ( 'NONE',  #11 ) ;
#245 = DESIGN_CONTEXT ( 'detailed design', #64, 'design' ) ;
#246 = ORIENTED_EDGE ( 'NONE', *, *, #140, .T. ) ;
#247 = FACE_OUTER_BOUND ( 'NONE', #190, .T. ) ;
#248 = LINE ( 'NONE', #5, #149 ) ;
#249 = AXIS2_PLACEMENT_3D ( 'NONE', #233, #323, #63 ) ;
#250 = AXIS2_PLACEMENT_3D ( 'NONE', #139, #158, #232 ) ;
#251 = CC_DESIGN_PERSON_AND_ORGANIZATION_ASSIGNMENT ( #109, #204, ( #278 ) ) ;
#252 = DIRECTION ( 'NONE',  ( 4.275831445896958607E-31, 1.000000000000000000, 1.224646799147353207E-16 ) ) ;
#253 = PERSON_AND_ORGANIZATION_ROLE ( 'design_owner' ) ;
#254 = CARTESIAN_POINT ( 'NONE',  ( 0.0000000000000000000, 0.0000000000000000000, 0.0000000000000000000 ) ) ;
#255 = CARTESIAN_POINT ( 'NONE',  ( 3.112439443446892928E-13, -4.100000000000011191, 89.00000000000000000 ) ) ;
#256 = DATE_AND_TIME ( #150, #235 ) ;
#257 = AXIS2_PLACEMENT_3D ( 'NONE', #104, #260, #262 ) ;
#258 = CYLINDRICAL_SURFACE ( 'NONE', #257, 5.099999999999990763 ) ;
#259 = COORDINATED_UNIVERSAL_TIME_OFFSET ( 1, 0, .AHEAD. ) ;
#260 = DIRECTION ( 'NONE',  ( -3.491481338843133355E-15, 1.224646799147353207E-16, -1.000000000000000000 ) ) ;
#261 = CC_DESIGN_PERSON_AND_ORGANIZATION_ASSIGNMENT ( #128, #225, ( #193 ) ) ;
#262 = DIRECTION ( 'NONE',  ( 4.275831445896958607E-31, 1.000000000000000000, 1.224646799147353207E-16 ) ) ;
#263 = AXIS2_PLACEMENT_3D ( 'NONE', #272, #157, #61 ) ;
#264 = LOCAL_TIME ( 9, 54, 46.00000000000000000, #16 ) ;
#265 = DIRECTION ( 'NONE',  ( -4.275831445896958607E-31, -1.000000000000000000, -1.224646799147353207E-16 ) ) ;
#266 = CARTESIAN_POINT ( 'NONE',  ( 3.107418391570388560E-13, -1.089935651241144239E-14, 89.00000000000000000 ) ) ;
#267 = VERTEX_POINT ( 'NONE', #319 ) ;
#268 = DIRECTION ( 'NONE',  ( 0.0000000000000000000, 1.000000000000000000, 0.0000000000000000000 ) ) ;
#269 = CIRCLE ( 'NONE', #312, 4.100000000000000533 ) ;
#270 = ORIENTED_EDGE ( 'NONE', *, *, #276, .T. ) ;
#271 = AXIS2_PLACEMENT_3D ( 'NONE', #1, #199, #308 ) ;
#272 = CARTESIAN_POINT ( 'NONE',  ( 1.069925755676044081E-14, -3.752794372511607880E-16, 3.064389157040584788 ) ) ;
#273 = ORIENTED_EDGE ( 'NONE', *, *, #95, .F. ) ;
#274 = DIRECTION ( 'NONE',  ( -3.491481338843133355E-15, 1.224646799147353207E-16, -1.000000000000000000 ) ) ;
#275 = EDGE_LOOP ( 'NONE', ( #89, #270, #277, #187 ) ) ;
#276 = EDGE_CURVE ( 'NONE', #267, #144, #188, .T. ) ;
#277 = ORIENTED_EDGE ( 'NONE', *, *, #105, .T. ) ;
#278 = SECURITY_CLASSIFICATION ( '', '', #240 ) ;
#279 = CARTESIAN_POINT ( 'NONE',  ( 3.107418391570388560E-13, 4.099999999999988987, 89.00000000000000000 ) ) ;
#280 = ADVANCED_FACE ( 'NONE', ( #82 ), #78, .T. ) ;
#281 = AXIS2_PLACEMENT_3D ( 'NONE', #53, #147, #111 ) ;
#282 = DIRECTION ( 'NONE',  ( -2.468850131082267710E-15, 0.7071067811865470176, -0.7071067811865481278 ) ) ;
#283 = COORDINATED_UNIVERSAL_TIME_OFFSET ( 1, 0, .AHEAD. ) ;
#284 = EDGE_CURVE ( 'NONE', #163, #191, #269, .T. ) ;
#285 = AXIS2_PLACEMENT_3D ( 'NONE', #229, #107, #203 ) ;
#286 = ORIENTED_EDGE ( 'NONE', *, *, #325, .F. ) ;
#287 = DATE_AND_TIME ( #80, #215 ) ;
#288 = CARTESIAN_POINT ( 'NONE',  ( 1.082359215041371340E-13, 3.824387445787725952E-32, 31.00000000000000000 ) ) ;
#289 = LOCAL_TIME ( 9, 54, 46.00000000000000000, #259 ) ;
#290 = EDGE_CURVE ( 'NONE', #26, #159, #164, .T. ) ;
#291 = CARTESIAN_POINT ( 'NONE',  ( 1.069925755676044081E-14, -3.752794372511607880E-16, 3.064389157040584788 ) ) ;
#292 = ORIENTED_EDGE ( 'NONE', *, *, #310, .F. ) ;
#293 = COORDINATED_UNIVERSAL_TIME_OFFSET ( 1, 0, .AHEAD. ) ;
#294 = DIRECTION ( 'NONE',  ( 3.491481338843133355E-15, -1.224646799147353207E-16, 1.000000000000000000 ) ) ;
#295 = EDGE_CURVE ( 'NONE', #144, #267, #202, .T. ) ;
#296 = CIRCLE ( 'NONE', #153, 4.100000000000000533 ) ;
#297 = ORIENTED_EDGE ( 'NONE', *, *, #110, .F. ) ;
#298 = APPROVAL_PERSON_ORGANIZATION ( #320, #77, #83 ) ;
#299 = CARTESIAN_POINT ( 'NONE',  ( 1.132382742432559228E-14, 5.099999999999988987, 3.064389157040585232 ) ) ;
#300 = ORIENTED_EDGE ( 'NONE', *, *, #45, .F. ) ;
#301 = VERTEX_POINT ( 'NONE', #165 ) ;
#302 = FACE_OUTER_BOUND ( 'NONE', #129, .T. ) ;
#303 = VECTOR ( 'NONE', #142, 999.9999999999998863 ) ;
#304 = DIRECTION ( 'NONE',  ( -3.491481338843133355E-15, 1.224646799147353207E-16, -1.000000000000000000 ) ) ;
#305 = APPROVAL ( #76, 'UNSPECIFIED' ) ;
#306 = APPLICATION_PROTOCOL_DEFINITION ( 'international standard', 'config_control_design', 1994, #335 ) ;
#307 = AXIS2_PLACEMENT_3D ( 'NONE', #57, #112, #15 ) ;
#308 = DIRECTION ( 'NONE',  ( 0.0000000000000000000, 1.000000000000000000, 0.0000000000000000000 ) ) ;
#309 = DIRECTION ( 'NONE',  ( 4.275831445896958607E-31, 1.000000000000000000, 1.224646799147353207E-16 ) ) ;
#310 = EDGE_CURVE ( 'NONE', #159, #26, #39, .T. ) ;
#311 = PRODUCT_DEFINITION_SHAPE ( 'NONE', 'NONE',  #193 ) ;
#312 = AXIS2_PLACEMENT_3D ( 'NONE', #266, #51, #84 ) ;
#313 = DATE_TIME_ROLE ( 'classification_date' ) ;
#314 = CYLINDRICAL_SURFACE ( 'NONE', #285, 5.099999999999996092 ) ;
#315 = APPROVAL_PERSON_ORGANIZATION ( #34, #135, #176 ) ;
#316 = PRODUCT_DEFINITION_FORMATION_WITH_SPECIFIED_SOURCE ( 'ANY', '', #103, .NOT_KNOWN. ) ;
#317 = CC_DESIGN_PERSON_AND_ORGANIZATION_ASSIGNMENT ( #68, #90, ( #316 ) ) ;
#318 = COORDINATED_UNIVERSAL_TIME_OFFSET ( 1, 0, .AHEAD. ) ;
#319 = CARTESIAN_POINT ( 'NONE',  ( 2.083677095287314362E-13, -5.100000000000010303, 88.00000000000000000 ) ) ;
#320 = PERSON_AND_ORGANIZATION ( #28, #74 ) ;
#321 = DIRECTION ( 'NONE',  ( -3.021066579430964546E-31, -1.000000000000000000, -8.503546450866719304E-17 ) ) ;
#322 = ADVANCED_FACE ( 'NONE', ( #42 ), #329, .T. ) ;
#323 = DIRECTION ( 'NONE',  ( -3.491481338843133355E-15, 1.224646799147353207E-16, -1.000000000000000000 ) ) ;
#324 = EDGE_LOOP ( 'NONE', ( #22, #168, #169 ) ) ;
#325 = EDGE_CURVE ( 'NONE', #237, #301, #220, .T. ) ;
#326 = CARTESIAN_POINT ( 'NONE',  ( 3.072503578181957353E-13, -1.077689183249670724E-14, 88.00000000000000000 ) ) ;
#327 = ORIENTED_EDGE ( 'NONE', *, *, #4, .T. ) ;
#328 = CC_DESIGN_PERSON_AND_ORGANIZATION_ASSIGNMENT ( #3, #253, ( #103 ) ) ;
#329 = CYLINDRICAL_SURFACE ( 'NONE', #146, 5.099999999999996092 ) ;
#330 = AXIS2_PLACEMENT_3D ( 'NONE', #291, #294, #321 ) ;
#331 = ORIENTED_EDGE ( 'NONE', *, *, #200, .T. ) ;
#332 = APPROVAL_PERSON_ORGANIZATION ( #31, #305, #75 ) ;
#333 = EDGE_LOOP ( 'NONE', ( #273, #239, #120, #292 ) ) ;
#334 = EDGE_CURVE ( 'NONE', #115, #26, #62, .T. ) ;
#335 = APPLICATION_CONTEXT ( 'configuration controlled 3d designs of mechanical parts and assemblies' ) ;
#336 = DIRECTION ( 'NONE',  ( 0.0000000000000000000, 1.000000000000000000, 0.0000000000000000000 ) ) ;
#337 = CONICAL_SURFACE ( 'NONE', #179, 4.100000000000000533, 0.7853981633974473908 ) ;
ENDSEC;
END-ISO-10303-21;
