ISO-10303-21;
HEADER;
FILE_DESCRIPTION (( 'STEP AP203' ),
    '1' );
FILE_NAME ('54646.step',
    '2021-09-03T07:54:40',
    ( '' ),
    ( '' ),
    'SwSTEP 2.0',
    'SolidWorks 2019',
    '' );
FILE_SCHEMA (( 'CONFIG_CONTROL_DESIGN' ));
ENDSEC;

DATA;
#1 = CC_DESIGN_DATE_AND_TIME_ASSIGNMENT ( #51, #72, ( #75 ) ) ;
#2 = CYLINDRICAL_SURFACE ( 'NONE', #213, 4.999999999999991118 ) ;
#3 = ORIENTED_EDGE ( 'NONE', *, *, #276, .T. ) ;
#4 = CIRCLE ( 'NONE', #48, 4.999999999999992895 ) ;
#5 = CARTESIAN_POINT ( 'NONE',  ( 1.048946819290239357E-14, -3.679210169129027798E-16, 3.004303095137828450 ) ) ;
#6 = ORIENTED_EDGE ( 'NONE', *, *, #168, .F. ) ;
#7 = DIRECTION ( 'NONE',  ( 3.081487911019583933E-31, 1.000000000000000000, 8.673617379884053961E-17 ) ) ;
#8 = ADVANCED_FACE ( 'NONE', ( #292 ), #284, .T. ) ;
#9 = ORIENTED_EDGE ( 'NONE', *, *, #326, .T. ) ;
#10 = ORIENTED_EDGE ( 'NONE', *, *, #295, .T. ) ;
#11 = CARTESIAN_POINT ( 'NONE',  ( 3.107418391570388560E-13, 3.999999999999989786, 89.00000000000000000 ) ) ;
#12 = PLANE ( 'NONE',  #117 ) ;
#13 = CARTESIAN_POINT ( 'NONE',  ( 1.048946819290239357E-14, -3.679210169129027798E-16, 3.004303095137828450 ) ) ;
#14 = EDGE_LOOP ( 'NONE', ( #128, #126, #229 ) ) ;
#15 = LOCAL_TIME ( 9, 54, 40.00000000000000000, #21 ) ;
#16 = ADVANCED_FACE ( 'NONE', ( #156 ), #248, .T. ) ;
#17 = DIRECTION ( 'NONE',  ( -3.491481338843133355E-15, 1.224646799147353207E-16, -1.000000000000000000 ) ) ;
#18 = ORIENTED_EDGE ( 'NONE', *, *, #149, .F. ) ;
#19 = CARTESIAN_POINT ( 'NONE',  ( 3.107418391570388560E-13, -1.089935651241144239E-14, 89.00000000000000000 ) ) ;
#20 = CARTESIAN_POINT ( 'NONE',  ( 2.083554630607399652E-13, -5.000000000000010658, 88.00000000000000000 ) ) ;
#21 = COORDINATED_UNIVERSAL_TIME_OFFSET ( 1, 0, .AHEAD. ) ;
#22 = VECTOR ( 'NONE', #300, 1000.000000000000000 ) ;
#23 = PERSON_AND_ORGANIZATION ( #182, #136 ) ;
#24 = ORIENTED_EDGE ( 'NONE', *, *, #276, .F. ) ;
#25 = CARTESIAN_POINT ( 'NONE',  ( 3.107418391570388560E-13, -1.089935651241144239E-14, 89.00000000000000000 ) ) ;
#26 = CONICAL_SURFACE ( 'NONE', #238, 4.999999999999989342, 1.029744258676649649 ) ;
#27 = AXIS2_PLACEMENT_3D ( 'NONE', #79, #17, #177 ) ;
#28 = EDGE_LOOP ( 'NONE', ( #176, #206 ) ) ;
#29 = FACE_OUTER_BOUND ( 'NONE', #293, .T. ) ;
#30 = FACE_OUTER_BOUND ( 'NONE', #14, .T. ) ;
#31 = VERTEX_POINT ( 'NONE', #310 ) ;
#32 = DIRECTION ( 'NONE',  ( -3.491481338843133355E-15, 1.224646799147353207E-16, -1.000000000000000000 ) ) ;
#33 = ORIENTED_EDGE ( 'NONE', *, *, #107, .F. ) ;
#34 = DIRECTION ( 'NONE',  ( 3.491481338843133355E-15, -1.224646799147353207E-16, 1.000000000000000000 ) ) ;
#35 = AXIS2_PLACEMENT_3D ( 'NONE', #306, #95, #193 ) ;
#36 = ORIENTED_EDGE ( 'NONE', *, *, #41, .T. ) ;
#37 = DIRECTION ( 'NONE',  ( -2.382254525458719047E-15, -0.7071067811865467956, -0.7071067811865483499 ) ) ;
#38 = DIRECTION ( 'NONE',  ( -3.491481338843133355E-15, 1.224646799147353207E-16, -1.000000000000000000 ) ) ;
#39 = DIRECTION ( 'NONE',  ( -3.491481338843133355E-15, 1.224646799147353207E-16, -1.000000000000000000 ) ) ;
#40 = CARTESIAN_POINT ( 'NONE',  ( 3.072503578181957353E-13, -1.077689183249670724E-14, 88.00000000000000000 ) ) ;
#41 = EDGE_CURVE ( 'NONE', #171, #319, #259, .T. ) ;
#42 = PRODUCT_RELATED_PRODUCT_CATEGORY ( 'detail', '', ( #46 ) ) ;
#43 = EDGE_LOOP ( 'NONE', ( #97, #318 ) ) ;
#44 = CARTESIAN_POINT ( 'NONE',  ( 1.048946819290239199E-14, -4.999999999999989342, 3.004303095137828006 ) ) ;
#45 = CC_DESIGN_PERSON_AND_ORGANIZATION_ASSIGNMENT ( #298, #191, ( #321 ) ) ;
#46 = PRODUCT ( '54646', '54646', '', ( #220 ) ) ;
#47 = CALENDAR_DATE ( 2021, 3, 9 ) ;
#48 = AXIS2_PLACEMENT_3D ( 'NONE', #324, #244, #89 ) ;
#49 = CC_DESIGN_SECURITY_CLASSIFICATION ( #122, ( #321 ) ) ;
#50 = PERSON_AND_ORGANIZATION ( #182, #136 ) ;
#51 = DATE_AND_TIME ( #184, #170 ) ;
#52 = ORIENTED_EDGE ( 'NONE', *, *, #329, .F. ) ;
#53 = CALENDAR_DATE ( 2021, 3, 9 ) ;
#54 = CIRCLE ( 'NONE', #287, 4.000000000000000888 ) ;
#55 = VECTOR ( 'NONE', #124, 1000.000000000000000 ) ;
#56 = VERTEX_POINT ( 'NONE', #234 ) ;
#57 = LOCAL_TIME ( 9, 54, 40.00000000000000000, #167 ) ;
#58 = CARTESIAN_POINT ( 'NONE',  ( 0.0000000000000000000, 0.0000000000000000000, 0.0000000000000000000 ) ) ;
#59 = FACE_OUTER_BOUND ( 'NONE', #235, .T. ) ;
#60 = CC_DESIGN_PERSON_AND_ORGANIZATION_ASSIGNMENT ( #185, #271, ( #75 ) ) ;
#61 = DIRECTION ( 'NONE',  ( -3.491481338843133355E-15, 1.224646799147353207E-16, -1.000000000000000000 ) ) ;
#62 = CARTESIAN_POINT ( 'NONE',  ( 1.082359215041371340E-13, -3.796405077356795115E-15, 31.00000000000000000 ) ) ;
#63 = LINE ( 'NONE', #314, #223 ) ;
#64 = DIRECTION ( 'NONE',  ( 0.0000000000000000000, 1.000000000000000000, 0.0000000000000000000 ) ) ;
#65 = LOCAL_TIME ( 9, 54, 40.00000000000000000, #114 ) ;
#66 =( NAMED_UNIT ( * ) PLANE_ANGLE_UNIT ( ) SI_UNIT ( $, .RADIAN. ) );
#67 = DIRECTION ( 'NONE',  ( 4.275831445896958607E-31, 1.000000000000000000, 1.224646799147353207E-16 ) ) ;
#68 = PERSON_AND_ORGANIZATION_ROLE ( 'classification_officer' ) ;
#69 = SHAPE_DEFINITION_REPRESENTATION ( #115, #335 ) ;
#70 = AXIS2_PLACEMENT_3D ( 'NONE', #165, #277, #146 ) ;
#71 = PERSON_AND_ORGANIZATION ( #182, #136 ) ;
#72 = DATE_TIME_ROLE ( 'creation_date' ) ;
#73 = CARTESIAN_POINT ( 'NONE',  ( 1.110179159247607089E-14, 4.999999999999989342, 3.004303095137828894 ) ) ;
#74 = DIRECTION ( 'NONE',  ( -3.491481338843133355E-15, 1.224646799147353207E-16, -1.000000000000000000 ) ) ;
#75 = PRODUCT_DEFINITION ( 'UNKNOWN', '', #321, #304 ) ;
#76 = AXIS2_PLACEMENT_3D ( 'NONE', #25, #228, #331 ) ;
#77 = LOCAL_TIME ( 9, 54, 40.00000000000000000, #299 ) ;
#78 = ORIENTED_EDGE ( 'NONE', *, *, #237, .T. ) ;
#79 = CARTESIAN_POINT ( 'NONE',  ( 1.082359215041371340E-13, -3.796405077356795115E-15, 31.00000000000000000 ) ) ;
#80 = CARTESIAN_POINT ( 'NONE',  ( 0.0000000000000000000, 0.0000000000000000000, 0.0000000000000000000 ) ) ;
#81 = VERTEX_POINT ( 'NONE', #73 ) ;
#82 = DIRECTION ( 'NONE',  ( -3.491481338843133355E-15, 1.224646799147353207E-16, -1.000000000000000000 ) ) ;
#83 = CIRCLE ( 'NONE', #70, 4.999999999999989342 ) ;
#84 = ORIENTED_EDGE ( 'NONE', *, *, #41, .F. ) ;
#85 = CC_DESIGN_APPROVAL ( #98, ( #122 ) ) ;
#86 = CARTESIAN_POINT ( 'NONE',  ( 1.082359215041371340E-13, 3.749399456654634167E-32, 31.00000000000000000 ) ) ;
#87 = EDGE_LOOP ( 'NONE', ( #24, #221, #91, #18 ) ) ;
#88 = ORIENTED_EDGE ( 'NONE', *, *, #202, .T. ) ;
#89 = DIRECTION ( 'NONE',  ( 0.0000000000000000000, 1.000000000000000000, 0.0000000000000000000 ) ) ;
#90 = DIRECTION ( 'NONE',  ( -3.491481338843133355E-15, 1.224646799147353207E-16, -1.000000000000000000 ) ) ;
#91 = ORIENTED_EDGE ( 'NONE', *, *, #329, .T. ) ;
#92 = DIRECTION ( 'NONE',  ( 1.000000000000000000, 0.0000000000000000000, 0.0000000000000000000 ) ) ;
#93 = AXIS2_PLACEMENT_3D ( 'NONE', #151, #172, #105 ) ;
#94 = CALENDAR_DATE ( 2021, 3, 9 ) ;
#95 = DIRECTION ( 'NONE',  ( -3.491481338843133355E-15, 1.224646799147353207E-16, -1.000000000000000000 ) ) ;
#96 = CC_DESIGN_APPROVAL ( #195, ( #75 ) ) ;
#97 = ORIENTED_EDGE ( 'NONE', *, *, #260, .F. ) ;
#98 = APPROVAL ( #256, 'UNSPECIFIED' ) ;
#99 = VECTOR ( 'NONE', #32, 1000.000000000000000 ) ;
#100 = AXIS2_PLACEMENT_3D ( 'NONE', #178, #61, #138 ) ;
#101 = ADVANCED_FACE ( 'NONE', ( #30 ), #163, .T. ) ;
#102 = CARTESIAN_POINT ( 'NONE',  ( 3.072503578181957353E-13, 4.999999999999989342, 88.00000000000000000 ) ) ;
#103 = DIRECTION ( 'NONE',  ( -2.468850131082267710E-15, 0.7071067811865470176, -0.7071067811865481278 ) ) ;
#104 = ORIENTED_EDGE ( 'NONE', *, *, #186, .F. ) ;
#105 = DIRECTION ( 'NONE',  ( -3.081487911019583933E-31, -1.000000000000000000, -8.673617379884053961E-17 ) ) ;
#106 = FACE_OUTER_BOUND ( 'NONE', #43, .T. ) ;
#107 = EDGE_CURVE ( 'NONE', #207, #31, #205, .T. ) ;
#108 = DIRECTION ( 'NONE',  ( -4.275831445896958607E-31, -1.000000000000000000, -1.224646799147353207E-16 ) ) ;
#109 = CIRCLE ( 'NONE', #280, 4.000000000000000888 ) ;
#110 = AXIS2_PLACEMENT_3D ( 'NONE', #80, #39, #125 ) ;
#111 = DIRECTION ( 'NONE',  ( -3.491481338843133355E-15, 1.224646799147353207E-16, -1.000000000000000000 ) ) ;
#112 = APPROVAL_DATE_TIME ( #118, #98 ) ;
#113 = ORIENTED_EDGE ( 'NONE', *, *, #326, .F. ) ;
#114 = COORDINATED_UNIVERSAL_TIME_OFFSET ( 1, 0, .AHEAD. ) ;
#115 = PRODUCT_DEFINITION_SHAPE ( 'NONE', 'NONE',  #75 ) ;
#116 = CLOSED_SHELL ( 'NONE', ( #162, #226, #101, #8, #308 ) ) ;
#117 = AXIS2_PLACEMENT_3D ( 'NONE', #261, #34, #247 ) ;
#118 = DATE_AND_TIME ( #94, #77 ) ;
#119 = EDGE_CURVE ( 'NONE', #219, #132, #109, .T. ) ;
#120 = CC_DESIGN_PERSON_AND_ORGANIZATION_ASSIGNMENT ( #71, #68, ( #122 ) ) ;
#121 = CIRCLE ( 'NONE', #100, 4.999999999999992895 ) ;
#122 = SECURITY_CLASSIFICATION ( '', '', #194 ) ;
#123 = APPLICATION_CONTEXT ( 'configuration controlled 3d designs of mechanical parts and assemblies' ) ;
#124 = DIRECTION ( 'NONE',  ( -3.491481338843133355E-15, 1.224646799147353207E-16, -1.000000000000000000 ) ) ;
#125 = DIRECTION ( 'NONE',  ( 4.275831445896959482E-31, 1.000000000000000000, 1.224646799147353454E-16 ) ) ;
#126 = ORIENTED_EDGE ( 'NONE', *, *, #316, .T. ) ;
#127 = CARTESIAN_POINT ( 'NONE',  ( 3.107418391570388560E-13, -1.089935651241144239E-14, 89.00000000000000000 ) ) ;
#128 = ORIENTED_EDGE ( 'NONE', *, *, #202, .F. ) ;
#129 = DIRECTION ( 'NONE',  ( 0.0000000000000000000, 1.000000000000000000, 0.0000000000000000000 ) ) ;
#130 = EDGE_LOOP ( 'NONE', ( #327, #332, #159, #84 ) ) ;
#131 = CARTESIAN_POINT ( 'NONE',  ( 3.107418391570388560E-13, -1.089935651241144239E-14, 89.00000000000000000 ) ) ;
#132 = VERTEX_POINT ( 'NONE', #253 ) ;
#133 = CC_DESIGN_PERSON_AND_ORGANIZATION_ASSIGNMENT ( #142, #217, ( #46 ) ) ;
#134 = CYLINDRICAL_SURFACE ( 'NONE', #110, 4.999999999999996447 ) ;
#135 = AXIS2_PLACEMENT_3D ( 'NONE', #19, #218, #150 ) ;
#136 = ORGANIZATION ( 'UNSPECIFIED', 'UNSPECIFIED', '' ) ;
#137 = ADVANCED_FACE ( 'NONE', ( #29 ), #174, .T. ) ;
#138 = DIRECTION ( 'NONE',  ( 0.0000000000000000000, 1.000000000000000000, 0.0000000000000000000 ) ) ;
#139 = DATE_AND_TIME ( #47, #15 ) ;
#140 = DATE_AND_TIME ( #252, #65 ) ;
#141 = CIRCLE ( 'NONE', #35, 5.000000000000000000 ) ;
#142 = PERSON_AND_ORGANIZATION ( #182, #136 ) ;
#143 = DIRECTION ( 'NONE',  ( 0.0000000000000000000, 1.000000000000000000, 0.0000000000000000000 ) ) ;
#144 = APPLICATION_CONTEXT ( 'configuration controlled 3d designs of mechanical parts and assemblies' ) ;
#145 = DATE_AND_TIME ( #53, #57 ) ;
#146 = DIRECTION ( 'NONE',  ( 3.081487911019583933E-31, 1.000000000000000000, 8.673617379884053961E-17 ) ) ;
#147 = DATE_TIME_ROLE ( 'classification_date' ) ;
#148 = EDGE_LOOP ( 'NONE', ( #188, #88, #337 ) ) ;
#149 = EDGE_CURVE ( 'NONE', #207, #171, #141, .T. ) ;
#150 = DIRECTION ( 'NONE',  ( 0.0000000000000000000, 1.000000000000000000, 0.0000000000000000000 ) ) ;
#151 = CARTESIAN_POINT ( 'NONE',  ( 1.048946819290239357E-14, -3.679210169129027798E-16, 3.004303095137828450 ) ) ;
#152 = DIRECTION ( 'NONE',  ( 4.275831445896958607E-31, 1.000000000000000000, 1.224646799147353207E-16 ) ) ;
#153 = VECTOR ( 'NONE', #38, 1000.000000000000000 ) ;
#154 = PLANE ( 'NONE',  #224 ) ;
#155 = CARTESIAN_POINT ( 'NONE',  ( 1.082359215041371340E-13, 4.999999999999989342, 31.00000000000000000 ) ) ;
#156 = FACE_OUTER_BOUND ( 'NONE', #203, .T. ) ;
#157 = EDGE_CURVE ( 'NONE', #309, #81, #83, .T. ) ;
#158 = LINE ( 'NONE', #286, #274 ) ;
#159 = ORIENTED_EDGE ( 'NONE', *, *, #295, .F. ) ;
#160 = APPLICATION_PROTOCOL_DEFINITION ( 'international standard', 'config_control_design', 1994, #144 ) ;
#161 =( LENGTH_UNIT ( ) NAMED_UNIT ( * ) SI_UNIT ( .MILLI., .METRE. ) );
#162 = ADVANCED_FACE ( 'NONE', ( #255 ), #2, .T. ) ;
#163 = CONICAL_SURFACE ( 'NONE', #93, 4.999999999999989342, 1.029744258676649649 ) ;
#164 = UNCERTAINTY_MEASURE_WITH_UNIT (LENGTH_MEASURE( 1.000000000000000082E-05 ), #161, 'distance_accuracy_value', 'NONE');
#165 = CARTESIAN_POINT ( 'NONE',  ( 1.048946819290239357E-14, -3.679210169129027798E-16, 3.004303095137828450 ) ) ;
#166 = LINE ( 'NONE', #263, #22 ) ;
#167 = COORDINATED_UNIVERSAL_TIME_OFFSET ( 1, 0, .AHEAD. ) ;
#168 = EDGE_CURVE ( 'NONE', #262, #81, #166, .T. ) ;
#169 = AXIS2_PLACEMENT_3D ( 'NONE', #58, #90, #67 ) ;
#170 = LOCAL_TIME ( 9, 54, 40.00000000000000000, #250 ) ;
#171 = VERTEX_POINT ( 'NONE', #102 ) ;
#172 = DIRECTION ( 'NONE',  ( 3.491481338843133355E-15, -1.224646799147353207E-16, 1.000000000000000000 ) ) ;
#173 = CARTESIAN_POINT ( 'NONE',  ( 2.137915722948478077E-30, 4.999999999999996447, 6.123233995736762338E-16 ) ) ;
#174 = CONICAL_SURFACE ( 'NONE', #76, 4.000000000000000888, 0.7853981633974473908 ) ;
#175 = AXIS2_PLACEMENT_3D ( 'NONE', #86, #241, #108 ) ;
#176 = ORIENTED_EDGE ( 'NONE', *, *, #119, .F. ) ;
#177 = DIRECTION ( 'NONE',  ( 0.0000000000000000000, 1.000000000000000000, 0.0000000000000000000 ) ) ;
#178 = CARTESIAN_POINT ( 'NONE',  ( 1.082359215041371340E-13, -3.796405077356795115E-15, 31.00000000000000000 ) ) ;
#179 = DIRECTION ( 'NONE',  ( -3.491481338843133355E-15, 1.224646799147353207E-16, -1.000000000000000000 ) ) ;
#180 = CARTESIAN_POINT ( 'NONE',  ( 1.048946819290239199E-14, -4.999999999999989342, 3.004303095137828006 ) ) ;
#181 = LINE ( 'NONE', #291, #55 ) ;
#182 = PERSON ( 'UNSPECIFIED', 'UNSPECIFIED', 'UNSPECIFIED', ('UNSPECIFIED'), ('UNSPECIFIED'), ('UNSPECIFIED') ) ;
#183 = ADVANCED_FACE ( 'NONE', ( #246 ), #282, .T. ) ;
#184 = CALENDAR_DATE ( 2021, 3, 9 ) ;
#185 = PERSON_AND_ORGANIZATION ( #182, #136 ) ;
#186 = EDGE_CURVE ( 'NONE', #81, #309, #249, .T. ) ;
#187 = APPROVAL_ROLE ( '' ) ;
#188 = ORIENTED_EDGE ( 'NONE', *, *, #316, .F. ) ;
#189 = MANIFOLD_SOLID_BREP ( 'Corps-Déplacer/Copier1[1]', #320 ) ;
#190 = EDGE_CURVE ( 'NONE', #132, #219, #54, .T. ) ;
#191 = PERSON_AND_ORGANIZATION_ROLE ( 'creator' ) ;
#192 =( GEOMETRIC_REPRESENTATION_CONTEXT ( 3 ) GLOBAL_UNCERTAINTY_ASSIGNED_CONTEXT ( ( #164 ) ) GLOBAL_UNIT_ASSIGNED_CONTEXT ( ( #161, #66, #212 ) ) REPRESENTATION_CONTEXT ( 'NONE', 'WORKASPACE' ) );
#193 = DIRECTION ( 'NONE',  ( 0.0000000000000000000, 1.000000000000000000, 0.0000000000000000000 ) ) ;
#194 = SECURITY_CLASSIFICATION_LEVEL ( 'unclassified' ) ;
#195 = APPROVAL ( #334, 'UNSPECIFIED' ) ;
#196 = AXIS2_PLACEMENT_3D ( 'NONE', #216, #74, #283 ) ;
#197 = VECTOR ( 'NONE', #103, 1000.000000000000000 ) ;
#198 = ORIENTED_EDGE ( 'NONE', *, *, #119, .T. ) ;
#199 = ADVANCED_FACE ( 'NONE', ( #204 ), #154, .F. ) ;
#200 = AXIS2_PLACEMENT_3D ( 'NONE', #325, #254, #92 ) ;
#201 = FACE_OUTER_BOUND ( 'NONE', #130, .T. ) ;
#202 = EDGE_CURVE ( 'NONE', #233, #81, #63, .T. ) ;
#203 = EDGE_LOOP ( 'NONE', ( #33, #301, #36, #236 ) ) ;
#204 = FACE_OUTER_BOUND ( 'NONE', #28, .T. ) ;
#205 = LINE ( 'NONE', #315, #153 ) ;
#206 = ORIENTED_EDGE ( 'NONE', *, *, #190, .F. ) ;
#207 = VERTEX_POINT ( 'NONE', #20 ) ;
#208 = ORIENTED_EDGE ( 'NONE', *, *, #260, .T. ) ;
#209 = AXIS2_PLACEMENT_3D ( 'NONE', #40, #179, #269 ) ;
#210 = LINE ( 'NONE', #180, #243 ) ;
#211 = CARTESIAN_POINT ( 'NONE',  ( 0.0000000000000000000, 0.0000000000000000000, 0.0000000000000000000 ) ) ;
#212 =( NAMED_UNIT ( * ) SI_UNIT ( $, .STERADIAN. ) SOLID_ANGLE_UNIT ( ) );
#213 = AXIS2_PLACEMENT_3D ( 'NONE', #296, #288, #266 ) ;
#214 = APPROVAL_DATE_TIME ( #140, #195 ) ;
#215 = CIRCLE ( 'NONE', #27, 4.999999999999992895 ) ;
#216 = CARTESIAN_POINT ( 'NONE',  ( 0.0000000000000000000, 0.0000000000000000000, 0.0000000000000000000 ) ) ;
#217 = PERSON_AND_ORGANIZATION_ROLE ( 'design_owner' ) ;
#218 = DIRECTION ( 'NONE',  ( -3.491481338843133355E-15, 1.224646799147353207E-16, -1.000000000000000000 ) ) ;
#219 = VERTEX_POINT ( 'NONE', #317 ) ;
#220 = MECHANICAL_CONTEXT ( 'NONE', #123, 'mechanical' ) ;
#221 = ORIENTED_EDGE ( 'NONE', *, *, #190, .T. ) ;
#222 = PERSON_AND_ORGANIZATION ( #182, #136 ) ;
#223 = VECTOR ( 'NONE', #294, 999.9999999999998863 ) ;
#224 = AXIS2_PLACEMENT_3D ( 'NONE', #242, #311, #152 ) ;
#225 = CIRCLE ( 'NONE', #209, 5.000000000000000000 ) ;
#226 = ADVANCED_FACE ( 'NONE', ( #265 ), #26, .T. ) ;
#227 = ORIENTED_EDGE ( 'NONE', *, *, #281, .F. ) ;
#228 = DIRECTION ( 'NONE',  ( -3.491481338843133355E-15, 1.224646799147353207E-16, -1.000000000000000000 ) ) ;
#229 = ORIENTED_EDGE ( 'NONE', *, *, #157, .T. ) ;
#230 = CIRCLE ( 'NONE', #273, 4.999999999999992895 ) ;
#231 = EDGE_CURVE ( 'NONE', #31, #319, #4, .T. ) ;
#232 = CC_DESIGN_APPROVAL ( #272, ( #321 ) ) ;
#233 = VERTEX_POINT ( 'NONE', #211 ) ;
#234 = CARTESIAN_POINT ( 'NONE',  ( 5.997501824809341113E-14, -4.999999999999996447, 31.00000000000000000 ) ) ;
#235 = EDGE_LOOP ( 'NONE', ( #10, #245 ) ) ;
#236 = ORIENTED_EDGE ( 'NONE', *, *, #231, .F. ) ;
#237 = EDGE_CURVE ( 'NONE', #56, #262, #230, .T. ) ;
#238 = AXIS2_PLACEMENT_3D ( 'NONE', #13, #264, #267 ) ;
#239 = ORIENTED_EDGE ( 'NONE', *, *, #157, .F. ) ;
#240 = LINE ( 'NONE', #11, #197 ) ;
#241 = DIRECTION ( 'NONE',  ( 3.491481338843133355E-15, -1.224646799147353207E-16, 1.000000000000000000 ) ) ;
#242 = CARTESIAN_POINT ( 'NONE',  ( 3.107418391570388560E-13, 2.999519565323699342E-32, 89.00000000000000000 ) ) ;
#243 = VECTOR ( 'NONE', #290, 1000.000000000000000 ) ;
#244 = DIRECTION ( 'NONE',  ( -3.491481338843133355E-15, 1.224646799147353207E-16, -1.000000000000000000 ) ) ;
#245 = ORIENTED_EDGE ( 'NONE', *, *, #231, .T. ) ;
#246 = FACE_OUTER_BOUND ( 'NONE', #87, .T. ) ;
#247 = DIRECTION ( 'NONE',  ( -4.275831445896958607E-31, -1.000000000000000000, -1.224646799147353207E-16 ) ) ;
#248 = CYLINDRICAL_SURFACE ( 'NONE', #196, 4.999999999999996447 ) ;
#249 = CIRCLE ( 'NONE', #333, 4.999999999999989342 ) ;
#250 = COORDINATED_UNIVERSAL_TIME_OFFSET ( 1, 0, .AHEAD. ) ;
#251 = DIRECTION ( 'NONE',  ( -3.491481338843133355E-15, 1.224646799147353207E-16, -1.000000000000000000 ) ) ;
#252 = CALENDAR_DATE ( 2021, 3, 9 ) ;
#253 = CARTESIAN_POINT ( 'NONE',  ( 3.095471895472336164E-13, -4.000000000000012434, 89.00000000000000000 ) ) ;
#254 = DIRECTION ( 'NONE',  ( 0.0000000000000000000, 0.0000000000000000000, 1.000000000000000000 ) ) ;
#255 = FACE_OUTER_BOUND ( 'NONE', #336, .T. ) ;
#256 = APPROVAL_STATUS ( 'not_yet_approved' ) ;
#257 = APPROVAL_PERSON_ORGANIZATION ( #222, #98, #187 ) ;
#258 = DIRECTION ( 'NONE',  ( -3.491481338843133355E-15, 1.224646799147353207E-16, -1.000000000000000000 ) ) ;
#259 = LINE ( 'NONE', #173, #99 ) ;
#260 = EDGE_CURVE ( 'NONE', #262, #56, #121, .T. ) ;
#261 = CARTESIAN_POINT ( 'NONE',  ( 1.082359215041371340E-13, 3.749399456654634167E-32, 31.00000000000000000 ) ) ;
#262 = VERTEX_POINT ( 'NONE', #155 ) ;
#263 = CARTESIAN_POINT ( 'NONE',  ( 2.137915722948475625E-30, 4.999999999999991118, 6.123233995736755436E-16 ) ) ;
#264 = DIRECTION ( 'NONE',  ( 3.491481338843133355E-15, -1.224646799147353207E-16, 1.000000000000000000 ) ) ;
#265 = FACE_OUTER_BOUND ( 'NONE', #148, .T. ) ;
#266 = DIRECTION ( 'NONE',  ( 4.275831445896958607E-31, 1.000000000000000000, 1.224646799147353207E-16 ) ) ;
#267 = DIRECTION ( 'NONE',  ( -3.081487911019583933E-31, -1.000000000000000000, -8.673617379884053961E-17 ) ) ;
#268 = APPROVAL_PERSON_ORGANIZATION ( #330, #272, #297 ) ;
#269 = DIRECTION ( 'NONE',  ( 0.0000000000000000000, 1.000000000000000000, 0.0000000000000000000 ) ) ;
#270 = CC_DESIGN_DATE_AND_TIME_ASSIGNMENT ( #145, #147, ( #122 ) ) ;
#271 = PERSON_AND_ORGANIZATION_ROLE ( 'creator' ) ;
#272 = APPROVAL ( #278, 'UNSPECIFIED' ) ;
#273 = AXIS2_PLACEMENT_3D ( 'NONE', #62, #82, #64 ) ;
#274 = VECTOR ( 'NONE', #37, 1000.000000000000000 ) ;
#275 = APPROVAL_ROLE ( '' ) ;
#276 = EDGE_CURVE ( 'NONE', #132, #207, #158, .T. ) ;
#277 = DIRECTION ( 'NONE',  ( -3.491481338843133355E-15, 1.224646799147353207E-16, -1.000000000000000000 ) ) ;
#278 = APPROVAL_STATUS ( 'not_yet_approved' ) ;
#279 = EDGE_LOOP ( 'NONE', ( #113, #78, #307, #239 ) ) ;
#280 = AXIS2_PLACEMENT_3D ( 'NONE', #131, #258, #143 ) ;
#281 = EDGE_CURVE ( 'NONE', #171, #207, #225, .T. ) ;
#282 = CONICAL_SURFACE ( 'NONE', #135, 4.000000000000000888, 0.7853981633974473908 ) ;
#283 = DIRECTION ( 'NONE',  ( 4.275831445896959482E-31, 1.000000000000000000, 1.224646799147353454E-16 ) ) ;
#284 = CYLINDRICAL_SURFACE ( 'NONE', #169, 4.999999999999991118 ) ;
#285 = CARTESIAN_POINT ( 'NONE',  ( 1.082359215041371340E-13, 4.999999999999989342, 31.00000000000000000 ) ) ;
#286 = CARTESIAN_POINT ( 'NONE',  ( 3.112316978766977966E-13, -4.000000000000012434, 89.00000000000000000 ) ) ;
#287 = AXIS2_PLACEMENT_3D ( 'NONE', #127, #111, #129 ) ;
#288 = DIRECTION ( 'NONE',  ( -3.491481338843133355E-15, 1.224646799147353207E-16, -1.000000000000000000 ) ) ;
#289 = ADVANCED_FACE ( 'NONE', ( #201 ), #134, .T. ) ;
#290 = DIRECTION ( 'NONE',  ( 1.798245827342160317E-15, -0.8571673007021098911, 0.5150380749100582634 ) ) ;
#291 = CARTESIAN_POINT ( 'NONE',  ( 6.123233995736733742E-16, -4.999999999999991118, -6.123233995736776143E-16 ) ) ;
#292 = FACE_OUTER_BOUND ( 'NONE', #279, .T. ) ;
#293 = EDGE_LOOP ( 'NONE', ( #198, #3, #227, #52 ) ) ;
#294 = DIRECTION ( 'NONE',  ( 1.903218546456022717E-15, 0.8571673007021097801, 0.5150380749100585964 ) ) ;
#295 = EDGE_CURVE ( 'NONE', #319, #31, #215, .T. ) ;
#296 = CARTESIAN_POINT ( 'NONE',  ( 0.0000000000000000000, 0.0000000000000000000, 0.0000000000000000000 ) ) ;
#297 = APPROVAL_ROLE ( '' ) ;
#298 = PERSON_AND_ORGANIZATION ( #182, #136 ) ;
#299 = COORDINATED_UNIVERSAL_TIME_OFFSET ( 1, 0, .AHEAD. ) ;
#300 = DIRECTION ( 'NONE',  ( -3.491481338843133355E-15, 1.224646799147353207E-16, -1.000000000000000000 ) ) ;
#301 = ORIENTED_EDGE ( 'NONE', *, *, #149, .T. ) ;
#302 = PERSON_AND_ORGANIZATION_ROLE ( 'design_supplier' ) ;
#303 = APPROVAL_PERSON_ORGANIZATION ( #50, #195, #275 ) ;
#304 = DESIGN_CONTEXT ( 'detailed design', #144, 'design' ) ;
#305 = APPLICATION_PROTOCOL_DEFINITION ( 'international standard', 'config_control_design', 1994, #123 ) ;
#306 = CARTESIAN_POINT ( 'NONE',  ( 3.072503578181957353E-13, -1.077689183249670724E-14, 88.00000000000000000 ) ) ;
#307 = ORIENTED_EDGE ( 'NONE', *, *, #168, .T. ) ;
#308 = ADVANCED_FACE ( 'NONE', ( #106 ), #323, .T. ) ;
#309 = VERTEX_POINT ( 'NONE', #44 ) ;
#310 = CARTESIAN_POINT ( 'NONE',  ( 2.083554630607400662E-13, -4.999999999999996447, 31.00000000000000000 ) ) ;
#311 = DIRECTION ( 'NONE',  ( -3.491481338843133355E-15, 1.224646799147353207E-16, -1.000000000000000000 ) ) ;
#312 = CC_DESIGN_PERSON_AND_ORGANIZATION_ASSIGNMENT ( #23, #302, ( #321 ) ) ;
#313 = MANIFOLD_SOLID_BREP ( 'Corps-Déplacer/Copier1[2]', #116 ) ;
#314 = CARTESIAN_POINT ( 'NONE',  ( 1.110179159247607089E-14, 4.999999999999989342, 3.004303095137828894 ) ) ;
#315 = CARTESIAN_POINT ( 'NONE',  ( 6.123233995736740644E-16, -4.999999999999996447, -6.123233995736783046E-16 ) ) ;
#316 = EDGE_CURVE ( 'NONE', #233, #309, #210, .T. ) ;
#317 = CARTESIAN_POINT ( 'NONE',  ( 3.107418391570388560E-13, 3.999999999999989786, 89.00000000000000000 ) ) ;
#318 = ORIENTED_EDGE ( 'NONE', *, *, #237, .F. ) ;
#319 = VERTEX_POINT ( 'NONE', #285 ) ;
#320 = CLOSED_SHELL ( 'NONE', ( #137, #289, #322, #16, #183, #199 ) ) ;
#321 = PRODUCT_DEFINITION_FORMATION_WITH_SPECIFIED_SOURCE ( 'ANY', '', #46, .NOT_KNOWN. ) ;
#322 = ADVANCED_FACE ( 'NONE', ( #59 ), #12, .F. ) ;
#323 = PLANE ( 'NONE',  #175 ) ;
#324 = CARTESIAN_POINT ( 'NONE',  ( 1.082359215041371340E-13, -3.796405077356795115E-15, 31.00000000000000000 ) ) ;
#325 = CARTESIAN_POINT ( 'NONE',  ( 0.0000000000000000000, 0.0000000000000000000, 0.0000000000000000000 ) ) ;
#326 = EDGE_CURVE ( 'NONE', #56, #309, #181, .T. ) ;
#327 = ORIENTED_EDGE ( 'NONE', *, *, #281, .T. ) ;
#328 = APPROVAL_DATE_TIME ( #139, #272 ) ;
#329 = EDGE_CURVE ( 'NONE', #219, #171, #240, .T. ) ;
#330 = PERSON_AND_ORGANIZATION ( #182, #136 ) ;
#331 = DIRECTION ( 'NONE',  ( 0.0000000000000000000, 1.000000000000000000, 0.0000000000000000000 ) ) ;
#332 = ORIENTED_EDGE ( 'NONE', *, *, #107, .T. ) ;
#333 = AXIS2_PLACEMENT_3D ( 'NONE', #5, #251, #7 ) ;
#334 = APPROVAL_STATUS ( 'not_yet_approved' ) ;
#335 = ADVANCED_BREP_SHAPE_REPRESENTATION ( '54646', ( #189, #313, #200 ), #192 ) ;
#336 = EDGE_LOOP ( 'NONE', ( #208, #9, #104, #6 ) ) ;
#337 = ORIENTED_EDGE ( 'NONE', *, *, #186, .T. ) ;
ENDSEC;
END-ISO-10303-21;
