ISO-10303-21;
HEADER;
FILE_DESCRIPTION (( 'STEP AP203' ),
    '1' );
FILE_NAME ('54645.step',
    '2021-09-03T07:54:35',
    ( '' ),
    ( '' ),
    'SwSTEP 2.0',
    'SolidWorks 2019',
    '' );
FILE_SCHEMA (( 'CONFIG_CONTROL_DESIGN' ));
ENDSEC;

DATA;
#1 = CIRCLE ( 'NONE', #274, 4.749999999999992895 ) ;
#2 = APPROVAL_PERSON_ORGANIZATION ( #283, #271, #69 ) ;
#3 = ORIENTED_EDGE ( 'NONE', *, *, #197, .T. ) ;
#4 = DIRECTION ( 'NONE',  ( -4.275831445896959482E-31, -1.000000000000000000, -1.224646799147353454E-16 ) ) ;
#5 = PERSON_AND_ORGANIZATION ( #111, #266 ) ;
#6 = CC_DESIGN_DATE_AND_TIME_ASSIGNMENT ( #32, #72, ( #119 ) ) ;
#7 = CARTESIAN_POINT ( 'NONE',  ( 0.0000000000000000000, 0.0000000000000000000, 0.0000000000000000000 ) ) ;
#8 = APPROVAL_ROLE ( '' ) ;
#9 = CC_DESIGN_SECURITY_CLASSIFICATION ( #213, ( #21 ) ) ;
#10 = LINE ( 'NONE', #96, #309 ) ;
#11 = APPROVAL_DATE_TIME ( #249, #329 ) ;
#12 = ADVANCED_FACE ( 'NONE', ( #236 ), #134, .T. ) ;
#13 = VERTEX_POINT ( 'NONE', #117 ) ;
#14 = PLANE ( 'NONE',  #184 ) ;
#15 = AXIS2_PLACEMENT_3D ( 'NONE', #143, #44, #219 ) ;
#16 = APPLICATION_CONTEXT ( 'configuration controlled 3d designs of mechanical parts and assemblies' ) ;
#17 = ORIENTED_EDGE ( 'NONE', *, *, #233, .T. ) ;
#18 = DIRECTION ( 'NONE',  ( -3.491481338843133355E-15, 1.224646799147353454E-16, -1.000000000000000000 ) ) ;
#19 = CARTESIAN_POINT ( 'NONE',  ( 1.012529588264508673E-13, -3.551475717527324818E-15, 29.00000000000000000 ) ) ;
#20 = ORIENTED_EDGE ( 'NONE', *, *, #77, .T. ) ;
#21 = PRODUCT_DEFINITION_FORMATION_WITH_SPECIFIED_SOURCE ( 'ANY', '', #35, .NOT_KNOWN. ) ;
#22 = DIRECTION ( 'NONE',  ( 3.491481338843133355E-15, -1.224646799147353454E-16, 1.000000000000000000 ) ) ;
#23 = VERTEX_POINT ( 'NONE', #337 ) ;
#24 = CARTESIAN_POINT ( 'NONE',  ( 1.012529588264508673E-13, -3.551475717527324818E-15, 29.00000000000000000 ) ) ;
#25 = DIRECTION ( 'NONE',  ( 0.0000000000000000000, 1.000000000000000000, 0.0000000000000000000 ) ) ;
#26 = FACE_OUTER_BOUND ( 'NONE', #87, .T. ) ;
#27 = CYLINDRICAL_SURFACE ( 'NONE', #226, 4.749999999999991118 ) ;
#28 = SHAPE_DEFINITION_REPRESENTATION ( #64, #49 ) ;
#29 = EDGE_LOOP ( 'NONE', ( #243, #299, #223, #314 ) ) ;
#30 = CONICAL_SURFACE ( 'NONE', #191, 3.949999999999998845, 0.7853981633974520538 ) ;
#31 = ORIENTED_EDGE ( 'NONE', *, *, #66, .F. ) ;
#32 = DATE_AND_TIME ( #259, #164 ) ;
#33 = DATE_AND_TIME ( #73, #181 ) ;
#34 = CYLINDRICAL_SURFACE ( 'NONE', #180, 4.749999999999996447 ) ;
#35 = PRODUCT ( '54645', '54645', '', ( #98 ) ) ;
#36 = PERSON_AND_ORGANIZATION_ROLE ( 'creator' ) ;
#37 = LINE ( 'NONE', #310, #138 ) ;
#38 = DIRECTION ( 'NONE',  ( 0.0000000000000000000, 1.000000000000000000, 0.0000000000000000000 ) ) ;
#39 = ORIENTED_EDGE ( 'NONE', *, *, #167, .T. ) ;
#40 = ADVANCED_FACE ( 'NONE', ( #229 ), #34, .T. ) ;
#41 = CARTESIAN_POINT ( 'NONE',  ( 1.012529588264508673E-13, 4.749999999999989342, 29.00000000000000000 ) ) ;
#42 = CIRCLE ( 'NONE', #200, 4.750000000000000000 ) ;
#43 = CC_DESIGN_PERSON_AND_ORGANIZATION_ASSIGNMENT ( #263, #36, ( #21 ) ) ;
#44 = DIRECTION ( 'NONE',  ( -3.491481338843133355E-15, 1.224646799147353454E-16, -1.000000000000000000 ) ) ;
#45 = VERTEX_POINT ( 'NONE', #211 ) ;
#46 = CARTESIAN_POINT ( 'NONE',  ( 9.964994783257270737E-15, -4.749999999999989342, 2.854087940380935606 ) ) ;
#47 = CC_DESIGN_DATE_AND_TIME_ASSIGNMENT ( #33, #307, ( #213 ) ) ;
#48 = DIRECTION ( 'NONE',  ( -4.275831445896959482E-31, -1.000000000000000000, -1.224646799147353454E-16 ) ) ;
#49 = ADVANCED_BREP_SHAPE_REPRESENTATION ( '54645', ( #188, #186, #92 ), #282 ) ;
#50 = DIRECTION ( 'NONE',  ( -3.491481338843133355E-15, 1.224646799147353454E-16, -1.000000000000000000 ) ) ;
#51 = ORIENTED_EDGE ( 'NONE', *, *, #284, .F. ) ;
#52 = CARTESIAN_POINT ( 'NONE',  ( 9.964994783257272315E-15, -3.495249660672576112E-16, 2.854087940380936050 ) ) ;
#53 = COORDINATED_UNIVERSAL_TIME_OFFSET ( 1, 0, .AHEAD. ) ;
#54 = DIRECTION ( 'NONE',  ( 4.275831445896959482E-31, 1.000000000000000000, 1.224646799147353454E-16 ) ) ;
#55 = APPROVAL_DATE_TIME ( #121, #271 ) ;
#56 = SECURITY_CLASSIFICATION_LEVEL ( 'unclassified' ) ;
#57 = ORIENTED_EDGE ( 'NONE', *, *, #202, .T. ) ;
#58 = ORIENTED_EDGE ( 'NONE', *, *, #108, .F. ) ;
#59 = CIRCLE ( 'NONE', #239, 4.749999999999992895 ) ;
#60 = APPROVAL_ROLE ( '' ) ;
#61 = PERSON_AND_ORGANIZATION_ROLE ( 'design_supplier' ) ;
#62 = DIRECTION ( 'NONE',  ( -3.491481338843133355E-15, 1.224646799147353454E-16, -1.000000000000000000 ) ) ;
#63 = VECTOR ( 'NONE', #94, 1000.000000000000000 ) ;
#64 = PRODUCT_DEFINITION_SHAPE ( 'NONE', 'NONE',  #119 ) ;
#65 = DIRECTION ( 'NONE',  ( -3.491481338843133355E-15, 1.224646799147353454E-16, -1.000000000000000000 ) ) ;
#66 = EDGE_CURVE ( 'NONE', #45, #230, #10, .T. ) ;
#67 = CARTESIAN_POINT ( 'NONE',  ( 9.964994783257272315E-15, -3.495249660672576112E-16, 2.854087940380936050 ) ) ;
#68 = DIRECTION ( 'NONE',  ( 1.903218546456022717E-15, 0.8571673007021097801, 0.5150380749100585964 ) ) ;
#69 = APPROVAL_ROLE ( '' ) ;
#70 = CIRCLE ( 'NONE', #297, 4.749999999999989342 ) ;
#71 = AXIS2_PLACEMENT_3D ( 'NONE', #291, #65, #106 ) ;
#72 = DATE_TIME_ROLE ( 'creation_date' ) ;
#73 = CALENDAR_DATE ( 2021, 3, 9 ) ;
#74 =( NAMED_UNIT ( * ) SI_UNIT ( $, .STERADIAN. ) SOLID_ANGLE_UNIT ( ) );
#75 = AXIS2_PLACEMENT_3D ( 'NONE', #52, #240, #140 ) ;
#76 = CC_DESIGN_APPROVAL ( #261, ( #213 ) ) ;
#77 = EDGE_CURVE ( 'NONE', #13, #168, #70, .T. ) ;
#78 = DIRECTION ( 'NONE',  ( -3.491481338843133355E-15, 1.224646799147353454E-16, -1.000000000000000000 ) ) ;
#79 = CIRCLE ( 'NONE', #206, 3.949999999999998845 ) ;
#80 = ORIENTED_EDGE ( 'NONE', *, *, #153, .T. ) ;
#81 = CARTESIAN_POINT ( 'NONE',  ( 0.0000000000000000000, 0.0000000000000000000, 0.0000000000000000000 ) ) ;
#82 = CONICAL_SURFACE ( 'NONE', #323, 3.949999999999998845, 0.7853981633974520538 ) ;
#83 = CARTESIAN_POINT ( 'NONE',  ( 0.0000000000000000000, 0.0000000000000000000, 0.0000000000000000000 ) ) ;
#84 = DIRECTION ( 'NONE',  ( 4.275831445896959482E-31, 1.000000000000000000, 1.224646799147353454E-16 ) ) ;
#85 = LINE ( 'NONE', #46, #270 ) ;
#86 = DIRECTION ( 'NONE',  ( -3.243671485283772884E-31, -1.000000000000000000, -9.130123557772689288E-17 ) ) ;
#87 = EDGE_LOOP ( 'NONE', ( #136, #57, #157, #145 ) ) ;
#88 = DIRECTION ( 'NONE',  ( 0.0000000000000000000, 1.000000000000000000, 0.0000000000000000000 ) ) ;
#89 = CARTESIAN_POINT ( 'NONE',  ( 2.937681679484863943E-13, -3.950000000000009059, 84.00000000000000000 ) ) ;
#90 = VERTEX_POINT ( 'NONE', #114 ) ;
#91 = DIRECTION ( 'NONE',  ( -3.491481338843133355E-15, 1.224646799147353454E-16, -1.000000000000000000 ) ) ;
#92 = AXIS2_PLACEMENT_3D ( 'NONE', #257, #146, #252 ) ;
#93 = ORIENTED_EDGE ( 'NONE', *, *, #277, .T. ) ;
#94 = DIRECTION ( 'NONE',  ( -3.491481338843133355E-15, 1.224646799147353454E-16, -1.000000000000000000 ) ) ;
#95 = EDGE_LOOP ( 'NONE', ( #51, #58 ) ) ;
#96 = CARTESIAN_POINT ( 'NONE',  ( 5.817072295949903760E-16, -4.749999999999996447, -5.817072295949945175E-16 ) ) ;
#97 = ORIENTED_EDGE ( 'NONE', *, *, #153, .F. ) ;
#98 = MECHANICAL_CONTEXT ( 'NONE', #16, 'mechanical' ) ;
#99 = DIRECTION ( 'NONE',  ( -3.491481338843133355E-15, 1.224646799147353454E-16, -1.000000000000000000 ) ) ;
#100 = COORDINATED_UNIVERSAL_TIME_OFFSET ( 1, 0, .AHEAD. ) ;
#101 = CIRCLE ( 'NONE', #124, 4.749999999999992895 ) ;
#102 = VECTOR ( 'NONE', #68, 999.9999999999998863 ) ;
#103 = ADVANCED_FACE ( 'NONE', ( #115 ), #244, .T. ) ;
#104 = CLOSED_SHELL ( 'NONE', ( #267, #160, #319, #103, #12 ) ) ;
#105 = FACE_OUTER_BOUND ( 'NONE', #29, .T. ) ;
#106 = DIRECTION ( 'NONE',  ( 3.243671485283772884E-31, 1.000000000000000000, 9.130123557772689288E-17 ) ) ;
#107 = ORIENTED_EDGE ( 'NONE', *, *, #194, .F. ) ;
#108 = EDGE_CURVE ( 'NONE', #142, #90, #212, .T. ) ;
#109 = CIRCLE ( 'NONE', #71, 4.749999999999989342 ) ;
#110 = DIRECTION ( 'NONE',  ( 0.0000000000000000000, 1.000000000000000000, 0.0000000000000000000 ) ) ;
#111 = PERSON ( 'UNSPECIFIED', 'UNSPECIFIED', 'UNSPECIFIED', ('UNSPECIFIED'), ('UNSPECIFIED'), ('UNSPECIFIED') ) ;
#112 = DIRECTION ( 'NONE',  ( 0.0000000000000000000, 1.000000000000000000, 0.0000000000000000000 ) ) ;
#113 = DIRECTION ( 'NONE',  ( -3.491481338843133355E-15, 1.224646799147353454E-16, -1.000000000000000000 ) ) ;
#114 = CARTESIAN_POINT ( 'NONE',  ( 1.012529588264508673E-13, 4.749999999999989342, 29.00000000000000000 ) ) ;
#115 = FACE_OUTER_BOUND ( 'NONE', #172, .T. ) ;
#116 = AXIS2_PLACEMENT_3D ( 'NONE', #130, #221, #302 ) ;
#117 = CARTESIAN_POINT ( 'NONE',  ( 9.964994783257270737E-15, -4.749999999999989342, 2.854087940380935606 ) ) ;
#118 = ORIENTED_EDGE ( 'NONE', *, *, #294, .F. ) ;
#119 = PRODUCT_DEFINITION ( 'UNKNOWN', '', #21, #203 ) ;
#120 = CC_DESIGN_APPROVAL ( #329, ( #119 ) ) ;
#121 = DATE_AND_TIME ( #260, #201 ) ;
#122 = CC_DESIGN_PERSON_AND_ORGANIZATION_ASSIGNMENT ( #148, #224, ( #213 ) ) ;
#123 = PERSON_AND_ORGANIZATION_ROLE ( 'creator' ) ;
#124 = AXIS2_PLACEMENT_3D ( 'NONE', #222, #183, #208 ) ;
#125 = ORIENTED_EDGE ( 'NONE', *, *, #167, .F. ) ;
#126 = CIRCLE ( 'NONE', #316, 3.949999999999998845 ) ;
#127 = CC_DESIGN_APPROVAL ( #271, ( #21 ) ) ;
#128 = FACE_OUTER_BOUND ( 'NONE', #268, .T. ) ;
#129 = CALENDAR_DATE ( 2021, 3, 9 ) ;
#130 = CARTESIAN_POINT ( 'NONE',  ( 2.904912473917487456E-13, -1.018906136890598294E-14, 83.20000000000001705 ) ) ;
#131 = PLANE ( 'NONE',  #242 ) ;
#132 = CARTESIAN_POINT ( 'NONE',  ( 1.054670201285226585E-14, 4.749999999999989342, 2.854087940380936494 ) ) ;
#133 =( LENGTH_UNIT ( ) NAMED_UNIT ( * ) SI_UNIT ( .MILLI., .METRE. ) );
#134 = PLANE ( 'NONE',  #150 ) ;
#135 = ADVANCED_FACE ( 'NONE', ( #26 ), #30, .T. ) ;
#136 = ORIENTED_EDGE ( 'NONE', *, *, #207, .T. ) ;
#137 = EDGE_CURVE ( 'NONE', #300, #13, #85, .T. ) ;
#138 = VECTOR ( 'NONE', #313, 1000.000000000000000 ) ;
#139 = APPROVAL_PERSON_ORGANIZATION ( #315, #329, #8 ) ;
#140 = DIRECTION ( 'NONE',  ( -3.243671485283772884E-31, -1.000000000000000000, -9.130123557772689288E-17 ) ) ;
#141 = CARTESIAN_POINT ( 'NONE',  ( 2.932844324628232018E-13, -1.028703311283776980E-14, 84.00000000000000000 ) ) ;
#142 = VERTEX_POINT ( 'NONE', #248 ) ;
#143 = CARTESIAN_POINT ( 'NONE',  ( 0.0000000000000000000, 0.0000000000000000000, 0.0000000000000000000 ) ) ;
#144 = DIRECTION ( 'NONE',  ( -3.491481338843133355E-15, 1.224646799147353454E-16, -1.000000000000000000 ) ) ;
#145 = ORIENTED_EDGE ( 'NONE', *, *, #289, .F. ) ;
#146 = DIRECTION ( 'NONE',  ( 0.0000000000000000000, 0.0000000000000000000, 1.000000000000000000 ) ) ;
#147 = PERSON_AND_ORGANIZATION_ROLE ( 'design_owner' ) ;
#148 = PERSON_AND_ORGANIZATION ( #111, #266 ) ;
#149 = ORIENTED_EDGE ( 'NONE', *, *, #333, .F. ) ;
#150 = AXIS2_PLACEMENT_3D ( 'NONE', #241, #22, #48 ) ;
#151 = DATE_AND_TIME ( #174, #192 ) ;
#152 = FACE_OUTER_BOUND ( 'NONE', #327, .T. ) ;
#153 = EDGE_CURVE ( 'NONE', #245, #230, #59, .T. ) ;
#154 = COORDINATED_UNIVERSAL_TIME_OFFSET ( 1, 0, .AHEAD. ) ;
#155 = FACE_OUTER_BOUND ( 'NONE', #286, .T. ) ;
#156 = APPROVAL_STATUS ( 'not_yet_approved' ) ;
#157 = ORIENTED_EDGE ( 'NONE', *, *, #197, .F. ) ;
#158 = VECTOR ( 'NONE', #279, 1000.000000000000000 ) ;
#159 = DIRECTION ( 'NONE',  ( 3.491481338843133355E-15, -1.224646799147353454E-16, 1.000000000000000000 ) ) ;
#160 = ADVANCED_FACE ( 'NONE', ( #332 ), #169, .T. ) ;
#161 = LINE ( 'NONE', #89, #185 ) ;
#162 = LINE ( 'NONE', #196, #158 ) ;
#163 = AXIS2_PLACEMENT_3D ( 'NONE', #218, #159, #86 ) ;
#164 = LOCAL_TIME ( 9, 54, 35.00000000000000000, #176 ) ;
#165 = ORIENTED_EDGE ( 'NONE', *, *, #312, .F. ) ;
#166 = CARTESIAN_POINT ( 'NONE',  ( 1.012529588264508673E-13, -3.551475717527324818E-15, 29.00000000000000000 ) ) ;
#167 = EDGE_CURVE ( 'NONE', #230, #245, #1, .T. ) ;
#168 = VERTEX_POINT ( 'NONE', #195 ) ;
#169 = CONICAL_SURFACE ( 'NONE', #75, 4.749999999999989342, 1.029744258676649649 ) ;
#170 = DIRECTION ( 'NONE',  ( 3.243671485283772884E-31, 1.000000000000000000, 9.130123557772689288E-17 ) ) ;
#171 = COORDINATED_UNIVERSAL_TIME_OFFSET ( 1, 0, .AHEAD. ) ;
#172 = EDGE_LOOP ( 'NONE', ( #209, #238, #17, #306 ) ) ;
#173 = UNCERTAINTY_MEASURE_WITH_UNIT (LENGTH_MEASURE( 1.000000000000000082E-05 ), #133, 'distance_accuracy_value', 'NONE');
#174 = CALENDAR_DATE ( 2021, 3, 9 ) ;
#175 = EDGE_CURVE ( 'NONE', #142, #13, #216, .T. ) ;
#176 = COORDINATED_UNIVERSAL_TIME_OFFSET ( 1, 0, .AHEAD. ) ;
#177 = LINE ( 'NONE', #132, #102 ) ;
#178 = DIRECTION ( 'NONE',  ( 0.0000000000000000000, 1.000000000000000000, 0.0000000000000000000 ) ) ;
#179 = ORIENTED_EDGE ( 'NONE', *, *, #137, .T. ) ;
#180 = AXIS2_PLACEMENT_3D ( 'NONE', #234, #62, #54 ) ;
#181 = LOCAL_TIME ( 9, 54, 35.00000000000000000, #171 ) ;
#182 = APPLICATION_PROTOCOL_DEFINITION ( 'international standard', 'config_control_design', 1994, #265 ) ;
#183 = DIRECTION ( 'NONE',  ( -3.491481338843133355E-15, 1.224646799147353454E-16, -1.000000000000000000 ) ) ;
#184 = AXIS2_PLACEMENT_3D ( 'NONE', #205, #113, #292 ) ;
#185 = VECTOR ( 'NONE', #190, 1000.000000000000000 ) ;
#186 = MANIFOLD_SOLID_BREP ( 'Corps-Déplacer/Copier1[2]', #104 ) ;
#187 = CARTESIAN_POINT ( 'NONE',  ( 2.031019936801054156E-30, 4.749999999999996447, 5.817072295949924468E-16 ) ) ;
#188 = MANIFOLD_SOLID_BREP ( 'Corps-Déplacer/Copier1[1]', #250 ) ;
#189 = CC_DESIGN_PERSON_AND_ORGANIZATION_ASSIGNMENT ( #278, #147, ( #35 ) ) ;
#190 = DIRECTION ( 'NONE',  ( -2.382254525458706820E-15, -0.7071067811865500152, -0.7071067811865450192 ) ) ;
#191 = AXIS2_PLACEMENT_3D ( 'NONE', #141, #193, #303 ) ;
#192 = LOCAL_TIME ( 9, 54, 35.00000000000000000, #53 ) ;
#193 = DIRECTION ( 'NONE',  ( -3.491481338843133355E-15, 1.224646799147353454E-16, -1.000000000000000000 ) ) ;
#194 = EDGE_CURVE ( 'NONE', #23, #245, #301, .T. ) ;
#195 = CARTESIAN_POINT ( 'NONE',  ( 1.054670201285226585E-14, 4.749999999999989342, 2.854087940380936494 ) ) ;
#196 = CARTESIAN_POINT ( 'NONE',  ( 2.932844324628232018E-13, 3.949999999999988187, 84.00000000000000000 ) ) ;
#197 = EDGE_CURVE ( 'NONE', #23, #45, #42, .T. ) ;
#198 = DIRECTION ( 'NONE',  ( -3.491481338843133355E-15, 1.224646799147353454E-16, -1.000000000000000000 ) ) ;
#199 = EDGE_LOOP ( 'NONE', ( #225, #220, #149, #273 ) ) ;
#200 = AXIS2_PLACEMENT_3D ( 'NONE', #325, #91, #298 ) ;
#201 = LOCAL_TIME ( 9, 54, 35.00000000000000000, #100 ) ;
#202 = EDGE_CURVE ( 'NONE', #281, #45, #161, .T. ) ;
#203 = DESIGN_CONTEXT ( 'detailed design', #265, 'design' ) ;
#204 = CC_DESIGN_PERSON_AND_ORGANIZATION_ASSIGNMENT ( #276, #123, ( #119 ) ) ;
#205 = CARTESIAN_POINT ( 'NONE',  ( 2.932844324628232018E-13, 2.962025570757153722E-32, 84.00000000000000000 ) ) ;
#206 = AXIS2_PLACEMENT_3D ( 'NONE', #235, #99, #88 ) ;
#207 = EDGE_CURVE ( 'NONE', #296, #281, #126, .T. ) ;
#208 = DIRECTION ( 'NONE',  ( 0.0000000000000000000, 1.000000000000000000, 0.0000000000000000000 ) ) ;
#209 = ORIENTED_EDGE ( 'NONE', *, *, #175, .F. ) ;
#210 = DIRECTION ( 'NONE',  ( 4.275831445896959482E-31, 1.000000000000000000, 1.224646799147353454E-16 ) ) ;
#211 = CARTESIAN_POINT ( 'NONE',  ( 1.964538103386946343E-13, -4.750000000000011546, 83.20000000000001705 ) ) ;
#212 = CIRCLE ( 'NONE', #269, 4.749999999999992895 ) ;
#213 = SECURITY_CLASSIFICATION ( '', '', #56 ) ;
#214 = CARTESIAN_POINT ( 'NONE',  ( 5.817072295949897844E-16, -4.749999999999991118, -5.817072295949938273E-16 ) ) ;
#215 = ORIENTED_EDGE ( 'NONE', *, *, #137, .F. ) ;
#216 = LINE ( 'NONE', #214, #63 ) ;
#217 = ORIENTED_EDGE ( 'NONE', *, *, #207, .F. ) ;
#218 = CARTESIAN_POINT ( 'NONE',  ( 9.964994783257272315E-15, -3.495249660672576112E-16, 2.854087940380936050 ) ) ;
#219 = DIRECTION ( 'NONE',  ( 4.275831445896959482E-31, 1.000000000000000000, 1.224646799147353454E-16 ) ) ;
#220 = ORIENTED_EDGE ( 'NONE', *, *, #175, .T. ) ;
#221 = DIRECTION ( 'NONE',  ( -3.491481338843133355E-15, 1.224646799147353454E-16, -1.000000000000000000 ) ) ;
#222 = CARTESIAN_POINT ( 'NONE',  ( 1.012529588264508673E-13, -3.551475717527324818E-15, 29.00000000000000000 ) ) ;
#223 = ORIENTED_EDGE ( 'NONE', *, *, #289, .T. ) ;
#224 = PERSON_AND_ORGANIZATION_ROLE ( 'classification_officer' ) ;
#225 = ORIENTED_EDGE ( 'NONE', *, *, #284, .T. ) ;
#226 = AXIS2_PLACEMENT_3D ( 'NONE', #83, #335, #210 ) ;
#227 = ADVANCED_FACE ( 'NONE', ( #155 ), #131, .F. ) ;
#228 = PERSON_AND_ORGANIZATION ( #111, #266 ) ;
#229 = FACE_OUTER_BOUND ( 'NONE', #262, .T. ) ;
#230 = VERTEX_POINT ( 'NONE', #336 ) ;
#231 = CARTESIAN_POINT ( 'NONE',  ( 2.932844324628232018E-13, 3.949999999999988187, 84.00000000000000000 ) ) ;
#232 = APPROVAL_STATUS ( 'not_yet_approved' ) ;
#233 = EDGE_CURVE ( 'NONE', #90, #168, #37, .T. ) ;
#234 = CARTESIAN_POINT ( 'NONE',  ( 0.0000000000000000000, 0.0000000000000000000, 0.0000000000000000000 ) ) ;
#235 = CARTESIAN_POINT ( 'NONE',  ( 2.932844324628232018E-13, -1.028703311283776980E-14, 84.00000000000000000 ) ) ;
#236 = FACE_OUTER_BOUND ( 'NONE', #95, .T. ) ;
#237 = ADVANCED_FACE ( 'NONE', ( #152 ), #14, .F. ) ;
#238 = ORIENTED_EDGE ( 'NONE', *, *, #108, .T. ) ;
#239 = AXIS2_PLACEMENT_3D ( 'NONE', #166, #144, #25 ) ;
#240 = DIRECTION ( 'NONE',  ( 3.491481338843133355E-15, -1.224646799147353454E-16, 1.000000000000000000 ) ) ;
#241 = CARTESIAN_POINT ( 'NONE',  ( 1.012529588264508673E-13, 3.561929483821902787E-32, 29.00000000000000000 ) ) ;
#242 = AXIS2_PLACEMENT_3D ( 'NONE', #288, #253, #4 ) ;
#243 = ORIENTED_EDGE ( 'NONE', *, *, #202, .F. ) ;
#244 = CYLINDRICAL_SURFACE ( 'NONE', #15, 4.749999999999991118 ) ;
#245 = VERTEX_POINT ( 'NONE', #41 ) ;
#246 = FACE_OUTER_BOUND ( 'NONE', #247, .T. ) ;
#247 = EDGE_LOOP ( 'NONE', ( #165, #179, #20 ) ) ;
#248 = CARTESIAN_POINT ( 'NONE',  ( 5.619068403444902705E-14, -4.749999999999996447, 29.00000000000000000 ) ) ;
#249 = DATE_AND_TIME ( #129, #317 ) ;
#250 = CLOSED_SHELL ( 'NONE', ( #135, #40, #227, #326, #322, #237 ) ) ;
#251 = ORIENTED_EDGE ( 'NONE', *, *, #333, .T. ) ;
#252 = DIRECTION ( 'NONE',  ( 1.000000000000000000, 0.0000000000000000000, 0.0000000000000000000 ) ) ;
#253 = DIRECTION ( 'NONE',  ( 3.491481338843133355E-15, -1.224646799147353454E-16, 1.000000000000000000 ) ) ;
#254 = CARTESIAN_POINT ( 'NONE',  ( 2.932844324628232018E-13, -1.028703311283776980E-14, 84.00000000000000000 ) ) ;
#255 = APPROVAL_DATE_TIME ( #151, #261 ) ;
#256 = APPLICATION_PROTOCOL_DEFINITION ( 'international standard', 'config_control_design', 1994, #16 ) ;
#257 = CARTESIAN_POINT ( 'NONE',  ( 0.0000000000000000000, 0.0000000000000000000, 0.0000000000000000000 ) ) ;
#258 = PRODUCT_RELATED_PRODUCT_CATEGORY ( 'detail', '', ( #35 ) ) ;
#259 = CALENDAR_DATE ( 2021, 3, 9 ) ;
#260 = CALENDAR_DATE ( 2021, 3, 9 ) ;
#261 = APPROVAL ( #232, 'UNSPECIFIED' ) ;
#262 = EDGE_LOOP ( 'NONE', ( #3, #334, #97, #107 ) ) ;
#263 = PERSON_AND_ORGANIZATION ( #111, #266 ) ;
#264 = CIRCLE ( 'NONE', #116, 4.750000000000000000 ) ;
#265 = APPLICATION_CONTEXT ( 'configuration controlled 3d designs of mechanical parts and assemblies' ) ;
#266 = ORGANIZATION ( 'UNSPECIFIED', 'UNSPECIFIED', '' ) ;
#267 = ADVANCED_FACE ( 'NONE', ( #321 ), #27, .T. ) ;
#268 = EDGE_LOOP ( 'NONE', ( #31, #93, #308, #125 ) ) ;
#269 = AXIS2_PLACEMENT_3D ( 'NONE', #24, #198, #112 ) ;
#270 = VECTOR ( 'NONE', #275, 1000.000000000000000 ) ;
#271 = APPROVAL ( #280, 'UNSPECIFIED' ) ;
#272 = DIRECTION ( 'NONE',  ( -3.491481338843133355E-15, 1.224646799147353454E-16, -1.000000000000000000 ) ) ;
#273 = ORIENTED_EDGE ( 'NONE', *, *, #233, .F. ) ;
#274 = AXIS2_PLACEMENT_3D ( 'NONE', #19, #328, #110 ) ;
#275 = DIRECTION ( 'NONE',  ( 1.798245827342160317E-15, -0.8571673007021098911, 0.5150380749100582634 ) ) ;
#276 = PERSON_AND_ORGANIZATION ( #111, #266 ) ;
#277 = EDGE_CURVE ( 'NONE', #45, #23, #264, .T. ) ;
#278 = PERSON_AND_ORGANIZATION ( #111, #266 ) ;
#279 = DIRECTION ( 'NONE',  ( -2.468850131082255877E-15, 0.7071067811865502373, -0.7071067811865447972 ) ) ;
#280 = APPROVAL_STATUS ( 'not_yet_approved' ) ;
#281 = VERTEX_POINT ( 'NONE', #330 ) ;
#282 =( GEOMETRIC_REPRESENTATION_CONTEXT ( 3 ) GLOBAL_UNCERTAINTY_ASSIGNED_CONTEXT ( ( #173 ) ) GLOBAL_UNIT_ASSIGNED_CONTEXT ( ( #133, #285, #74 ) ) REPRESENTATION_CONTEXT ( 'NONE', 'WORKASPACE' ) );
#283 = PERSON_AND_ORGANIZATION ( #111, #266 ) ;
#284 = EDGE_CURVE ( 'NONE', #90, #142, #101, .T. ) ;
#285 =( NAMED_UNIT ( * ) PLANE_ANGLE_UNIT ( ) SI_UNIT ( $, .RADIAN. ) );
#286 = EDGE_LOOP ( 'NONE', ( #80, #39 ) ) ;
#287 = CARTESIAN_POINT ( 'NONE',  ( 2.932844324628232018E-13, -1.028703311283776980E-14, 84.00000000000000000 ) ) ;
#288 = CARTESIAN_POINT ( 'NONE',  ( 1.012529588264508673E-13, 3.561929483821902787E-32, 29.00000000000000000 ) ) ;
#289 = EDGE_CURVE ( 'NONE', #296, #23, #162, .T. ) ;
#290 = CONICAL_SURFACE ( 'NONE', #163, 4.749999999999989342, 1.029744258676649649 ) ;
#291 = CARTESIAN_POINT ( 'NONE',  ( 9.964994783257272315E-15, -3.495249660672576112E-16, 2.854087940380936050 ) ) ;
#292 = DIRECTION ( 'NONE',  ( 4.275831445896959482E-31, 1.000000000000000000, 1.224646799147353454E-16 ) ) ;
#293 = DIRECTION ( 'NONE',  ( -3.491481338843133355E-15, 1.224646799147353454E-16, -1.000000000000000000 ) ) ;
#294 = EDGE_CURVE ( 'NONE', #281, #296, #79, .T. ) ;
#295 = ORIENTED_EDGE ( 'NONE', *, *, #312, .T. ) ;
#296 = VERTEX_POINT ( 'NONE', #231 ) ;
#297 = AXIS2_PLACEMENT_3D ( 'NONE', #67, #50, #170 ) ;
#298 = DIRECTION ( 'NONE',  ( 0.0000000000000000000, 1.000000000000000000, 0.0000000000000000000 ) ) ;
#299 = ORIENTED_EDGE ( 'NONE', *, *, #294, .T. ) ;
#300 = VERTEX_POINT ( 'NONE', #7 ) ;
#301 = LINE ( 'NONE', #187, #305 ) ;
#302 = DIRECTION ( 'NONE',  ( 0.0000000000000000000, 1.000000000000000000, 0.0000000000000000000 ) ) ;
#303 = DIRECTION ( 'NONE',  ( 0.0000000000000000000, 1.000000000000000000, 0.0000000000000000000 ) ) ;
#304 = EDGE_LOOP ( 'NONE', ( #215, #295, #251 ) ) ;
#305 = VECTOR ( 'NONE', #293, 1000.000000000000000 ) ;
#306 = ORIENTED_EDGE ( 'NONE', *, *, #77, .F. ) ;
#307 = DATE_TIME_ROLE ( 'classification_date' ) ;
#308 = ORIENTED_EDGE ( 'NONE', *, *, #194, .T. ) ;
#309 = VECTOR ( 'NONE', #272, 1000.000000000000000 ) ;
#310 = CARTESIAN_POINT ( 'NONE',  ( 2.031019936801052054E-30, 4.749999999999991118, 5.817072295949917565E-16 ) ) ;
#311 = DIRECTION ( 'NONE',  ( -3.491481338843133355E-15, 1.224646799147353454E-16, -1.000000000000000000 ) ) ;
#312 = EDGE_CURVE ( 'NONE', #300, #168, #177, .T. ) ;
#313 = DIRECTION ( 'NONE',  ( -3.491481338843133355E-15, 1.224646799147353454E-16, -1.000000000000000000 ) ) ;
#314 = ORIENTED_EDGE ( 'NONE', *, *, #277, .F. ) ;
#315 = PERSON_AND_ORGANIZATION ( #111, #266 ) ;
#316 = AXIS2_PLACEMENT_3D ( 'NONE', #254, #311, #178 ) ;
#317 = LOCAL_TIME ( 9, 54, 35.00000000000000000, #154 ) ;
#318 = CC_DESIGN_PERSON_AND_ORGANIZATION_ASSIGNMENT ( #228, #61, ( #21 ) ) ;
#319 = ADVANCED_FACE ( 'NONE', ( #246 ), #290, .T. ) ;
#320 = CYLINDRICAL_SURFACE ( 'NONE', #331, 4.749999999999996447 ) ;
#321 = FACE_OUTER_BOUND ( 'NONE', #199, .T. ) ;
#322 = ADVANCED_FACE ( 'NONE', ( #105 ), #82, .T. ) ;
#323 = AXIS2_PLACEMENT_3D ( 'NONE', #287, #78, #38 ) ;
#324 = APPROVAL_PERSON_ORGANIZATION ( #5, #261, #60 ) ;
#325 = CARTESIAN_POINT ( 'NONE',  ( 2.904912473917487456E-13, -1.018906136890598294E-14, 83.20000000000001705 ) ) ;
#326 = ADVANCED_FACE ( 'NONE', ( #128 ), #320, .T. ) ;
#327 = EDGE_LOOP ( 'NONE', ( #217, #118 ) ) ;
#328 = DIRECTION ( 'NONE',  ( -3.491481338843133355E-15, 1.224646799147353454E-16, -1.000000000000000000 ) ) ;
#329 = APPROVAL ( #156, 'UNSPECIFIED' ) ;
#330 = CARTESIAN_POINT ( 'NONE',  ( 2.924205612849149997E-13, -3.950000000000009059, 84.00000000000000000 ) ) ;
#331 = AXIS2_PLACEMENT_3D ( 'NONE', #81, #18, #84 ) ;
#332 = FACE_OUTER_BOUND ( 'NONE', #304, .T. ) ;
#333 = EDGE_CURVE ( 'NONE', #168, #13, #109, .T. ) ;
#334 = ORIENTED_EDGE ( 'NONE', *, *, #66, .T. ) ;
#335 = DIRECTION ( 'NONE',  ( -3.491481338843133355E-15, 1.224646799147353454E-16, -1.000000000000000000 ) ) ;
#336 = CARTESIAN_POINT ( 'NONE',  ( 1.964538103386947353E-13, -4.749999999999996447, 29.00000000000000000 ) ) ;
#337 = CARTESIAN_POINT ( 'NONE',  ( 2.904912473917487456E-13, 4.749999999999989342, 83.20000000000001705 ) ) ;
ENDSEC;
END-ISO-10303-21;
