ISO-10303-21;
HEADER;
FILE_DESCRIPTION (( 'STEP AP203' ),
    '1' );
FILE_NAME ('54644.step',
    '2021-09-03T07:54:29',
    ( '' ),
    ( '' ),
    'SwSTEP 2.0',
    'SolidWorks 2019',
    '' );
FILE_SCHEMA (( 'CONFIG_CONTROL_DESIGN' ));
ENDSEC;

DATA;
#1 = ORIENTED_EDGE ( 'NONE', *, *, #235, .F. ) ;
#2 = ORIENTED_EDGE ( 'NONE', *, *, #285, .F. ) ;
#3 = ORIENTED_EDGE ( 'NONE', *, *, #200, .F. ) ;
#4 = ORIENTED_EDGE ( 'NONE', *, *, #135, .T. ) ;
#5 = SECURITY_CLASSIFICATION_LEVEL ( 'unclassified' ) ;
#6 = ORIENTED_EDGE ( 'NONE', *, *, #281, .T. ) ;
#7 = ADVANCED_BREP_SHAPE_REPRESENTATION ( '54644', ( #320, #323, #216 ), #136 ) ;
#8 = ADVANCED_FACE ( 'NONE', ( #333 ), #100, .T. ) ;
#9 = PERSON_AND_ORGANIZATION ( #282, #25 ) ;
#10 = CIRCLE ( 'NONE', #158, 4.499999999999990230 ) ;
#11 = LOCAL_TIME ( 9, 54, 29.00000000000000000, #38 ) ;
#12 = APPROVAL_DATE_TIME ( #56, #228 ) ;
#13 = EDGE_CURVE ( 'NONE', #318, #57, #247, .T. ) ;
#14 = AXIS2_PLACEMENT_3D ( 'NONE', #89, #198, #300 ) ;
#15 = AXIS2_PLACEMENT_3D ( 'NONE', #98, #26, #242 ) ;
#16 = EDGE_CURVE ( 'NONE', #179, #148, #184, .T. ) ;
#17 = VERTEX_POINT ( 'NONE', #289 ) ;
#18 = DIRECTION ( 'NONE',  ( -3.491481338843133355E-15, 1.224646799147353454E-16, -1.000000000000000000 ) ) ;
#19 = ORIENTED_EDGE ( 'NONE', *, *, #205, .F. ) ;
#20 = PERSON_AND_ORGANIZATION ( #282, #25 ) ;
#21 = DIRECTION ( 'NONE',  ( -3.491481338843133355E-15, 1.224646799147353454E-16, -1.000000000000000000 ) ) ;
#22 = CARTESIAN_POINT ( 'NONE',  ( 1.012529588264508673E-13, 4.499999999999990230, 29.00000000000000000 ) ) ;
#23 = CARTESIAN_POINT ( 'NONE',  ( 0.0000000000000000000, 0.0000000000000000000, 0.0000000000000000000 ) ) ;
#24 = CARTESIAN_POINT ( 'NONE',  ( 0.0000000000000000000, 0.0000000000000000000, 0.0000000000000000000 ) ) ;
#25 = ORGANIZATION ( 'UNSPECIFIED', 'UNSPECIFIED', '' ) ;
#26 = DIRECTION ( 'NONE',  ( -3.491481338843133355E-15, 1.224646799147353454E-16, -1.000000000000000000 ) ) ;
#27 = DIRECTION ( 'NONE',  ( 0.0000000000000000000, 1.000000000000000000, 0.0000000000000000000 ) ) ;
#28 = PLANE ( 'NONE',  #277 ) ;
#29 = LINE ( 'NONE', #92, #144 ) ;
#30 = DIRECTION ( 'NONE',  ( 4.275831445896958607E-31, 1.000000000000000000, 1.224646799147353207E-16 ) ) ;
#31 = ORIENTED_EDGE ( 'NONE', *, *, #135, .F. ) ;
#32 = CARTESIAN_POINT ( 'NONE',  ( 0.0000000000000000000, 0.0000000000000000000, 0.0000000000000000000 ) ) ;
#33 = ORIENTED_EDGE ( 'NONE', *, *, #322, .F. ) ;
#34 = ORIENTED_EDGE ( 'NONE', *, *, #260, .T. ) ;
#35 = CALENDAR_DATE ( 2021, 3, 9 ) ;
#36 = VECTOR ( 'NONE', #270, 1000.000000000000000 ) ;
#37 = CC_DESIGN_APPROVAL ( #90, ( #119 ) ) ;
#38 = COORDINATED_UNIVERSAL_TIME_OFFSET ( 1, 0, .AHEAD. ) ;
#39 = AXIS2_PLACEMENT_3D ( 'NONE', #196, #316, #321 ) ;
#40 = EDGE_CURVE ( 'NONE', #257, #149, #67, .T. ) ;
#41 = PRODUCT_RELATED_PRODUCT_CATEGORY ( 'detail', '', ( #183 ) ) ;
#42 = DIRECTION ( 'NONE',  ( 3.423875456688426836E-31, 1.000000000000000000, 9.637352644315616197E-17 ) ) ;
#43 = CC_DESIGN_PERSON_AND_ORGANIZATION_ASSIGNMENT ( #232, #177, ( #291 ) ) ;
#44 = LINE ( 'NONE', #139, #259 ) ;
#45 = APPROVAL_STATUS ( 'not_yet_approved' ) ;
#46 = CARTESIAN_POINT ( 'NONE',  ( 2.932844324628232018E-13, -1.028703311283776980E-14, 84.00000000000000000 ) ) ;
#47 = DIRECTION ( 'NONE',  ( -3.491481338843133355E-15, 1.224646799147353454E-16, -1.000000000000000000 ) ) ;
#48 = PERSON_AND_ORGANIZATION ( #282, #25 ) ;
#49 = CARTESIAN_POINT ( 'NONE',  ( 2.932844324628232018E-13, 2.774555597924422343E-32, 84.00000000000000000 ) ) ;
#50 = AXIS2_PLACEMENT_3D ( 'NONE', #46, #219, #327 ) ;
#51 = LOCAL_TIME ( 9, 54, 29.00000000000000000, #275 ) ;
#52 =( LENGTH_UNIT ( ) NAMED_UNIT ( * ) SI_UNIT ( .MILLI., .METRE. ) );
#53 = FACE_OUTER_BOUND ( 'NONE', #212, .T. ) ;
#54 = ORIENTED_EDGE ( 'NONE', *, *, #159, .T. ) ;
#55 = CARTESIAN_POINT ( 'NONE',  ( 2.937375517785077547E-13, -3.700000000000010836, 84.00000000000000000 ) ) ;
#56 = DATE_AND_TIME ( #35, #69 ) ;
#57 = VERTEX_POINT ( 'NONE', #74 ) ;
#58 = ORIENTED_EDGE ( 'NONE', *, *, #200, .T. ) ;
#59 = AXIS2_PLACEMENT_3D ( 'NONE', #99, #93, #42 ) ;
#60 = DIRECTION ( 'NONE',  ( 1.000000000000000000, 0.0000000000000000000, 0.0000000000000000000 ) ) ;
#61 = DATE_AND_TIME ( #107, #313 ) ;
#62 = APPROVAL_ROLE ( '' ) ;
#63 = VECTOR ( 'NONE', #95, 1000.000000000000000 ) ;
#64 = DESIGN_CONTEXT ( 'detailed design', #287, 'design' ) ;
#65 = COORDINATED_UNIVERSAL_TIME_OFFSET ( 1, 0, .AHEAD. ) ;
#66 = CC_DESIGN_DATE_AND_TIME_ASSIGNMENT ( #223, #182, ( #109 ) ) ;
#67 = CIRCLE ( 'NONE', #59, 4.499999999999990230 ) ;
#68 = DIRECTION ( 'NONE',  ( 0.0000000000000000000, 1.000000000000000000, 0.0000000000000000000 ) ) ;
#69 = LOCAL_TIME ( 9, 54, 29.00000000000000000, #236 ) ;
#70 = PLANE ( 'NONE',  #326 ) ;
#71 = DIRECTION ( 'NONE',  ( 3.491481338843133355E-15, -1.224646799147353454E-16, 1.000000000000000000 ) ) ;
#72 = EDGE_LOOP ( 'NONE', ( #3, #31 ) ) ;
#73 = DIRECTION ( 'NONE',  ( 4.275831445896959482E-31, 1.000000000000000000, 1.224646799147353454E-16 ) ) ;
#74 = CARTESIAN_POINT ( 'NONE',  ( 1.964231941687160452E-13, -4.499999999999997335, 29.00000000000000000 ) ) ;
#75 = CARTESIAN_POINT ( 'NONE',  ( 1.964231941687159442E-13, -4.500000000000010658, 83.20000000000001705 ) ) ;
#76 = ORIENTED_EDGE ( 'NONE', *, *, #331, .F. ) ;
#77 = ORIENTED_EDGE ( 'NONE', *, *, #159, .F. ) ;
#78 = ORIENTED_EDGE ( 'NONE', *, *, #16, .F. ) ;
#79 = ADVANCED_FACE ( 'NONE', ( #214 ), #269, .T. ) ;
#80 = CIRCLE ( 'NONE', #39, 4.500000000000000888 ) ;
#81 = APPROVAL_ROLE ( '' ) ;
#82 = AXIS2_PLACEMENT_3D ( 'NONE', #268, #245, #250 ) ;
#83 = CARTESIAN_POINT ( 'NONE',  ( 5.589783115964779526E-14, -4.499999999999996447, 29.00000000000000000 ) ) ;
#84 = CARTESIAN_POINT ( 'NONE',  ( 2.932844324628232018E-13, 3.699999999999990408, 84.00000000000000000 ) ) ;
#85 = DATE_AND_TIME ( #238, #51 ) ;
#86 = CARTESIAN_POINT ( 'NONE',  ( 1.012529588264508673E-13, 3.374459510989171407E-32, 29.00000000000000000 ) ) ;
#87 = ORIENTED_EDGE ( 'NONE', *, *, #273, .T. ) ;
#88 = AXIS2_PLACEMENT_3D ( 'NONE', #299, #170, #161 ) ;
#89 = CARTESIAN_POINT ( 'NONE',  ( 9.440521373612154214E-15, -3.311289152216125412E-16, 2.703872785624045427 ) ) ;
#90 = APPROVAL ( #45, 'UNSPECIFIED' ) ;
#91 = CARTESIAN_POINT ( 'NONE',  ( 2.932844324628232018E-13, -1.028703311283776980E-14, 84.00000000000000000 ) ) ;
#92 = CARTESIAN_POINT ( 'NONE',  ( 2.932844324628232018E-13, 3.699999999999990408, 84.00000000000000000 ) ) ;
#93 = DIRECTION ( 'NONE',  ( -3.491481338843133355E-15, 1.224646799147353454E-16, -1.000000000000000000 ) ) ;
#94 = UNCERTAINTY_MEASURE_WITH_UNIT (LENGTH_MEASURE( 1.000000000000000082E-05 ), #52, 'distance_accuracy_value', 'NONE');
#95 = DIRECTION ( 'NONE',  ( -3.491481338843133355E-15, 1.224646799147353454E-16, -1.000000000000000000 ) ) ;
#96 = CARTESIAN_POINT ( 'NONE',  ( 9.440521373612154214E-15, -4.499999999999990230, 2.703872785624044983 ) ) ;
#97 = ADVANCED_FACE ( 'NONE', ( #163 ), #70, .F. ) ;
#98 = CARTESIAN_POINT ( 'NONE',  ( 1.012529588264508673E-13, -3.551475717527324818E-15, 29.00000000000000000 ) ) ;
#99 = CARTESIAN_POINT ( 'NONE',  ( 9.440521373612154214E-15, -3.311289152216125412E-16, 2.703872785624045427 ) ) ;
#100 = CYLINDRICAL_SURFACE ( 'NONE', #298, 4.499999999999992006 ) ;
#101 = APPROVAL_DATE_TIME ( #85, #266 ) ;
#102 = CC_DESIGN_DATE_AND_TIME_ASSIGNMENT ( #61, #134, ( #119 ) ) ;
#103 = ORIENTED_EDGE ( 'NONE', *, *, #260, .F. ) ;
#104 = PERSON_AND_ORGANIZATION ( #282, #25 ) ;
#105 = AXIS2_PLACEMENT_3D ( 'NONE', #221, #246, #114 ) ;
#106 = CC_DESIGN_SECURITY_CLASSIFICATION ( #119, ( #291 ) ) ;
#107 = CALENDAR_DATE ( 2021, 3, 9 ) ;
#108 = CC_DESIGN_APPROVAL ( #228, ( #109 ) ) ;
#109 = PRODUCT_DEFINITION ( 'UNKNOWN', '', #291, #64 ) ;
#110 = ORIENTED_EDGE ( 'NONE', *, *, #285, .T. ) ;
#111 = ADVANCED_FACE ( 'NONE', ( #140 ), #124, .F. ) ;
#112 = AXIS2_PLACEMENT_3D ( 'NONE', #24, #188, #215 ) ;
#113 = FACE_OUTER_BOUND ( 'NONE', #130, .T. ) ;
#114 = DIRECTION ( 'NONE',  ( 0.0000000000000000000, 1.000000000000000000, 0.0000000000000000000 ) ) ;
#115 = FACE_OUTER_BOUND ( 'NONE', #233, .T. ) ;
#116 = CYLINDRICAL_SURFACE ( 'NONE', #112, 4.499999999999997335 ) ;
#117 = DIRECTION ( 'NONE',  ( -3.491481338843133355E-15, 1.224646799147353454E-16, -1.000000000000000000 ) ) ;
#118 = CIRCLE ( 'NONE', #206, 4.499999999999993783 ) ;
#119 = SECURITY_CLASSIFICATION ( '', '', #5 ) ;
#120 = DIRECTION ( 'NONE',  ( -3.491481338843133355E-15, 1.224646799147353454E-16, -1.000000000000000000 ) ) ;
#121 = DIRECTION ( 'NONE',  ( 3.423875456688426836E-31, 1.000000000000000000, 9.637352644315616197E-17 ) ) ;
#122 = LINE ( 'NONE', #142, #226 ) ;
#123 = APPROVAL_STATUS ( 'not_yet_approved' ) ;
#124 = PLANE ( 'NONE',  #175 ) ;
#125 = ADVANCED_FACE ( 'NONE', ( #319 ), #224, .T. ) ;
#126 = VERTEX_POINT ( 'NONE', #84 ) ;
#127 = VECTOR ( 'NONE', #21, 1000.000000000000000 ) ;
#128 = ORIENTED_EDGE ( 'NONE', *, *, #273, .F. ) ;
#129 = ORIENTED_EDGE ( 'NONE', *, *, #205, .T. ) ;
#130 = EDGE_LOOP ( 'NONE', ( #58, #110, #78, #304 ) ) ;
#131 = APPLICATION_CONTEXT ( 'configuration controlled 3d designs of mechanical parts and assemblies' ) ;
#132 = CONICAL_SURFACE ( 'NONE', #305, 3.700000000000000622, 0.7853981633974512766 ) ;
#133 =( NAMED_UNIT ( * ) SI_UNIT ( $, .STERADIAN. ) SOLID_ANGLE_UNIT ( ) );
#134 = DATE_TIME_ROLE ( 'classification_date' ) ;
#135 = EDGE_CURVE ( 'NONE', #17, #126, #261, .T. ) ;
#136 =( GEOMETRIC_REPRESENTATION_CONTEXT ( 3 ) GLOBAL_UNCERTAINTY_ASSIGNED_CONTEXT ( ( #94 ) ) GLOBAL_UNIT_ASSIGNED_CONTEXT ( ( #52, #178, #133 ) ) REPRESENTATION_CONTEXT ( 'NONE', 'WORKASPACE' ) );
#137 = DIRECTION ( 'NONE',  ( 4.275831445896959482E-31, 1.000000000000000000, 1.224646799147353207E-16 ) ) ;
#138 = ADVANCED_FACE ( 'NONE', ( #164 ), #160, .T. ) ;
#139 = CARTESIAN_POINT ( 'NONE',  ( 1.924124150653630585E-30, 4.499999999999997335, 5.510910596163086597E-16 ) ) ;
#140 = FACE_OUTER_BOUND ( 'NONE', #72, .T. ) ;
#141 = DIRECTION ( 'NONE',  ( -2.382254525458708792E-15, -0.7071067811865495711, -0.7071067811865455743 ) ) ;
#142 = CARTESIAN_POINT ( 'NONE',  ( 9.991612433228463959E-15, 4.499999999999990230, 2.703872785624045871 ) ) ;
#143 = DIRECTION ( 'NONE',  ( 4.275831445896958607E-31, 1.000000000000000000, 1.224646799147353207E-16 ) ) ;
#144 = VECTOR ( 'NONE', #294, 1000.000000000000114 ) ;
#145 = DIRECTION ( 'NONE',  ( -4.275831445896959482E-31, -1.000000000000000000, -1.224646799147353454E-16 ) ) ;
#146 = CARTESIAN_POINT ( 'NONE',  ( 0.0000000000000000000, 0.0000000000000000000, 0.0000000000000000000 ) ) ;
#147 = CARTESIAN_POINT ( 'NONE',  ( 2.932844324628232018E-13, -1.028703311283776980E-14, 84.00000000000000000 ) ) ;
#148 = VERTEX_POINT ( 'NONE', #75 ) ;
#149 = VERTEX_POINT ( 'NONE', #96 ) ;
#150 = LOCAL_TIME ( 9, 54, 29.00000000000000000, #297 ) ;
#151 = ORIENTED_EDGE ( 'NONE', *, *, #207, .T. ) ;
#152 = VERTEX_POINT ( 'NONE', #23 ) ;
#153 = EDGE_LOOP ( 'NONE', ( #225, #129, #284 ) ) ;
#154 = CIRCLE ( 'NONE', #15, 4.499999999999993783 ) ;
#155 = APPROVAL_DATE_TIME ( #306, #90 ) ;
#156 = ADVANCED_FACE ( 'NONE', ( #53 ), #116, .T. ) ;
#157 = CC_DESIGN_PERSON_AND_ORGANIZATION_ASSIGNMENT ( #104, #237, ( #119 ) ) ;
#158 = AXIS2_PLACEMENT_3D ( 'NONE', #267, #47, #121 ) ;
#159 = EDGE_CURVE ( 'NONE', #303, #257, #243, .T. ) ;
#160 = CONICAL_SURFACE ( 'NONE', #14, 4.499999999999990230, 1.029744258676649649 ) ;
#161 = DIRECTION ( 'NONE',  ( 0.0000000000000000000, 1.000000000000000000, 0.0000000000000000000 ) ) ;
#162 = APPROVAL_STATUS ( 'not_yet_approved' ) ;
#163 = FACE_OUTER_BOUND ( 'NONE', #169, .T. ) ;
#164 = FACE_OUTER_BOUND ( 'NONE', #279, .T. ) ;
#165 = CARTESIAN_POINT ( 'NONE',  ( 1.012529588264508673E-13, -3.551475717527324818E-15, 29.00000000000000000 ) ) ;
#166 = DIRECTION ( 'NONE',  ( -3.423875456688426836E-31, -1.000000000000000000, -9.637352644315616197E-17 ) ) ;
#167 = EDGE_CURVE ( 'NONE', #290, #149, #274, .T. ) ;
#168 = DIRECTION ( 'NONE',  ( -3.491481338843133355E-15, 1.224646799147353454E-16, -1.000000000000000000 ) ) ;
#169 = EDGE_LOOP ( 'NONE', ( #271, #218 ) ) ;
#170 = DIRECTION ( 'NONE',  ( -3.491481338843133355E-15, 1.224646799147353454E-16, -1.000000000000000000 ) ) ;
#171 = CARTESIAN_POINT ( 'NONE',  ( 5.510910596163060959E-16, -4.499999999999992006, -5.510910596163099416E-16 ) ) ;
#172 = DIRECTION ( 'NONE',  ( 0.0000000000000000000, 1.000000000000000000, 0.0000000000000000000 ) ) ;
#173 = EDGE_CURVE ( 'NONE', #152, #257, #122, .T. ) ;
#174 = EDGE_LOOP ( 'NONE', ( #2, #4, #151, #176 ) ) ;
#175 = AXIS2_PLACEMENT_3D ( 'NONE', #49, #168, #73 ) ;
#176 = ORIENTED_EDGE ( 'NONE', *, *, #281, .F. ) ;
#177 = PERSON_AND_ORGANIZATION_ROLE ( 'creator' ) ;
#178 =( NAMED_UNIT ( * ) PLANE_ANGLE_UNIT ( ) SI_UNIT ( $, .RADIAN. ) );
#179 = VERTEX_POINT ( 'NONE', #292 ) ;
#180 = CLOSED_SHELL ( 'NONE', ( #314, #156, #97, #125, #195, #111 ) ) ;
#181 = AXIS2_PLACEMENT_3D ( 'NONE', #147, #332, #27 ) ;
#182 = DATE_TIME_ROLE ( 'creation_date' ) ;
#183 = PRODUCT ( '54644', '54644', '', ( #239 ) ) ;
#184 = CIRCLE ( 'NONE', #105, 4.500000000000000888 ) ;
#185 = ORIENTED_EDGE ( 'NONE', *, *, #167, .T. ) ;
#186 = DIRECTION ( 'NONE',  ( -3.491481338843133355E-15, 1.224646799147353454E-16, -1.000000000000000000 ) ) ;
#187 = CC_DESIGN_PERSON_AND_ORGANIZATION_ASSIGNMENT ( #20, #229, ( #183 ) ) ;
#188 = DIRECTION ( 'NONE',  ( -3.491481338843133355E-15, 1.224646799147353454E-16, -1.000000000000000000 ) ) ;
#189 = DIRECTION ( 'NONE',  ( 3.491481338843133355E-15, -1.224646799147353454E-16, 1.000000000000000000 ) ) ;
#190 = DIRECTION ( 'NONE',  ( -3.491481338843133355E-15, 1.224646799147353454E-16, -1.000000000000000000 ) ) ;
#191 = DIRECTION ( 'NONE',  ( -4.275831445896959482E-31, -1.000000000000000000, -1.224646799147353454E-16 ) ) ;
#192 = DIRECTION ( 'NONE',  ( 3.491481338843133355E-15, -1.224646799147353454E-16, 1.000000000000000000 ) ) ;
#193 = APPROVAL_ROLE ( '' ) ;
#194 = DIRECTION ( 'NONE',  ( 1.903218546456022717E-15, 0.8571673007021097801, 0.5150380749100585964 ) ) ;
#195 = ADVANCED_FACE ( 'NONE', ( #265 ), #312, .T. ) ;
#196 = CARTESIAN_POINT ( 'NONE',  ( 2.904912473917487456E-13, -1.018906136890598294E-14, 83.20000000000001705 ) ) ;
#197 = CLOSED_SHELL ( 'NONE', ( #288, #138, #79, #8, #317 ) ) ;
#198 = DIRECTION ( 'NONE',  ( 3.491481338843133355E-15, -1.224646799147353454E-16, 1.000000000000000000 ) ) ;
#199 = DIRECTION ( 'NONE',  ( -3.491481338843133355E-15, 1.224646799147353454E-16, -1.000000000000000000 ) ) ;
#200 = EDGE_CURVE ( 'NONE', #126, #17, #283, .T. ) ;
#201 = ORIENTED_EDGE ( 'NONE', *, *, #40, .T. ) ;
#202 = CC_DESIGN_PERSON_AND_ORGANIZATION_ASSIGNMENT ( #210, #222, ( #109 ) ) ;
#203 = ORIENTED_EDGE ( 'NONE', *, *, #40, .F. ) ;
#204 = APPROVAL_PERSON_ORGANIZATION ( #208, #266, #193 ) ;
#205 = EDGE_CURVE ( 'NONE', #152, #149, #295, .T. ) ;
#206 = AXIS2_PLACEMENT_3D ( 'NONE', #165, #18, #217 ) ;
#207 = EDGE_CURVE ( 'NONE', #126, #179, #29, .T. ) ;
#208 = PERSON_AND_ORGANIZATION ( #282, #25 ) ;
#209 = ORIENTED_EDGE ( 'NONE', *, *, #307, .T. ) ;
#210 = PERSON_AND_ORGANIZATION ( #282, #25 ) ;
#211 = VECTOR ( 'NONE', #190, 1000.000000000000000 ) ;
#212 = EDGE_LOOP ( 'NONE', ( #256, #278, #328, #103 ) ) ;
#213 = CYLINDRICAL_SURFACE ( 'NONE', #263, 4.499999999999992006 ) ;
#214 = FACE_OUTER_BOUND ( 'NONE', #153, .T. ) ;
#215 = DIRECTION ( 'NONE',  ( 4.275831445896959482E-31, 1.000000000000000000, 1.224646799147353207E-16 ) ) ;
#216 = AXIS2_PLACEMENT_3D ( 'NONE', #32, #230, #60 ) ;
#217 = DIRECTION ( 'NONE',  ( 0.0000000000000000000, 1.000000000000000000, 0.0000000000000000000 ) ) ;
#218 = ORIENTED_EDGE ( 'NONE', *, *, #235, .T. ) ;
#219 = DIRECTION ( 'NONE',  ( -3.491481338843133355E-15, 1.224646799147353454E-16, -1.000000000000000000 ) ) ;
#220 = LINE ( 'NONE', #329, #63 ) ;
#221 = CARTESIAN_POINT ( 'NONE',  ( 2.904912473917487456E-13, -1.018906136890598294E-14, 83.20000000000001705 ) ) ;
#222 = PERSON_AND_ORGANIZATION_ROLE ( 'creator' ) ;
#223 = DATE_AND_TIME ( #324, #150 ) ;
#224 = CYLINDRICAL_SURFACE ( 'NONE', #253, 4.499999999999997335 ) ;
#225 = ORIENTED_EDGE ( 'NONE', *, *, #173, .F. ) ;
#226 = VECTOR ( 'NONE', #194, 999.9999999999998863 ) ;
#227 = CARTESIAN_POINT ( 'NONE',  ( 0.0000000000000000000, 0.0000000000000000000, 0.0000000000000000000 ) ) ;
#228 = APPROVAL ( #123, 'UNSPECIFIED' ) ;
#229 = PERSON_AND_ORGANIZATION_ROLE ( 'design_owner' ) ;
#230 = DIRECTION ( 'NONE',  ( 0.0000000000000000000, 0.0000000000000000000, 1.000000000000000000 ) ) ;
#231 = EDGE_LOOP ( 'NONE', ( #209, #185, #203, #77 ) ) ;
#232 = PERSON_AND_ORGANIZATION ( #282, #25 ) ;
#233 = EDGE_LOOP ( 'NONE', ( #251, #128 ) ) ;
#234 = AXIS2_PLACEMENT_3D ( 'NONE', #325, #192, #166 ) ;
#235 = EDGE_CURVE ( 'NONE', #57, #318, #280, .T. ) ;
#236 = COORDINATED_UNIVERSAL_TIME_OFFSET ( 1, 0, .AHEAD. ) ;
#237 = PERSON_AND_ORGANIZATION_ROLE ( 'classification_officer' ) ;
#238 = CALENDAR_DATE ( 2021, 3, 9 ) ;
#239 = MECHANICAL_CONTEXT ( 'NONE', #131, 'mechanical' ) ;
#240 = AXIS2_PLACEMENT_3D ( 'NONE', #301, #276, #172 ) ;
#241 = EDGE_LOOP ( 'NONE', ( #76, #6, #34, #1 ) ) ;
#242 = DIRECTION ( 'NONE',  ( 0.0000000000000000000, 1.000000000000000000, 0.0000000000000000000 ) ) ;
#243 = LINE ( 'NONE', #249, #211 ) ;
#244 = FACE_OUTER_BOUND ( 'NONE', #231, .T. ) ;
#245 = DIRECTION ( 'NONE',  ( -3.491481338843133355E-15, 1.224646799147353454E-16, -1.000000000000000000 ) ) ;
#246 = DIRECTION ( 'NONE',  ( -3.491481338843133355E-15, 1.224646799147353454E-16, -1.000000000000000000 ) ) ;
#247 = CIRCLE ( 'NONE', #240, 4.499999999999993783 ) ;
#248 = CARTESIAN_POINT ( 'NONE',  ( 9.991612433228463959E-15, 4.499999999999990230, 2.703872785624045871 ) ) ;
#249 = CARTESIAN_POINT ( 'NONE',  ( 1.924124150653628132E-30, 4.499999999999992006, 5.510910596163079695E-16 ) ) ;
#250 = DIRECTION ( 'NONE',  ( 0.0000000000000000000, 1.000000000000000000, 0.0000000000000000000 ) ) ;
#251 = ORIENTED_EDGE ( 'NONE', *, *, #307, .F. ) ;
#252 = ORIENTED_EDGE ( 'NONE', *, *, #167, .F. ) ;
#253 = AXIS2_PLACEMENT_3D ( 'NONE', #330, #120, #137 ) ;
#254 = CC_DESIGN_APPROVAL ( #266, ( #291 ) ) ;
#255 = ORIENTED_EDGE ( 'NONE', *, *, #173, .T. ) ;
#256 = ORIENTED_EDGE ( 'NONE', *, *, #16, .T. ) ;
#257 = VERTEX_POINT ( 'NONE', #248 ) ;
#258 = PERSON_AND_ORGANIZATION_ROLE ( 'design_supplier' ) ;
#259 = VECTOR ( 'NONE', #117, 1000.000000000000000 ) ;
#260 = EDGE_CURVE ( 'NONE', #179, #318, #44, .T. ) ;
#261 = CIRCLE ( 'NONE', #82, 3.700000000000000622 ) ;
#262 = PRODUCT_DEFINITION_SHAPE ( 'NONE', 'NONE',  #109 ) ;
#263 = AXIS2_PLACEMENT_3D ( 'NONE', #146, #272, #143 ) ;
#264 = CARTESIAN_POINT ( 'NONE',  ( 1.012529588264508673E-13, 3.374459510989171407E-32, 29.00000000000000000 ) ) ;
#265 = FACE_OUTER_BOUND ( 'NONE', #174, .T. ) ;
#266 = APPROVAL ( #162, 'UNSPECIFIED' ) ;
#267 = CARTESIAN_POINT ( 'NONE',  ( 9.440521373612154214E-15, -3.311289152216125412E-16, 2.703872785624045427 ) ) ;
#268 = CARTESIAN_POINT ( 'NONE',  ( 2.932844324628232018E-13, -1.028703311283776980E-14, 84.00000000000000000 ) ) ;
#269 = CONICAL_SURFACE ( 'NONE', #234, 4.499999999999990230, 1.029744258676649649 ) ;
#270 = DIRECTION ( 'NONE',  ( 1.798245827342160317E-15, -0.8571673007021098911, 0.5150380749100582634 ) ) ;
#271 = ORIENTED_EDGE ( 'NONE', *, *, #13, .T. ) ;
#272 = DIRECTION ( 'NONE',  ( -3.491481338843133355E-15, 1.224646799147353454E-16, -1.000000000000000000 ) ) ;
#273 = EDGE_CURVE ( 'NONE', #290, #303, #154, .T. ) ;
#274 = LINE ( 'NONE', #171, #127 ) ;
#275 = COORDINATED_UNIVERSAL_TIME_OFFSET ( 1, 0, .AHEAD. ) ;
#276 = DIRECTION ( 'NONE',  ( -3.491481338843133355E-15, 1.224646799147353454E-16, -1.000000000000000000 ) ) ;
#277 = AXIS2_PLACEMENT_3D ( 'NONE', #86, #189, #191 ) ;
#278 = ORIENTED_EDGE ( 'NONE', *, *, #331, .T. ) ;
#279 = EDGE_LOOP ( 'NONE', ( #19, #255, #201 ) ) ;
#280 = CIRCLE ( 'NONE', #88, 4.499999999999993783 ) ;
#281 = EDGE_CURVE ( 'NONE', #148, #179, #80, .T. ) ;
#282 = PERSON ( 'UNSPECIFIED', 'UNSPECIFIED', 'UNSPECIFIED', ('UNSPECIFIED'), ('UNSPECIFIED'), ('UNSPECIFIED') ) ;
#283 = CIRCLE ( 'NONE', #50, 3.700000000000000622 ) ;
#284 = ORIENTED_EDGE ( 'NONE', *, *, #322, .T. ) ;
#285 = EDGE_CURVE ( 'NONE', #17, #148, #286, .T. ) ;
#286 = LINE ( 'NONE', #55, #310 ) ;
#287 = APPLICATION_CONTEXT ( 'configuration controlled 3d designs of mechanical parts and assemblies' ) ;
#288 = ADVANCED_FACE ( 'NONE', ( #244 ), #213, .T. ) ;
#289 = CARTESIAN_POINT ( 'NONE',  ( 2.923899451149363601E-13, -3.700000000000010836, 84.00000000000000000 ) ) ;
#290 = VERTEX_POINT ( 'NONE', #83 ) ;
#291 = PRODUCT_DEFINITION_FORMATION_WITH_SPECIFIED_SOURCE ( 'ANY', '', #183, .NOT_KNOWN. ) ;
#292 = CARTESIAN_POINT ( 'NONE',  ( 2.904912473917487456E-13, 4.499999999999990230, 83.20000000000001705 ) ) ;
#293 = CARTESIAN_POINT ( 'NONE',  ( 1.012529588264508673E-13, 4.499999999999990230, 29.00000000000000000 ) ) ;
#294 = DIRECTION ( 'NONE',  ( -2.468850131082257455E-15, 0.7071067811865497932, -0.7071067811865453523 ) ) ;
#295 = LINE ( 'NONE', #296, #36 ) ;
#296 = CARTESIAN_POINT ( 'NONE',  ( 9.440521373612154214E-15, -4.499999999999990230, 2.703872785624044983 ) ) ;
#297 = COORDINATED_UNIVERSAL_TIME_OFFSET ( 1, 0, .AHEAD. ) ;
#298 = AXIS2_PLACEMENT_3D ( 'NONE', #227, #199, #30 ) ;
#299 = CARTESIAN_POINT ( 'NONE',  ( 1.012529588264508673E-13, -3.551475717527324818E-15, 29.00000000000000000 ) ) ;
#300 = DIRECTION ( 'NONE',  ( -3.423875456688426836E-31, -1.000000000000000000, -9.637352644315616197E-17 ) ) ;
#301 = CARTESIAN_POINT ( 'NONE',  ( 1.012529588264508673E-13, -3.551475717527324818E-15, 29.00000000000000000 ) ) ;
#302 = EDGE_LOOP ( 'NONE', ( #252, #87, #54, #33 ) ) ;
#303 = VERTEX_POINT ( 'NONE', #22 ) ;
#304 = ORIENTED_EDGE ( 'NONE', *, *, #207, .F. ) ;
#305 = AXIS2_PLACEMENT_3D ( 'NONE', #91, #186, #68 ) ;
#306 = DATE_AND_TIME ( #336, #11 ) ;
#307 = EDGE_CURVE ( 'NONE', #303, #290, #118, .T. ) ;
#308 = SHAPE_DEFINITION_REPRESENTATION ( #262, #7 ) ;
#309 = APPLICATION_PROTOCOL_DEFINITION ( 'international standard', 'config_control_design', 1994, #131 ) ;
#310 = VECTOR ( 'NONE', #141, 1000.000000000000114 ) ;
#311 = CC_DESIGN_PERSON_AND_ORGANIZATION_ASSIGNMENT ( #9, #258, ( #291 ) ) ;
#312 = CONICAL_SURFACE ( 'NONE', #181, 3.700000000000000622, 0.7853981633974512766 ) ;
#313 = LOCAL_TIME ( 9, 54, 29.00000000000000000, #65 ) ;
#314 = ADVANCED_FACE ( 'NONE', ( #113 ), #132, .T. ) ;
#315 = PERSON_AND_ORGANIZATION ( #282, #25 ) ;
#316 = DIRECTION ( 'NONE',  ( -3.491481338843133355E-15, 1.224646799147353454E-16, -1.000000000000000000 ) ) ;
#317 = ADVANCED_FACE ( 'NONE', ( #115 ), #28, .T. ) ;
#318 = VERTEX_POINT ( 'NONE', #293 ) ;
#319 = FACE_OUTER_BOUND ( 'NONE', #241, .T. ) ;
#320 = MANIFOLD_SOLID_BREP ( 'Corps-Déplacer/Copier1[1]', #180 ) ;
#321 = DIRECTION ( 'NONE',  ( 0.0000000000000000000, 1.000000000000000000, 0.0000000000000000000 ) ) ;
#322 = EDGE_CURVE ( 'NONE', #149, #257, #10, .T. ) ;
#323 = MANIFOLD_SOLID_BREP ( 'Corps-Déplacer/Copier1[2]', #197 ) ;
#324 = CALENDAR_DATE ( 2021, 3, 9 ) ;
#325 = CARTESIAN_POINT ( 'NONE',  ( 9.440521373612154214E-15, -3.311289152216125412E-16, 2.703872785624045427 ) ) ;
#326 = AXIS2_PLACEMENT_3D ( 'NONE', #264, #71, #145 ) ;
#327 = DIRECTION ( 'NONE',  ( 0.0000000000000000000, 1.000000000000000000, 0.0000000000000000000 ) ) ;
#328 = ORIENTED_EDGE ( 'NONE', *, *, #13, .F. ) ;
#329 = CARTESIAN_POINT ( 'NONE',  ( 5.510910596163066876E-16, -4.499999999999997335, -5.510910596163106319E-16 ) ) ;
#330 = CARTESIAN_POINT ( 'NONE',  ( 0.0000000000000000000, 0.0000000000000000000, 0.0000000000000000000 ) ) ;
#331 = EDGE_CURVE ( 'NONE', #148, #57, #220, .T. ) ;
#332 = DIRECTION ( 'NONE',  ( -3.491481338843133355E-15, 1.224646799147353454E-16, -1.000000000000000000 ) ) ;
#333 = FACE_OUTER_BOUND ( 'NONE', #302, .T. ) ;
#334 = APPROVAL_PERSON_ORGANIZATION ( #48, #228, #62 ) ;
#335 = APPROVAL_PERSON_ORGANIZATION ( #315, #90, #81 ) ;
#336 = CALENDAR_DATE ( 2021, 3, 9 ) ;
#337 = APPLICATION_PROTOCOL_DEFINITION ( 'international standard', 'config_control_design', 1994, #287 ) ;
ENDSEC;
END-ISO-10303-21;
