ISO-10303-21;
HEADER;
FILE_DESCRIPTION (( 'STEP AP203' ),
    '1' );
FILE_NAME ('54643.step',
    '2021-09-03T07:54:24',
    ( '' ),
    ( '' ),
    'SwSTEP 2.0',
    'SolidWorks 2019',
    '' );
FILE_SCHEMA (( 'CONFIG_CONTROL_DESIGN' ));
ENDSEC;

DATA;
#1 = VECTOR ( 'NONE', #20, 1000.000000000000000 ) ;
#2 = DATE_AND_TIME ( #312, #250 ) ;
#3 = ORIENTED_EDGE ( 'NONE', *, *, #227, .T. ) ;
#4 = ORIENTED_EDGE ( 'NONE', *, *, #204, .F. ) ;
#5 = CC_DESIGN_PERSON_AND_ORGANIZATION_ASSIGNMENT ( #49, #106, ( #88 ) ) ;
#6 = PERSON_AND_ORGANIZATION ( #58, #29 ) ;
#7 = CARTESIAN_POINT ( 'NONE',  ( 0.0000000000000000000, 0.0000000000000000000, 0.0000000000000000000 ) ) ;
#8 = DIRECTION ( 'NONE',  ( 0.0000000000000000000, 1.000000000000000000, 0.0000000000000000000 ) ) ;
#9 = CLOSED_SHELL ( 'NONE', ( #46, #184, #121, #103, #57 ) ) ;
#10 = CC_DESIGN_APPROVAL ( #35, ( #88 ) ) ;
#11 = DIRECTION ( 'NONE',  ( 3.491481338843133355E-15, -1.224646799147353207E-16, 1.000000000000000000 ) ) ;
#12 = EDGE_CURVE ( 'NONE', #132, #154, #72, .T. ) ;
#13 = AXIS2_PLACEMENT_3D ( 'NONE', #295, #247, #87 ) ;
#14 = FACE_OUTER_BOUND ( 'NONE', #93, .T. ) ;
#15 = FACE_OUTER_BOUND ( 'NONE', #100, .T. ) ;
#16 = ORIENTED_EDGE ( 'NONE', *, *, #12, .F. ) ;
#17 = DIRECTION ( 'NONE',  ( -3.491481338843133355E-15, 1.224646799147353207E-16, -1.000000000000000000 ) ) ;
#18 = DIRECTION ( 'NONE',  ( 0.0000000000000000000, 1.000000000000000000, 0.0000000000000000000 ) ) ;
#19 = DESIGN_CONTEXT ( 'detailed design', #319, 'design' ) ;
#20 = DIRECTION ( 'NONE',  ( -3.491481338843133355E-15, 1.224646799147353207E-16, -1.000000000000000000 ) ) ;
#21 = ORIENTED_EDGE ( 'NONE', *, *, #96, .T. ) ;
#22 = CARTESIAN_POINT ( 'NONE',  ( 2.758270257686075477E-13, -9.674709713264090904E-15, 79.00000000000000000 ) ) ;
#23 = EDGE_LOOP ( 'NONE', ( #113, #233 ) ) ;
#24 = PERSON_AND_ORGANIZATION_ROLE ( 'design_owner' ) ;
#25 = ORIENTED_EDGE ( 'NONE', *, *, #246, .F. ) ;
#26 = APPROVAL_ROLE ( '' ) ;
#27 = ORIENTED_EDGE ( 'NONE', *, *, #59, .T. ) ;
#28 = AXIS2_PLACEMENT_3D ( 'NONE', #221, #61, #38 ) ;
#29 = ORGANIZATION ( 'UNSPECIFIED', 'UNSPECIFIED', '' ) ;
#30 = DATE_AND_TIME ( #235, #65 ) ;
#31 = CARTESIAN_POINT ( 'NONE',  ( 2.758270257686075477E-13, 3.449999999999990852, 79.00000000000000000 ) ) ;
#32 = APPROVAL_ROLE ( '' ) ;
#33 = DIRECTION ( 'NONE',  ( 3.491481338843133355E-15, -1.224646799147353207E-16, 1.000000000000000000 ) ) ;
#34 = CARTESIAN_POINT ( 'NONE',  ( 9.426999614876460059E-14, 3.186989538156437837E-32, 27.00000000000000000 ) ) ;
#35 = APPROVAL ( #128, 'UNSPECIFIED' ) ;
#36 = EDGE_CURVE ( 'NONE', #154, #132, #275, .T. ) ;
#37 = CARTESIAN_POINT ( 'NONE',  ( 1.817228364506205963E-30, 4.249999999999996447, 5.204748896376247741E-16 ) ) ;
#38 = DIRECTION ( 'NONE',  ( 0.0000000000000000000, 1.000000000000000000, 0.0000000000000000000 ) ) ;
#39 = CARTESIAN_POINT ( 'NONE',  ( 0.0000000000000000000, 0.0000000000000000000, 0.0000000000000000000 ) ) ;
#40 = CC_DESIGN_PERSON_AND_ORGANIZATION_ASSIGNMENT ( #6, #107, ( #139 ) ) ;
#41 = LINE ( 'NONE', #116, #316 ) ;
#42 = UNCERTAINTY_MEASURE_WITH_UNIT (LENGTH_MEASURE( 1.000000000000000082E-05 ), #45, 'distance_accuracy_value', 'NONE');
#43 = CARTESIAN_POINT ( 'NONE',  ( 8.916047963967032958E-15, -3.127328643759672741E-16, 2.553657630867153472 ) ) ;
#44 = ORIENTED_EDGE ( 'NONE', *, *, #12, .T. ) ;
#45 =( LENGTH_UNIT ( ) NAMED_UNIT ( * ) SI_UNIT ( .MILLI., .METRE. ) );
#46 = ADVANCED_FACE ( 'NONE', ( #203 ), #68, .T. ) ;
#47 = DATE_AND_TIME ( #311, #262 ) ;
#48 = ORIENTED_EDGE ( 'NONE', *, *, #301, .F. ) ;
#49 = PERSON_AND_ORGANIZATION ( #58, #29 ) ;
#50 = PERSON_AND_ORGANIZATION ( #58, #29 ) ;
#51 = VERTEX_POINT ( 'NONE', #189 ) ;
#52 = CC_DESIGN_SECURITY_CLASSIFICATION ( #300, ( #139 ) ) ;
#53 = DIRECTION ( 'NONE',  ( 4.275831445896958607E-31, 1.000000000000000000, 1.224646799147353454E-16 ) ) ;
#54 = LINE ( 'NONE', #37, #160 ) ;
#55 = LINE ( 'NONE', #161, #56 ) ;
#56 = VECTOR ( 'NONE', #86, 999.9999999999998863 ) ;
#57 = ADVANCED_FACE ( 'NONE', ( #136 ), #164, .T. ) ;
#58 = PERSON ( 'UNSPECIFIED', 'UNSPECIFIED', 'UNSPECIFIED', ('UNSPECIFIED'), ('UNSPECIFIED'), ('UNSPECIFIED') ) ;
#59 = EDGE_CURVE ( 'NONE', #66, #236, #131, .T. ) ;
#60 = FACE_OUTER_BOUND ( 'NONE', #148, .T. ) ;
#61 = DIRECTION ( 'NONE',  ( -3.491481338843133355E-15, 1.224646799147353207E-16, -1.000000000000000000 ) ) ;
#62 = LINE ( 'NONE', #166, #1 ) ;
#63 = AXIS2_PLACEMENT_3D ( 'NONE', #98, #174, #303 ) ;
#64 = DIRECTION ( 'NONE',  ( -2.382254525458708792E-15, -0.7071067811865495711, -0.7071067811865455743 ) ) ;
#65 = LOCAL_TIME ( 9, 54, 24.00000000000000000, #239 ) ;
#66 = VERTEX_POINT ( 'NONE', #109 ) ;
#67 = CC_DESIGN_PERSON_AND_ORGANIZATION_ASSIGNMENT ( #280, #182, ( #139 ) ) ;
#68 = CYLINDRICAL_SURFACE ( 'NONE', #63, 4.249999999999992895 ) ;
#69 = DIRECTION ( 'NONE',  ( -3.491481338843133355E-15, 1.224646799147353207E-16, -1.000000000000000000 ) ) ;
#70 = ORIENTED_EDGE ( 'NONE', *, *, #227, .F. ) ;
#71 =( NAMED_UNIT ( * ) PLANE_ANGLE_UNIT ( ) SI_UNIT ( $, .RADIAN. ) );
#72 = CIRCLE ( 'NONE', #337, 4.249999999999994671 ) ;
#73 = ORIENTED_EDGE ( 'NONE', *, *, #288, .F. ) ;
#74 = PRODUCT ( '54643', '54643', '', ( #249 ) ) ;
#75 = APPROVAL_PERSON_ORGANIZATION ( #237, #35, #32 ) ;
#76 = DATE_AND_TIME ( #307, #225 ) ;
#77 = DIRECTION ( 'NONE',  ( 0.0000000000000000000, 1.000000000000000000, 0.0000000000000000000 ) ) ;
#78 = PERSON_AND_ORGANIZATION ( #58, #29 ) ;
#79 = VERTEX_POINT ( 'NONE', #31 ) ;
#80 = APPROVAL_DATE_TIME ( #2, #199 ) ;
#81 = CARTESIAN_POINT ( 'NONE',  ( 2.749019222507419653E-13, -3.450000000000009948, 79.00000000000000000 ) ) ;
#82 = AXIS2_PLACEMENT_3D ( 'NONE', #274, #226, #330 ) ;
#83 = DIRECTION ( 'NONE',  ( -3.491481338843133355E-15, 1.224646799147353207E-16, -1.000000000000000000 ) ) ;
#84 = DIRECTION ( 'NONE',  ( -3.491481338843133355E-15, 1.224646799147353207E-16, -1.000000000000000000 ) ) ;
#85 = EDGE_CURVE ( 'NONE', #224, #79, #305, .T. ) ;
#86 = DIRECTION ( 'NONE',  ( 1.903218546456022717E-15, 0.8571673007021097801, 0.5150380749100585964 ) ) ;
#87 = DIRECTION ( 'NONE',  ( 0.0000000000000000000, 1.000000000000000000, 0.0000000000000000000 ) ) ;
#88 = PRODUCT_DEFINITION ( 'UNKNOWN', '', #139, #19 ) ;
#89 = AXIS2_PLACEMENT_3D ( 'NONE', #268, #214, #8 ) ;
#90 = CARTESIAN_POINT ( 'NONE',  ( 2.730338406975330915E-13, 4.249999999999991118, 78.20000000000000284 ) ) ;
#91 = ADVANCED_FACE ( 'NONE', ( #14 ), #240, .T. ) ;
#92 = CARTESIAN_POINT ( 'NONE',  ( 1.841723933127864578E-13, -4.249999999999997335, 27.00000000000000000 ) ) ;
#93 = EDGE_LOOP ( 'NONE', ( #238, #181, #209, #192 ) ) ;
#94 = AXIS2_PLACEMENT_3D ( 'NONE', #172, #255, #169 ) ;
#95 = DIRECTION ( 'NONE',  ( -3.491481338843133355E-15, 1.224646799147353207E-16, -1.000000000000000000 ) ) ;
#96 = EDGE_CURVE ( 'NONE', #309, #51, #244, .T. ) ;
#97 = DIRECTION ( 'NONE',  ( -3.491481338843133355E-15, 1.224646799147353207E-16, -1.000000000000000000 ) ) ;
#98 = CARTESIAN_POINT ( 'NONE',  ( 0.0000000000000000000, 0.0000000000000000000, 0.0000000000000000000 ) ) ;
#99 = CARTESIAN_POINT ( 'NONE',  ( 1.817228364506204211E-30, 4.249999999999992895, 5.204748896376241824E-16 ) ) ;
#100 = EDGE_LOOP ( 'NONE', ( #48, #104, #129, #4 ) ) ;
#101 = PERSON_AND_ORGANIZATION ( #58, #29 ) ;
#102 = AXIS2_PLACEMENT_3D ( 'NONE', #157, #11, #293 ) ;
#103 = ADVANCED_FACE ( 'NONE', ( #15 ), #248, .T. ) ;
#104 = ORIENTED_EDGE ( 'NONE', *, *, #36, .T. ) ;
#105 = CC_DESIGN_APPROVAL ( #159, ( #139 ) ) ;
#106 = PERSON_AND_ORGANIZATION_ROLE ( 'creator' ) ;
#107 = PERSON_AND_ORGANIZATION_ROLE ( 'design_supplier' ) ;
#108 = DIRECTION ( 'NONE',  ( -3.491481338843133355E-15, 1.224646799147353207E-16, -1.000000000000000000 ) ) ;
#109 = CARTESIAN_POINT ( 'NONE',  ( 9.426999614876460059E-14, 4.249999999999991118, 27.00000000000000000 ) ) ;
#110 = MANIFOLD_SOLID_BREP ( 'Corps-Déplacer/Copier1[1]', #223 ) ;
#111 = CYLINDRICAL_SURFACE ( 'NONE', #328, 4.249999999999996447 ) ;
#112 = AXIS2_PLACEMENT_3D ( 'NONE', #251, #200, #228 ) ;
#113 = ORIENTED_EDGE ( 'NONE', *, *, #297, .F. ) ;
#114 = CARTESIAN_POINT ( 'NONE',  ( 8.916047963967031380E-15, -4.249999999999991118, 2.553657630867153028 ) ) ;
#115 = LINE ( 'NONE', #158, #173 ) ;
#116 = CARTESIAN_POINT ( 'NONE',  ( 5.204748896376224075E-16, -4.249999999999992895, -5.204748896376259574E-16 ) ) ;
#117 = CIRCLE ( 'NONE', #271, 4.249999999999991118 ) ;
#118 = FACE_OUTER_BOUND ( 'NONE', #292, .T. ) ;
#119 = EDGE_CURVE ( 'NONE', #309, #211, #55, .T. ) ;
#120 = CARTESIAN_POINT ( 'NONE',  ( 2.730338406975330915E-13, -9.576737969332302470E-15, 78.20000000000000284 ) ) ;
#121 = ADVANCED_FACE ( 'NONE', ( #289 ), #260, .T. ) ;
#122 = DIRECTION ( 'NONE',  ( -3.491481338843133355E-15, 1.224646799147353207E-16, -1.000000000000000000 ) ) ;
#123 =( NAMED_UNIT ( * ) SI_UNIT ( $, .STERADIAN. ) SOLID_ANGLE_UNIT ( ) );
#124 = AXIS2_PLACEMENT_3D ( 'NONE', #43, #229, #278 ) ;
#125 = DIRECTION ( 'NONE',  ( 0.0000000000000000000, 1.000000000000000000, 0.0000000000000000000 ) ) ;
#126 = APPLICATION_PROTOCOL_DEFINITION ( 'international standard', 'config_control_design', 1994, #216 ) ;
#127 = CC_DESIGN_DATE_AND_TIME_ASSIGNMENT ( #47, #334, ( #88 ) ) ;
#128 = APPROVAL_STATUS ( 'not_yet_approved' ) ;
#129 = ORIENTED_EDGE ( 'NONE', *, *, #246, .T. ) ;
#130 = COORDINATED_UNIVERSAL_TIME_OFFSET ( 1, 0, .AHEAD. ) ;
#131 = CIRCLE ( 'NONE', #28, 4.249999999999994671 ) ;
#132 = VERTEX_POINT ( 'NONE', #140 ) ;
#133 = CALENDAR_DATE ( 2021, 3, 9 ) ;
#134 = DIRECTION ( 'NONE',  ( 3.491481338843133355E-15, -1.224646799147353207E-16, 1.000000000000000000 ) ) ;
#135 = APPROVAL_DATE_TIME ( #30, #35 ) ;
#136 = FACE_OUTER_BOUND ( 'NONE', #210, .T. ) ;
#137 = EDGE_CURVE ( 'NONE', #259, #331, #291, .T. ) ;
#138 = DIRECTION ( 'NONE',  ( 0.0000000000000000000, 1.000000000000000000, 0.0000000000000000000 ) ) ;
#139 = PRODUCT_DEFINITION_FORMATION_WITH_SPECIFIED_SOURCE ( 'ANY', '', #74, .NOT_KNOWN. ) ;
#140 = CARTESIAN_POINT ( 'NONE',  ( 9.426999614876460059E-14, 4.249999999999991118, 27.00000000000000000 ) ) ;
#141 = ADVANCED_FACE ( 'NONE', ( #60 ), #111, .T. ) ;
#142 = CARTESIAN_POINT ( 'NONE',  ( 5.211349694600339856E-14, -4.249999999999997335, 27.00000000000000000 ) ) ;
#143 = DIRECTION ( 'NONE',  ( 1.000000000000000000, 0.0000000000000000000, 0.0000000000000000000 ) ) ;
#144 = LINE ( 'NONE', #99, #170 ) ;
#145 = CARTESIAN_POINT ( 'NONE',  ( 1.841723933127863568E-13, -4.250000000000009770, 78.20000000000000284 ) ) ;
#146 = EDGE_CURVE ( 'NONE', #259, #66, #54, .T. ) ;
#147 = ORIENTED_EDGE ( 'NONE', *, *, #96, .F. ) ;
#148 = EDGE_LOOP ( 'NONE', ( #73, #183, #234, #70 ) ) ;
#149 = CIRCLE ( 'NONE', #124, 4.249999999999991118 ) ;
#150 = DATE_TIME_ROLE ( 'classification_date' ) ;
#151 = EDGE_LOOP ( 'NONE', ( #231, #332, #270, #336 ) ) ;
#152 = PERSON_AND_ORGANIZATION ( #58, #29 ) ;
#153 = DATE_AND_TIME ( #133, #195 ) ;
#154 = VERTEX_POINT ( 'NONE', #142 ) ;
#155 = ORIENTED_EDGE ( 'NONE', *, *, #315, .T. ) ;
#156 = APPROVAL_PERSON_ORGANIZATION ( #152, #199, #26 ) ;
#157 = CARTESIAN_POINT ( 'NONE',  ( 8.916047963967032958E-15, -3.127328643759672741E-16, 2.553657630867153472 ) ) ;
#158 = CARTESIAN_POINT ( 'NONE',  ( 2.758270257686075477E-13, 3.449999999999990852, 79.00000000000000000 ) ) ;
#159 = APPROVAL ( #176, 'UNSPECIFIED' ) ;
#160 = VECTOR ( 'NONE', #84, 1000.000000000000000 ) ;
#161 = CARTESIAN_POINT ( 'NONE',  ( 9.436522853604658915E-15, 4.249999999999991118, 2.553657630867153916 ) ) ;
#162 = CC_DESIGN_DATE_AND_TIME_ASSIGNMENT ( #153, #150, ( #300 ) ) ;
#163 = AXIS2_PLACEMENT_3D ( 'NONE', #120, #17, #304 ) ;
#164 = PLANE ( 'NONE',  #193 ) ;
#165 = CARTESIAN_POINT ( 'NONE',  ( 8.916047963967032958E-15, -3.127328643759672741E-16, 2.553657630867153472 ) ) ;
#166 = CARTESIAN_POINT ( 'NONE',  ( 5.204748896376229005E-16, -4.249999999999996447, -5.204748896376264504E-16 ) ) ;
#167 = ORIENTED_EDGE ( 'NONE', *, *, #323, .T. ) ;
#168 = VECTOR ( 'NONE', #220, 1000.000000000000000 ) ;
#169 = DIRECTION ( 'NONE',  ( -4.275831445896958607E-31, -1.000000000000000000, -1.224646799147353207E-16 ) ) ;
#170 = VECTOR ( 'NONE', #302, 1000.000000000000000 ) ;
#171 = EDGE_LOOP ( 'NONE', ( #44, #178, #284, #25 ) ) ;
#172 = CARTESIAN_POINT ( 'NONE',  ( 9.426999614876460059E-14, 3.186989538156437837E-32, 27.00000000000000000 ) ) ;
#173 = VECTOR ( 'NONE', #287, 1000.000000000000114 ) ;
#174 = DIRECTION ( 'NONE',  ( -3.491481338843133355E-15, 1.224646799147353207E-16, -1.000000000000000000 ) ) ;
#175 = ORIENTED_EDGE ( 'NONE', *, *, #137, .F. ) ;
#176 = APPROVAL_STATUS ( 'not_yet_approved' ) ;
#177 = VECTOR ( 'NONE', #64, 1000.000000000000114 ) ;
#178 = ORIENTED_EDGE ( 'NONE', *, *, #301, .T. ) ;
#179 = EDGE_CURVE ( 'NONE', #79, #259, #115, .T. ) ;
#180 = APPROVAL_DATE_TIME ( #76, #159 ) ;
#181 = ORIENTED_EDGE ( 'NONE', *, *, #288, .T. ) ;
#182 = PERSON_AND_ORGANIZATION_ROLE ( 'creator' ) ;
#183 = ORIENTED_EDGE ( 'NONE', *, *, #308, .T. ) ;
#184 = ADVANCED_FACE ( 'NONE', ( #265 ), #218, .T. ) ;
#185 = SHAPE_DEFINITION_REPRESENTATION ( #190, #187 ) ;
#186 = EDGE_LOOP ( 'NONE', ( #285, #21, #253 ) ) ;
#187 = ADVANCED_BREP_SHAPE_REPRESENTATION ( '54643', ( #110, #222, #294 ), #245 ) ;
#188 = CARTESIAN_POINT ( 'NONE',  ( 9.426999614876460059E-14, -3.306546357697853733E-15, 27.00000000000000000 ) ) ;
#189 = CARTESIAN_POINT ( 'NONE',  ( 8.916047963967031380E-15, -4.249999999999991118, 2.553657630867153028 ) ) ;
#190 = PRODUCT_DEFINITION_SHAPE ( 'NONE', 'NONE',  #88 ) ;
#191 = DIRECTION ( 'NONE',  ( -3.491481338843133355E-15, 1.224646799147353207E-16, -1.000000000000000000 ) ) ;
#192 = ORIENTED_EDGE ( 'NONE', *, *, #146, .F. ) ;
#193 = AXIS2_PLACEMENT_3D ( 'NONE', #34, #33, #264 ) ;
#194 = ADVANCED_FACE ( 'NONE', ( #318 ), #267, .T. ) ;
#195 = LOCAL_TIME ( 9, 54, 24.00000000000000000, #282 ) ;
#196 = DIRECTION ( 'NONE',  ( -3.491481338843133355E-15, 1.224646799147353207E-16, -1.000000000000000000 ) ) ;
#197 = CARTESIAN_POINT ( 'NONE',  ( 0.0000000000000000000, 0.0000000000000000000, 0.0000000000000000000 ) ) ;
#198 = FACE_OUTER_BOUND ( 'NONE', #23, .T. ) ;
#199 = APPROVAL ( #258, 'UNSPECIFIED' ) ;
#200 = DIRECTION ( 'NONE',  ( -3.491481338843133355E-15, 1.224646799147353207E-16, -1.000000000000000000 ) ) ;
#201 = DIRECTION ( 'NONE',  ( -3.491481338843133355E-15, 1.224646799147353207E-16, -1.000000000000000000 ) ) ;
#202 = CC_DESIGN_APPROVAL ( #199, ( #300 ) ) ;
#203 = FACE_OUTER_BOUND ( 'NONE', #171, .T. ) ;
#204 = EDGE_CURVE ( 'NONE', #51, #211, #117, .T. ) ;
#205 = ORIENTED_EDGE ( 'NONE', *, *, #179, .F. ) ;
#206 = PLANE ( 'NONE',  #112 ) ;
#207 = ORIENTED_EDGE ( 'NONE', *, *, #119, .T. ) ;
#208 = COORDINATED_UNIVERSAL_TIME_OFFSET ( 1, 0, .AHEAD. ) ;
#209 = ORIENTED_EDGE ( 'NONE', *, *, #59, .F. ) ;
#210 = EDGE_LOOP ( 'NONE', ( #16, #313 ) ) ;
#211 = VERTEX_POINT ( 'NONE', #314 ) ;
#212 = PERSON_AND_ORGANIZATION_ROLE ( 'classification_officer' ) ;
#213 = DIRECTION ( 'NONE',  ( 3.625279895317157543E-31, 1.000000000000000000, 1.020425574104006341E-16 ) ) ;
#214 = DIRECTION ( 'NONE',  ( -3.491481338843133355E-15, 1.224646799147353207E-16, -1.000000000000000000 ) ) ;
#215 = APPROVAL_PERSON_ORGANIZATION ( #101, #159, #283 ) ;
#216 = APPLICATION_CONTEXT ( 'configuration controlled 3d designs of mechanical parts and assemblies' ) ;
#217 = CARTESIAN_POINT ( 'NONE',  ( 8.916047963967032958E-15, -3.127328643759672741E-16, 2.553657630867153472 ) ) ;
#218 = CONICAL_SURFACE ( 'NONE', #326, 4.249999999999991118, 1.029744258676649649 ) ;
#219 = CONICAL_SURFACE ( 'NONE', #256, 3.450000000000000178, 0.7853981633974512766 ) ;
#220 = DIRECTION ( 'NONE',  ( 1.798245827342160317E-15, -0.8571673007021098911, 0.5150380749100582634 ) ) ;
#221 = CARTESIAN_POINT ( 'NONE',  ( 9.426999614876460059E-14, -3.306546357697853733E-15, 27.00000000000000000 ) ) ;
#222 = MANIFOLD_SOLID_BREP ( 'Corps-Déplacer/Copier1[2]', #9 ) ;
#223 = CLOSED_SHELL ( 'NONE', ( #335, #91, #310, #141, #194, #286 ) ) ;
#224 = VERTEX_POINT ( 'NONE', #81 ) ;
#225 = LOCAL_TIME ( 9, 54, 24.00000000000000000, #208 ) ;
#226 = DIRECTION ( 'NONE',  ( -3.491481338843133355E-15, 1.224646799147353207E-16, -1.000000000000000000 ) ) ;
#227 = EDGE_CURVE ( 'NONE', #236, #66, #279, .T. ) ;
#228 = DIRECTION ( 'NONE',  ( 4.275831445896958607E-31, 1.000000000000000000, 1.224646799147353207E-16 ) ) ;
#229 = DIRECTION ( 'NONE',  ( -3.491481338843133355E-15, 1.224646799147353207E-16, -1.000000000000000000 ) ) ;
#230 = EDGE_LOOP ( 'NONE', ( #147, #207, #167 ) ) ;
#231 = ORIENTED_EDGE ( 'NONE', *, *, #315, .F. ) ;
#232 = AXIS2_PLACEMENT_3D ( 'NONE', #324, #191, #138 ) ;
#233 = ORIENTED_EDGE ( 'NONE', *, *, #85, .F. ) ;
#234 = ORIENTED_EDGE ( 'NONE', *, *, #146, .T. ) ;
#235 = CALENDAR_DATE ( 2021, 3, 9 ) ;
#236 = VERTEX_POINT ( 'NONE', #92 ) ;
#237 = PERSON_AND_ORGANIZATION ( #58, #29 ) ;
#238 = ORIENTED_EDGE ( 'NONE', *, *, #137, .T. ) ;
#239 = COORDINATED_UNIVERSAL_TIME_OFFSET ( 1, 0, .AHEAD. ) ;
#240 = CYLINDRICAL_SURFACE ( 'NONE', #321, 4.249999999999996447 ) ;
#241 = COORDINATED_UNIVERSAL_TIME_OFFSET ( 1, 0, .AHEAD. ) ;
#242 = DIRECTION ( 'NONE',  ( 4.275831445896958607E-31, 1.000000000000000000, 1.224646799147352961E-16 ) ) ;
#243 = CC_DESIGN_PERSON_AND_ORGANIZATION_ASSIGNMENT ( #78, #24, ( #74 ) ) ;
#244 = LINE ( 'NONE', #114, #168 ) ;
#245 =( GEOMETRIC_REPRESENTATION_CONTEXT ( 3 ) GLOBAL_UNCERTAINTY_ASSIGNED_CONTEXT ( ( #42 ) ) GLOBAL_UNIT_ASSIGNED_CONTEXT ( ( #45, #71, #123 ) ) REPRESENTATION_CONTEXT ( 'NONE', 'WORKASPACE' ) );
#246 = EDGE_CURVE ( 'NONE', #132, #211, #144, .T. ) ;
#247 = DIRECTION ( 'NONE',  ( -3.491481338843133355E-15, 1.224646799147353207E-16, -1.000000000000000000 ) ) ;
#248 = CYLINDRICAL_SURFACE ( 'NONE', #269, 4.249999999999992895 ) ;
#249 = MECHANICAL_CONTEXT ( 'NONE', #216, 'mechanical' ) ;
#250 = LOCAL_TIME ( 9, 54, 24.00000000000000000, #130 ) ;
#251 = CARTESIAN_POINT ( 'NONE',  ( 2.758270257686075477E-13, 2.587085625091690415E-32, 79.00000000000000000 ) ) ;
#252 = FACE_OUTER_BOUND ( 'NONE', #298, .T. ) ;
#253 = ORIENTED_EDGE ( 'NONE', *, *, #204, .T. ) ;
#254 = CARTESIAN_POINT ( 'NONE',  ( 9.426999614876460059E-14, -3.306546357697853733E-15, 27.00000000000000000 ) ) ;
#255 = DIRECTION ( 'NONE',  ( 3.491481338843133355E-15, -1.224646799147353207E-16, 1.000000000000000000 ) ) ;
#256 = AXIS2_PLACEMENT_3D ( 'NONE', #22, #69, #18 ) ;
#257 = APPLICATION_PROTOCOL_DEFINITION ( 'international standard', 'config_control_design', 1994, #319 ) ;
#258 = APPROVAL_STATUS ( 'not_yet_approved' ) ;
#259 = VERTEX_POINT ( 'NONE', #90 ) ;
#260 = CONICAL_SURFACE ( 'NONE', #102, 4.249999999999991118, 1.029744258676649649 ) ;
#261 = SECURITY_CLASSIFICATION_LEVEL ( 'unclassified' ) ;
#262 = LOCAL_TIME ( 9, 54, 24.00000000000000000, #241 ) ;
#263 = CARTESIAN_POINT ( 'NONE',  ( 9.426999614876460059E-14, -3.306546357697853733E-15, 27.00000000000000000 ) ) ;
#264 = DIRECTION ( 'NONE',  ( -4.275831445896958607E-31, -1.000000000000000000, -1.224646799147353207E-16 ) ) ;
#265 = FACE_OUTER_BOUND ( 'NONE', #230, .T. ) ;
#266 = AXIS2_PLACEMENT_3D ( 'NONE', #263, #122, #125 ) ;
#267 = CONICAL_SURFACE ( 'NONE', #13, 3.450000000000000178, 0.7853981633974512766 ) ;
#268 = CARTESIAN_POINT ( 'NONE',  ( 2.730338406975330915E-13, -9.576737969332302470E-15, 78.20000000000000284 ) ) ;
#269 = AXIS2_PLACEMENT_3D ( 'NONE', #7, #196, #242 ) ;
#270 = ORIENTED_EDGE ( 'NONE', *, *, #179, .T. ) ;
#271 = AXIS2_PLACEMENT_3D ( 'NONE', #165, #108, #213 ) ;
#272 = DIRECTION ( 'NONE',  ( 4.275831445896958607E-31, 1.000000000000000000, 1.224646799147353454E-16 ) ) ;
#273 = DIRECTION ( 'NONE',  ( 0.0000000000000000000, 0.0000000000000000000, 1.000000000000000000 ) ) ;
#274 = CARTESIAN_POINT ( 'NONE',  ( 2.758270257686075477E-13, -9.674709713264090904E-15, 79.00000000000000000 ) ) ;
#275 = CIRCLE ( 'NONE', #266, 4.249999999999994671 ) ;
#276 = CIRCLE ( 'NONE', #82, 3.450000000000000178 ) ;
#277 = PRODUCT_RELATED_PRODUCT_CATEGORY ( 'detail', '', ( #74 ) ) ;
#278 = DIRECTION ( 'NONE',  ( 3.625279895317157543E-31, 1.000000000000000000, 1.020425574104006341E-16 ) ) ;
#279 = CIRCLE ( 'NONE', #306, 4.249999999999994671 ) ;
#280 = PERSON_AND_ORGANIZATION ( #58, #29 ) ;
#281 = ORIENTED_EDGE ( 'NONE', *, *, #297, .T. ) ;
#282 = COORDINATED_UNIVERSAL_TIME_OFFSET ( 1, 0, .AHEAD. ) ;
#283 = APPROVAL_ROLE ( '' ) ;
#284 = ORIENTED_EDGE ( 'NONE', *, *, #323, .F. ) ;
#285 = ORIENTED_EDGE ( 'NONE', *, *, #119, .F. ) ;
#286 = ADVANCED_FACE ( 'NONE', ( #198 ), #206, .F. ) ;
#287 = DIRECTION ( 'NONE',  ( -2.468850131082257455E-15, 0.7071067811865497932, -0.7071067811865453523 ) ) ;
#288 = EDGE_CURVE ( 'NONE', #331, #236, #62, .T. ) ;
#289 = FACE_OUTER_BOUND ( 'NONE', #186, .T. ) ;
#290 = DIRECTION ( 'NONE',  ( -3.491481338843133355E-15, 1.224646799147353207E-16, -1.000000000000000000 ) ) ;
#291 = CIRCLE ( 'NONE', #89, 4.250000000000000000 ) ;
#292 = EDGE_LOOP ( 'NONE', ( #27, #3 ) ) ;
#293 = DIRECTION ( 'NONE',  ( -3.625279895317157543E-31, -1.000000000000000000, -1.020425574104006341E-16 ) ) ;
#294 = AXIS2_PLACEMENT_3D ( 'NONE', #333, #273, #143 ) ;
#295 = CARTESIAN_POINT ( 'NONE',  ( 2.758270257686075477E-13, -9.674709713264090904E-15, 79.00000000000000000 ) ) ;
#296 = DIRECTION ( 'NONE',  ( 0.0000000000000000000, 1.000000000000000000, 0.0000000000000000000 ) ) ;
#297 = EDGE_CURVE ( 'NONE', #79, #224, #276, .T. ) ;
#298 = EDGE_LOOP ( 'NONE', ( #281, #155, #175, #205 ) ) ;
#299 = CARTESIAN_POINT ( 'NONE',  ( 2.762495289143133600E-13, -3.450000000000009948, 79.00000000000000000 ) ) ;
#300 = SECURITY_CLASSIFICATION ( '', '', #261 ) ;
#301 = EDGE_CURVE ( 'NONE', #154, #51, #41, .T. ) ;
#302 = DIRECTION ( 'NONE',  ( -3.491481338843133355E-15, 1.224646799147353207E-16, -1.000000000000000000 ) ) ;
#303 = DIRECTION ( 'NONE',  ( 4.275831445896958607E-31, 1.000000000000000000, 1.224646799147352961E-16 ) ) ;
#304 = DIRECTION ( 'NONE',  ( 0.0000000000000000000, 1.000000000000000000, 0.0000000000000000000 ) ) ;
#305 = CIRCLE ( 'NONE', #232, 3.450000000000000178 ) ;
#306 = AXIS2_PLACEMENT_3D ( 'NONE', #188, #201, #296 ) ;
#307 = CALENDAR_DATE ( 2021, 3, 9 ) ;
#308 = EDGE_CURVE ( 'NONE', #331, #259, #322, .T. ) ;
#309 = VERTEX_POINT ( 'NONE', #39 ) ;
#310 = ADVANCED_FACE ( 'NONE', ( #118 ), #327, .F. ) ;
#311 = CALENDAR_DATE ( 2021, 3, 9 ) ;
#312 = CALENDAR_DATE ( 2021, 3, 9 ) ;
#313 = ORIENTED_EDGE ( 'NONE', *, *, #36, .F. ) ;
#314 = CARTESIAN_POINT ( 'NONE',  ( 9.436522853604658915E-15, 4.249999999999991118, 2.553657630867153916 ) ) ;
#315 = EDGE_CURVE ( 'NONE', #224, #331, #329, .T. ) ;
#316 = VECTOR ( 'NONE', #97, 1000.000000000000000 ) ;
#317 = CARTESIAN_POINT ( 'NONE',  ( 0.0000000000000000000, 0.0000000000000000000, 0.0000000000000000000 ) ) ;
#318 = FACE_OUTER_BOUND ( 'NONE', #151, .T. ) ;
#319 = APPLICATION_CONTEXT ( 'configuration controlled 3d designs of mechanical parts and assemblies' ) ;
#320 = CC_DESIGN_PERSON_AND_ORGANIZATION_ASSIGNMENT ( #50, #212, ( #300 ) ) ;
#321 = AXIS2_PLACEMENT_3D ( 'NONE', #197, #290, #53 ) ;
#322 = CIRCLE ( 'NONE', #163, 4.250000000000000000 ) ;
#323 = EDGE_CURVE ( 'NONE', #211, #51, #149, .T. ) ;
#324 = CARTESIAN_POINT ( 'NONE',  ( 2.758270257686075477E-13, -9.674709713264090904E-15, 79.00000000000000000 ) ) ;
#325 = DIRECTION ( 'NONE',  ( -3.625279895317157543E-31, -1.000000000000000000, -1.020425574104006341E-16 ) ) ;
#326 = AXIS2_PLACEMENT_3D ( 'NONE', #217, #134, #325 ) ;
#327 = PLANE ( 'NONE',  #94 ) ;
#328 = AXIS2_PLACEMENT_3D ( 'NONE', #317, #83, #272 ) ;
#329 = LINE ( 'NONE', #299, #177 ) ;
#330 = DIRECTION ( 'NONE',  ( 0.0000000000000000000, 1.000000000000000000, 0.0000000000000000000 ) ) ;
#331 = VERTEX_POINT ( 'NONE', #145 ) ;
#332 = ORIENTED_EDGE ( 'NONE', *, *, #85, .T. ) ;
#333 = CARTESIAN_POINT ( 'NONE',  ( 0.0000000000000000000, 0.0000000000000000000, 0.0000000000000000000 ) ) ;
#334 = DATE_TIME_ROLE ( 'creation_date' ) ;
#335 = ADVANCED_FACE ( 'NONE', ( #252 ), #219, .T. ) ;
#336 = ORIENTED_EDGE ( 'NONE', *, *, #308, .F. ) ;
#337 = AXIS2_PLACEMENT_3D ( 'NONE', #254, #95, #77 ) ;
ENDSEC;
END-ISO-10303-21;
