ISO-10303-21;
HEADER;
FILE_DESCRIPTION (( 'STEP AP203' ),
    '1' );
FILE_NAME ('54642.step',
    '2021-09-03T07:54:19',
    ( '' ),
    ( '' ),
    'SwSTEP 2.0',
    'SolidWorks 2019',
    '' );
FILE_SCHEMA (( 'CONFIG_CONTROL_DESIGN' ));
ENDSEC;

DATA;
#1 = CARTESIAN_POINT ( 'NONE',  ( 9.325504937679898222E-15, 4.199999999999991296, 2.523614599915775969 ) ) ;
#2 = EDGE_CURVE ( 'NONE', #135, #131, #216, .T. ) ;
#3 = CARTESIAN_POINT ( 'NONE',  ( 9.426999614876460059E-14, 3.149495543589892218E-32, 27.00000000000000000 ) ) ;
#4 = AXIS2_PLACEMENT_3D ( 'NONE', #228, #306, #146 ) ;
#5 = EDGE_LOOP ( 'NONE', ( #163, #233, #294 ) ) ;
#6 = ORIENTED_EDGE ( 'NONE', *, *, #60, .F. ) ;
#7 = ORIENTED_EDGE ( 'NONE', *, *, #246, .F. ) ;
#8 = VECTOR ( 'NONE', #302, 1000.000000000000000 ) ;
#9 = AXIS2_PLACEMENT_3D ( 'NONE', #20, #41, #95 ) ;
#10 = CC_DESIGN_DATE_AND_TIME_ASSIGNMENT ( #50, #275, ( #33 ) ) ;
#11 = VERTEX_POINT ( 'NONE', #320 ) ;
#12 = AXIS2_PLACEMENT_3D ( 'NONE', #68, #247, #181 ) ;
#13 = CONICAL_SURFACE ( 'NONE', #295, 4.199999999999991296, 1.029744258676649649 ) ;
#14 = ORIENTED_EDGE ( 'NONE', *, *, #52, .F. ) ;
#15 = CARTESIAN_POINT ( 'NONE',  ( 9.426999614876460059E-14, -3.306546357697853733E-15, 27.00000000000000000 ) ) ;
#16 = SECURITY_CLASSIFICATION_LEVEL ( 'unclassified' ) ;
#17 = CARTESIAN_POINT ( 'NONE',  ( 2.730338406975330915E-13, 4.199999999999991296, 78.20000000000000284 ) ) ;
#18 = DIRECTION ( 'NONE',  ( 1.000000000000000000, 0.0000000000000000000, 0.0000000000000000000 ) ) ;
#19 = PRODUCT_DEFINITION_FORMATION_WITH_SPECIFIED_SOURCE ( 'ANY', '', #35, .NOT_KNOWN. ) ;
#20 = CARTESIAN_POINT ( 'NONE',  ( 9.426999614876460059E-14, -3.306546357697853733E-15, 27.00000000000000000 ) ) ;
#21 = DIRECTION ( 'NONE',  ( 4.275831445896958607E-31, 1.000000000000000000, 1.224646799147353207E-16 ) ) ;
#22 = FACE_OUTER_BOUND ( 'NONE', #31, .T. ) ;
#23 = PERSON_AND_ORGANIZATION_ROLE ( 'creator' ) ;
#24 = DIRECTION ( 'NONE',  ( -3.491481338843133355E-15, 1.224646799147353207E-16, -1.000000000000000000 ) ) ;
#25 = APPROVAL_PERSON_ORGANIZATION ( #300, #266, #149 ) ;
#26 = CARTESIAN_POINT ( 'NONE',  ( 2.758270257686075477E-13, -9.674709713264090904E-15, 79.00000000000000000 ) ) ;
#27 = CYLINDRICAL_SURFACE ( 'NONE', #36, 4.199999999999997513 ) ;
#28 = VERTEX_POINT ( 'NONE', #119 ) ;
#29 = DIRECTION ( 'NONE',  ( -3.491481338843133355E-15, 1.224646799147353207E-16, -1.000000000000000000 ) ) ;
#30 = CIRCLE ( 'NONE', #165, 4.199999999999991296 ) ;
#31 = EDGE_LOOP ( 'NONE', ( #270, #63, #14, #143 ) ) ;
#32 = EDGE_LOOP ( 'NONE', ( #190, #325, #297, #245 ) ) ;
#33 = PRODUCT_DEFINITION ( 'UNKNOWN', '', #19, #241 ) ;
#34 = EDGE_CURVE ( 'NONE', #131, #82, #253, .T. ) ;
#35 = PRODUCT ( '54642', '54642', '', ( #147 ) ) ;
#36 = AXIS2_PLACEMENT_3D ( 'NONE', #287, #29, #133 ) ;
#37 = EDGE_CURVE ( 'NONE', #82, #263, #164, .T. ) ;
#38 = ORIENTED_EDGE ( 'NONE', *, *, #42, .T. ) ;
#39 = EDGE_LOOP ( 'NONE', ( #265, #191, #213, #112 ) ) ;
#40 =( GEOMETRIC_REPRESENTATION_CONTEXT ( 3 ) GLOBAL_UNCERTAINTY_ASSIGNED_CONTEXT ( ( #314 ) ) GLOBAL_UNIT_ASSIGNED_CONTEXT ( ( #280, #47, #255 ) ) REPRESENTATION_CONTEXT ( 'NONE', 'WORKASPACE' ) );
#41 = DIRECTION ( 'NONE',  ( -3.491481338843133355E-15, 1.224646799147353207E-16, -1.000000000000000000 ) ) ;
#42 = EDGE_CURVE ( 'NONE', #84, #141, #273, .T. ) ;
#43 = CARTESIAN_POINT ( 'NONE',  ( 8.811153282038007760E-15, -4.199999999999991296, 2.523614599915775081 ) ) ;
#44 = PERSON_AND_ORGANIZATION ( #115, #61 ) ;
#45 = CYLINDRICAL_SURFACE ( 'NONE', #110, 4.199999999999993072 ) ;
#46 = DIRECTION ( 'NONE',  ( -3.491481338843133355E-15, 1.224646799147353207E-16, -1.000000000000000000 ) ) ;
#47 =( NAMED_UNIT ( * ) PLANE_ANGLE_UNIT ( ) SI_UNIT ( $, .RADIAN. ) );
#48 = LINE ( 'NONE', #43, #8 ) ;
#49 = APPROVAL ( #125, 'UNSPECIFIED' ) ;
#50 = DATE_AND_TIME ( #96, #223 ) ;
#51 = LINE ( 'NONE', #232, #134 ) ;
#52 = EDGE_CURVE ( 'NONE', #215, #291, #64, .T. ) ;
#53 = CARTESIAN_POINT ( 'NONE',  ( 8.811153282038009338E-15, -3.090536542068382699E-16, 2.523614599915775525 ) ) ;
#54 = CIRCLE ( 'NONE', #259, 4.199999999999994849 ) ;
#55 = DIRECTION ( 'NONE',  ( -3.668437989309028221E-31, -1.000000000000000000, -1.032573497605244443E-16 ) ) ;
#56 = DIRECTION ( 'NONE',  ( -3.491481338843133355E-15, 1.224646799147353207E-16, -1.000000000000000000 ) ) ;
#57 = VECTOR ( 'NONE', #175, 1000.000000000000114 ) ;
#58 = ORIENTED_EDGE ( 'NONE', *, *, #70, .F. ) ;
#59 = VERTEX_POINT ( 'NONE', #335 ) ;
#60 = EDGE_CURVE ( 'NONE', #131, #135, #54, .T. ) ;
#61 = ORGANIZATION ( 'UNSPECIFIED', 'UNSPECIFIED', '' ) ;
#62 = EDGE_LOOP ( 'NONE', ( #58, #87 ) ) ;
#63 = ORIENTED_EDGE ( 'NONE', *, *, #142, .T. ) ;
#64 = CIRCLE ( 'NONE', #243, 4.199999999999994849 ) ;
#65 = LOCAL_TIME ( 9, 54, 19.00000000000000000, #229 ) ;
#66 = DIRECTION ( 'NONE',  ( -3.491481338843133355E-15, 1.224646799147353207E-16, -1.000000000000000000 ) ) ;
#67 = APPROVAL_STATUS ( 'not_yet_approved' ) ;
#68 = CARTESIAN_POINT ( 'NONE',  ( 8.811153282038009338E-15, -3.090536542068382699E-16, 2.523614599915775525 ) ) ;
#69 = CALENDAR_DATE ( 2021, 3, 9 ) ;
#70 = EDGE_CURVE ( 'NONE', #84, #11, #336, .T. ) ;
#71 = CARTESIAN_POINT ( 'NONE',  ( 2.758270257686075477E-13, 3.399999999999991029, 79.00000000000000000 ) ) ;
#72 = COORDINATED_UNIVERSAL_TIME_OFFSET ( 1, 0, .AHEAD. ) ;
#73 = APPROVAL_PERSON_ORGANIZATION ( #44, #49, #248 ) ;
#74 = CARTESIAN_POINT ( 'NONE',  ( 1.795849207276719497E-30, 4.199999999999993072, 5.143516556418874053E-16 ) ) ;
#75 = DATE_AND_TIME ( #305, #65 ) ;
#76 = DIRECTION ( 'NONE',  ( -3.491481338843133355E-15, 1.224646799147353207E-16, -1.000000000000000000 ) ) ;
#77 = MANIFOLD_SOLID_BREP ( 'Corps-Déplacer/Copier1[1]', #292 ) ;
#78 = APPROVAL_ROLE ( '' ) ;
#79 = FACE_OUTER_BOUND ( 'NONE', #5, .T. ) ;
#80 = DIRECTION ( 'NONE',  ( -3.491481338843133355E-15, 1.224646799147353207E-16, -1.000000000000000000 ) ) ;
#81 = FACE_OUTER_BOUND ( 'NONE', #109, .T. ) ;
#82 = VERTEX_POINT ( 'NONE', #277 ) ;
#83 = APPLICATION_CONTEXT ( 'configuration controlled 3d designs of mechanical parts and assemblies' ) ;
#84 = VERTEX_POINT ( 'NONE', #71 ) ;
#85 = PRODUCT_DEFINITION_SHAPE ( 'NONE', 'NONE',  #33 ) ;
#86 = CC_DESIGN_SECURITY_CLASSIFICATION ( #152, ( #19 ) ) ;
#87 = ORIENTED_EDGE ( 'NONE', *, *, #103, .F. ) ;
#88 = ORIENTED_EDGE ( 'NONE', *, *, #132, .F. ) ;
#89 = ADVANCED_FACE ( 'NONE', ( #330 ), #45, .T. ) ;
#90 = DIRECTION ( 'NONE',  ( -3.491481338843133355E-15, 1.224646799147353207E-16, -1.000000000000000000 ) ) ;
#91 = CIRCLE ( 'NONE', #9, 4.199999999999994849 ) ;
#92 = PERSON_AND_ORGANIZATION ( #115, #61 ) ;
#93 = DIRECTION ( 'NONE',  ( 4.275831445896958607E-31, 1.000000000000000000, 1.224646799147352961E-16 ) ) ;
#94 = EDGE_CURVE ( 'NONE', #135, #263, #100, .T. ) ;
#95 = DIRECTION ( 'NONE',  ( 0.0000000000000000000, 1.000000000000000000, 0.0000000000000000000 ) ) ;
#96 = CALENDAR_DATE ( 2021, 3, 9 ) ;
#97 = CC_DESIGN_PERSON_AND_ORGANIZATION_ASSIGNMENT ( #92, #23, ( #33 ) ) ;
#98 = DIRECTION ( 'NONE',  ( -3.491481338843133355E-15, 1.224646799147353207E-16, -1.000000000000000000 ) ) ;
#99 = CONICAL_SURFACE ( 'NONE', #114, 3.400000000000000799, 0.7853981633974512766 ) ;
#100 = LINE ( 'NONE', #74, #298 ) ;
#101 = APPROVAL_DATE_TIME ( #182, #192 ) ;
#102 = FACE_OUTER_BOUND ( 'NONE', #214, .T. ) ;
#103 = EDGE_CURVE ( 'NONE', #11, #84, #158, .T. ) ;
#104 = CYLINDRICAL_SURFACE ( 'NONE', #285, 4.199999999999993072 ) ;
#105 = DIRECTION ( 'NONE',  ( 0.0000000000000000000, 1.000000000000000000, 0.0000000000000000000 ) ) ;
#106 = AXIS2_PLACEMENT_3D ( 'NONE', #282, #157, #283 ) ;
#107 = ORIENTED_EDGE ( 'NONE', *, *, #37, .F. ) ;
#108 = ORIENTED_EDGE ( 'NONE', *, *, #52, .T. ) ;
#109 = EDGE_LOOP ( 'NONE', ( #296, #6 ) ) ;
#110 = AXIS2_PLACEMENT_3D ( 'NONE', #326, #66, #93 ) ;
#111 = EDGE_CURVE ( 'NONE', #59, #82, #48, .T. ) ;
#112 = ORIENTED_EDGE ( 'NONE', *, *, #94, .F. ) ;
#113 = VECTOR ( 'NONE', #90, 1000.000000000000000 ) ;
#114 = AXIS2_PLACEMENT_3D ( 'NONE', #260, #24, #261 ) ;
#115 = PERSON ( 'UNSPECIFIED', 'UNSPECIFIED', 'UNSPECIFIED', ('UNSPECIFIED'), ('UNSPECIFIED'), ('UNSPECIFIED') ) ;
#116 = EDGE_LOOP ( 'NONE', ( #189, #242, #324 ) ) ;
#117 = DIRECTION ( 'NONE',  ( 0.0000000000000000000, 1.000000000000000000, 0.0000000000000000000 ) ) ;
#118 = PERSON_AND_ORGANIZATION_ROLE ( 'classification_officer' ) ;
#119 = CARTESIAN_POINT ( 'NONE',  ( 1.841662700787905582E-13, -4.200000000000010836, 78.20000000000000284 ) ) ;
#120 = EDGE_CURVE ( 'NONE', #141, #215, #179, .T. ) ;
#121 = PERSON_AND_ORGANIZATION ( #115, #61 ) ;
#122 = CARTESIAN_POINT ( 'NONE',  ( 5.143516556418862220E-16, -4.199999999999997513, -5.143516556418897719E-16 ) ) ;
#123 = FACE_OUTER_BOUND ( 'NONE', #218, .T. ) ;
#124 = CYLINDRICAL_SURFACE ( 'NONE', #185, 4.199999999999997513 ) ;
#125 = APPROVAL_STATUS ( 'not_yet_approved' ) ;
#126 = CIRCLE ( 'NONE', #293, 4.200000000000000178 ) ;
#127 = EDGE_CURVE ( 'NONE', #28, #141, #267, .T. ) ;
#128 = CARTESIAN_POINT ( 'NONE',  ( 1.841662700787906844E-13, -4.199999999999998401, 27.00000000000000000 ) ) ;
#129 = DIRECTION ( 'NONE',  ( 3.668437989309028221E-31, 1.000000000000000000, 1.032573497605244443E-16 ) ) ;
#130 = FACE_OUTER_BOUND ( 'NONE', #194, .T. ) ;
#131 = VERTEX_POINT ( 'NONE', #226 ) ;
#132 = EDGE_CURVE ( 'NONE', #141, #28, #126, .T. ) ;
#133 = DIRECTION ( 'NONE',  ( 4.275831445896958607E-31, 1.000000000000000000, 1.224646799147353207E-16 ) ) ;
#134 = VECTOR ( 'NONE', #184, 1000.000000000000114 ) ;
#135 = VERTEX_POINT ( 'NONE', #250 ) ;
#136 = DATE_AND_TIME ( #69, #244 ) ;
#137 = PRODUCT_RELATED_PRODUCT_CATEGORY ( 'detail', '', ( #35 ) ) ;
#138 = ORIENTED_EDGE ( 'NONE', *, *, #161, .T. ) ;
#139 = AXIS2_PLACEMENT_3D ( 'NONE', #200, #274, #281 ) ;
#140 = CONICAL_SURFACE ( 'NONE', #268, 4.199999999999991296, 1.029744258676649649 ) ;
#141 = VERTEX_POINT ( 'NONE', #17 ) ;
#142 = EDGE_CURVE ( 'NONE', #28, #291, #278, .T. ) ;
#143 = ORIENTED_EDGE ( 'NONE', *, *, #120, .F. ) ;
#144 = AXIS2_PLACEMENT_3D ( 'NONE', #332, #206, #18 ) ;
#145 = SHAPE_DEFINITION_REPRESENTATION ( #85, #254 ) ;
#146 = DIRECTION ( 'NONE',  ( -4.275831445896958607E-31, -1.000000000000000000, -1.224646799147353207E-16 ) ) ;
#147 = MECHANICAL_CONTEXT ( 'NONE', #83, 'mechanical' ) ;
#148 = CARTESIAN_POINT ( 'NONE',  ( 2.758270257686075477E-13, 3.399999999999991029, 79.00000000000000000 ) ) ;
#149 = APPROVAL_ROLE ( '' ) ;
#150 = CARTESIAN_POINT ( 'NONE',  ( 2.730338406975330915E-13, -9.576737969332302470E-15, 78.20000000000000284 ) ) ;
#151 = CC_DESIGN_DATE_AND_TIME_ASSIGNMENT ( #334, #221, ( #152 ) ) ;
#152 = SECURITY_CLASSIFICATION ( '', '', #16 ) ;
#153 = APPLICATION_PROTOCOL_DEFINITION ( 'international standard', 'config_control_design', 1994, #83 ) ;
#154 = CARTESIAN_POINT ( 'NONE',  ( 2.730338406975330915E-13, -9.576737969332302470E-15, 78.20000000000000284 ) ) ;
#155 = CARTESIAN_POINT ( 'NONE',  ( 9.426999614876460059E-14, -3.306546357697853733E-15, 27.00000000000000000 ) ) ;
#156 = PERSON_AND_ORGANIZATION_ROLE ( 'design_owner' ) ;
#157 = DIRECTION ( 'NONE',  ( -3.491481338843133355E-15, 1.224646799147353207E-16, -1.000000000000000000 ) ) ;
#158 = CIRCLE ( 'NONE', #139, 3.400000000000000799 ) ;
#159 = DIRECTION ( 'NONE',  ( -3.491481338843133355E-15, 1.224646799147353207E-16, -1.000000000000000000 ) ) ;
#160 = FACE_OUTER_BOUND ( 'NONE', #32, .T. ) ;
#161 = EDGE_CURVE ( 'NONE', #291, #215, #91, .T. ) ;
#162 = DIRECTION ( 'NONE',  ( 3.491481338843133355E-15, -1.224646799147353207E-16, 1.000000000000000000 ) ) ;
#163 = ORIENTED_EDGE ( 'NONE', *, *, #301, .F. ) ;
#164 = CIRCLE ( 'NONE', #12, 4.199999999999991296 ) ;
#165 = AXIS2_PLACEMENT_3D ( 'NONE', #53, #159, #129 ) ;
#166 = ORIENTED_EDGE ( 'NONE', *, *, #34, .F. ) ;
#167 = ADVANCED_FACE ( 'NONE', ( #22 ), #124, .T. ) ;
#168 = AXIS2_PLACEMENT_3D ( 'NONE', #154, #98, #308 ) ;
#169 = ORIENTED_EDGE ( 'NONE', *, *, #94, .T. ) ;
#170 = ADVANCED_FACE ( 'NONE', ( #123 ), #333, .F. ) ;
#171 = ORIENTED_EDGE ( 'NONE', *, *, #60, .T. ) ;
#172 = ORIENTED_EDGE ( 'NONE', *, *, #103, .T. ) ;
#173 = CLOSED_SHELL ( 'NONE', ( #89, #288, #276, #198, #204 ) ) ;
#174 = LOCAL_TIME ( 9, 54, 19.00000000000000000, #199 ) ;
#175 = DIRECTION ( 'NONE',  ( -2.468850131082257455E-15, 0.7071067811865497932, -0.7071067811865453523 ) ) ;
#176 = PERSON_AND_ORGANIZATION ( #115, #61 ) ;
#177 = DIRECTION ( 'NONE',  ( -3.491481338843133355E-15, 1.224646799147353207E-16, -1.000000000000000000 ) ) ;
#178 = APPLICATION_PROTOCOL_DEFINITION ( 'international standard', 'config_control_design', 1994, #187 ) ;
#179 = LINE ( 'NONE', #331, #240 ) ;
#180 = COORDINATED_UNIVERSAL_TIME_OFFSET ( 1, 0, .AHEAD. ) ;
#181 = DIRECTION ( 'NONE',  ( 3.668437989309028221E-31, 1.000000000000000000, 1.032573497605244443E-16 ) ) ;
#182 = DATE_AND_TIME ( #327, #174 ) ;
#183 = PLANE ( 'NONE',  #106 ) ;
#184 = DIRECTION ( 'NONE',  ( -2.382254525458708792E-15, -0.7071067811865495711, -0.7071067811865455743 ) ) ;
#185 = AXIS2_PLACEMENT_3D ( 'NONE', #202, #304, #21 ) ;
#186 = FACE_OUTER_BOUND ( 'NONE', #238, .T. ) ;
#187 = APPLICATION_CONTEXT ( 'configuration controlled 3d designs of mechanical parts and assemblies' ) ;
#188 = CARTESIAN_POINT ( 'NONE',  ( 8.811153282038009338E-15, -3.090536542068382699E-16, 2.523614599915775525 ) ) ;
#189 = ORIENTED_EDGE ( 'NONE', *, *, #111, .F. ) ;
#190 = ORIENTED_EDGE ( 'NONE', *, *, #142, .F. ) ;
#191 = ORIENTED_EDGE ( 'NONE', *, *, #34, .T. ) ;
#192 = APPROVAL ( #252, 'UNSPECIFIED' ) ;
#193 = LOCAL_TIME ( 9, 54, 19.00000000000000000, #72 ) ;
#194 = EDGE_LOOP ( 'NONE', ( #166, #171, #169, #107 ) ) ;
#195 = ORIENTED_EDGE ( 'NONE', *, *, #42, .F. ) ;
#196 = CARTESIAN_POINT ( 'NONE',  ( 5.143516556418857290E-16, -4.199999999999993072, -5.143516556418892789E-16 ) ) ;
#197 = VECTOR ( 'NONE', #76, 1000.000000000000000 ) ;
#198 = ADVANCED_FACE ( 'NONE', ( #130 ), #104, .T. ) ;
#199 = COORDINATED_UNIVERSAL_TIME_OFFSET ( 1, 0, .AHEAD. ) ;
#200 = CARTESIAN_POINT ( 'NONE',  ( 2.758270257686075477E-13, -9.674709713264090904E-15, 79.00000000000000000 ) ) ;
#201 = PERSON_AND_ORGANIZATION ( #115, #61 ) ;
#202 = CARTESIAN_POINT ( 'NONE',  ( 0.0000000000000000000, 0.0000000000000000000, 0.0000000000000000000 ) ) ;
#203 = CALENDAR_DATE ( 2021, 3, 9 ) ;
#204 = ADVANCED_FACE ( 'NONE', ( #81 ), #210, .T. ) ;
#205 = DIRECTION ( 'NONE',  ( 0.0000000000000000000, 1.000000000000000000, 0.0000000000000000000 ) ) ;
#206 = DIRECTION ( 'NONE',  ( 0.0000000000000000000, 0.0000000000000000000, 1.000000000000000000 ) ) ;
#207 = DIRECTION ( 'NONE',  ( -3.491481338843133355E-15, 1.224646799147353207E-16, -1.000000000000000000 ) ) ;
#208 = PERSON_AND_ORGANIZATION ( #115, #61 ) ;
#209 = DIRECTION ( 'NONE',  ( 4.275831445896958607E-31, 1.000000000000000000, 1.224646799147352961E-16 ) ) ;
#210 = PLANE ( 'NONE',  #211 ) ;
#211 = AXIS2_PLACEMENT_3D ( 'NONE', #3, #312, #310 ) ;
#212 = CARTESIAN_POINT ( 'NONE',  ( 8.811153282038009338E-15, -3.090536542068382699E-16, 2.523614599915775525 ) ) ;
#213 = ORIENTED_EDGE ( 'NONE', *, *, #311, .F. ) ;
#214 = EDGE_LOOP ( 'NONE', ( #289, #217, #88, #195 ) ) ;
#215 = VERTEX_POINT ( 'NONE', #231 ) ;
#216 = CIRCLE ( 'NONE', #313, 4.199999999999994849 ) ;
#217 = ORIENTED_EDGE ( 'NONE', *, *, #246, .T. ) ;
#218 = EDGE_LOOP ( 'NONE', ( #108, #138 ) ) ;
#219 = DIRECTION ( 'NONE',  ( 0.0000000000000000000, 1.000000000000000000, 0.0000000000000000000 ) ) ;
#220 = ADVANCED_FACE ( 'NONE', ( #102 ), #279, .T. ) ;
#221 = DATE_TIME_ROLE ( 'classification_date' ) ;
#222 = DIRECTION ( 'NONE',  ( -3.491481338843133355E-15, 1.224646799147353207E-16, -1.000000000000000000 ) ) ;
#223 = LOCAL_TIME ( 9, 54, 19.00000000000000000, #257 ) ;
#224 = PERSON_AND_ORGANIZATION_ROLE ( 'design_supplier' ) ;
#225 = DIRECTION ( 'NONE',  ( 0.0000000000000000000, 1.000000000000000000, 0.0000000000000000000 ) ) ;
#226 = CARTESIAN_POINT ( 'NONE',  ( 5.205492637104314967E-14, -4.199999999999998401, 27.00000000000000000 ) ) ;
#227 = APPROVAL_DATE_TIME ( #75, #49 ) ;
#228 = CARTESIAN_POINT ( 'NONE',  ( 9.426999614876460059E-14, 3.149495543589892218E-32, 27.00000000000000000 ) ) ;
#229 = COORDINATED_UNIVERSAL_TIME_OFFSET ( 1, 0, .AHEAD. ) ;
#230 = DIRECTION ( 'NONE',  ( 1.903218546456022717E-15, 0.8571673007021097801, 0.5150380749100585964 ) ) ;
#231 = CARTESIAN_POINT ( 'NONE',  ( 9.426999614876460059E-14, 4.199999999999991296, 27.00000000000000000 ) ) ;
#232 = CARTESIAN_POINT ( 'NONE',  ( 2.762434056803176623E-13, -3.400000000000010125, 79.00000000000000000 ) ) ;
#233 = ORIENTED_EDGE ( 'NONE', *, *, #111, .T. ) ;
#234 = CC_DESIGN_APPROVAL ( #266, ( #152 ) ) ;
#235 = FACE_OUTER_BOUND ( 'NONE', #62, .T. ) ;
#236 = DIRECTION ( 'NONE',  ( -3.491481338843133355E-15, 1.224646799147353207E-16, -1.000000000000000000 ) ) ;
#237 = ADVANCED_FACE ( 'NONE', ( #186 ), #99, .T. ) ;
#238 = EDGE_LOOP ( 'NONE', ( #7, #172, #38, #271 ) ) ;
#239 = APPROVAL_DATE_TIME ( #136, #266 ) ;
#240 = VECTOR ( 'NONE', #46, 1000.000000000000000 ) ;
#241 = DESIGN_CONTEXT ( 'detailed design', #187, 'design' ) ;
#242 = ORIENTED_EDGE ( 'NONE', *, *, #301, .T. ) ;
#243 = AXIS2_PLACEMENT_3D ( 'NONE', #15, #222, #219 ) ;
#244 = LOCAL_TIME ( 9, 54, 19.00000000000000000, #180 ) ;
#245 = ORIENTED_EDGE ( 'NONE', *, *, #161, .F. ) ;
#246 = EDGE_CURVE ( 'NONE', #11, #28, #51, .T. ) ;
#247 = DIRECTION ( 'NONE',  ( -3.491481338843133355E-15, 1.224646799147353207E-16, -1.000000000000000000 ) ) ;
#248 = APPROVAL_ROLE ( '' ) ;
#249 = DIRECTION ( 'NONE',  ( -3.491481338843133355E-15, 1.224646799147353207E-16, -1.000000000000000000 ) ) ;
#250 = CARTESIAN_POINT ( 'NONE',  ( 9.426999614876460059E-14, 4.199999999999991296, 27.00000000000000000 ) ) ;
#251 = CC_DESIGN_APPROVAL ( #49, ( #19 ) ) ;
#252 = APPROVAL_STATUS ( 'not_yet_approved' ) ;
#253 = LINE ( 'NONE', #196, #113 ) ;
#254 = ADVANCED_BREP_SHAPE_REPRESENTATION ( '54642', ( #77, #307, #144 ), #40 ) ;
#255 =( NAMED_UNIT ( * ) SI_UNIT ( $, .STERADIAN. ) SOLID_ANGLE_UNIT ( ) );
#256 = DIRECTION ( 'NONE',  ( -3.491481338843133355E-15, 1.224646799147353207E-16, -1.000000000000000000 ) ) ;
#257 = COORDINATED_UNIVERSAL_TIME_OFFSET ( 1, 0, .AHEAD. ) ;
#258 = CARTESIAN_POINT ( 'NONE',  ( 0.0000000000000000000, 0.0000000000000000000, 0.0000000000000000000 ) ) ;
#259 = AXIS2_PLACEMENT_3D ( 'NONE', #155, #177, #117 ) ;
#260 = CARTESIAN_POINT ( 'NONE',  ( 2.758270257686075477E-13, -9.674709713264090904E-15, 79.00000000000000000 ) ) ;
#261 = DIRECTION ( 'NONE',  ( 0.0000000000000000000, 1.000000000000000000, 0.0000000000000000000 ) ) ;
#262 = DIRECTION ( 'NONE',  ( -3.668437989309028221E-31, -1.000000000000000000, -1.032573497605244443E-16 ) ) ;
#263 = VERTEX_POINT ( 'NONE', #286 ) ;
#264 = CC_DESIGN_APPROVAL ( #192, ( #33 ) ) ;
#265 = ORIENTED_EDGE ( 'NONE', *, *, #2, .T. ) ;
#266 = APPROVAL ( #67, 'UNSPECIFIED' ) ;
#267 = CIRCLE ( 'NONE', #168, 4.200000000000000178 ) ;
#268 = AXIS2_PLACEMENT_3D ( 'NONE', #212, #162, #262 ) ;
#269 = CC_DESIGN_PERSON_AND_ORGANIZATION_ASSIGNMENT ( #303, #118, ( #152 ) ) ;
#270 = ORIENTED_EDGE ( 'NONE', *, *, #132, .T. ) ;
#271 = ORIENTED_EDGE ( 'NONE', *, *, #127, .F. ) ;
#272 = AXIS2_PLACEMENT_3D ( 'NONE', #26, #80, #105 ) ;
#273 = LINE ( 'NONE', #148, #57 ) ;
#274 = DIRECTION ( 'NONE',  ( -3.491481338843133355E-15, 1.224646799147353207E-16, -1.000000000000000000 ) ) ;
#275 = DATE_TIME_ROLE ( 'creation_date' ) ;
#276 = ADVANCED_FACE ( 'NONE', ( #79 ), #13, .T. ) ;
#277 = CARTESIAN_POINT ( 'NONE',  ( 8.811153282038007760E-15, -4.199999999999991296, 2.523614599915775081 ) ) ;
#278 = LINE ( 'NONE', #122, #197 ) ;
#279 = CONICAL_SURFACE ( 'NONE', #272, 3.400000000000000799, 0.7853981633974512766 ) ;
#280 =( LENGTH_UNIT ( ) NAMED_UNIT ( * ) SI_UNIT ( .MILLI., .METRE. ) );
#281 = DIRECTION ( 'NONE',  ( 0.0000000000000000000, 1.000000000000000000, 0.0000000000000000000 ) ) ;
#282 = CARTESIAN_POINT ( 'NONE',  ( 2.758270257686075477E-13, 2.549591630525144249E-32, 79.00000000000000000 ) ) ;
#283 = DIRECTION ( 'NONE',  ( 4.275831445896958607E-31, 1.000000000000000000, 1.224646799147353207E-16 ) ) ;
#284 = FACE_OUTER_BOUND ( 'NONE', #116, .T. ) ;
#285 = AXIS2_PLACEMENT_3D ( 'NONE', #258, #56, #209 ) ;
#286 = CARTESIAN_POINT ( 'NONE',  ( 9.325504937679898222E-15, 4.199999999999991296, 2.523614599915775969 ) ) ;
#287 = CARTESIAN_POINT ( 'NONE',  ( 0.0000000000000000000, 0.0000000000000000000, 0.0000000000000000000 ) ) ;
#288 = ADVANCED_FACE ( 'NONE', ( #284 ), #140, .T. ) ;
#289 = ORIENTED_EDGE ( 'NONE', *, *, #70, .T. ) ;
#290 = CC_DESIGN_PERSON_AND_ORGANIZATION_ASSIGNMENT ( #121, #224, ( #19 ) ) ;
#291 = VERTEX_POINT ( 'NONE', #128 ) ;
#292 = CLOSED_SHELL ( 'NONE', ( #220, #167, #170, #322, #237, #323 ) ) ;
#293 = AXIS2_PLACEMENT_3D ( 'NONE', #150, #256, #225 ) ;
#294 = ORIENTED_EDGE ( 'NONE', *, *, #37, .T. ) ;
#295 = AXIS2_PLACEMENT_3D ( 'NONE', #188, #337, #55 ) ;
#296 = ORIENTED_EDGE ( 'NONE', *, *, #2, .F. ) ;
#297 = ORIENTED_EDGE ( 'NONE', *, *, #120, .T. ) ;
#298 = VECTOR ( 'NONE', #207, 1000.000000000000000 ) ;
#299 = CARTESIAN_POINT ( 'NONE',  ( 2.758270257686075477E-13, -9.674709713264090904E-15, 79.00000000000000000 ) ) ;
#300 = PERSON_AND_ORGANIZATION ( #115, #61 ) ;
#301 = EDGE_CURVE ( 'NONE', #59, #263, #316, .T. ) ;
#302 = DIRECTION ( 'NONE',  ( 1.798245827342160317E-15, -0.8571673007021098911, 0.5150380749100582634 ) ) ;
#303 = PERSON_AND_ORGANIZATION ( #115, #61 ) ;
#304 = DIRECTION ( 'NONE',  ( -3.491481338843133355E-15, 1.224646799147353207E-16, -1.000000000000000000 ) ) ;
#305 = CALENDAR_DATE ( 2021, 3, 9 ) ;
#306 = DIRECTION ( 'NONE',  ( 3.491481338843133355E-15, -1.224646799147353207E-16, 1.000000000000000000 ) ) ;
#307 = MANIFOLD_SOLID_BREP ( 'Corps-Déplacer/Copier1[2]', #173 ) ;
#308 = DIRECTION ( 'NONE',  ( 0.0000000000000000000, 1.000000000000000000, 0.0000000000000000000 ) ) ;
#309 = PERSON_AND_ORGANIZATION_ROLE ( 'creator' ) ;
#310 = DIRECTION ( 'NONE',  ( -4.275831445896958607E-31, -1.000000000000000000, -1.224646799147353207E-16 ) ) ;
#311 = EDGE_CURVE ( 'NONE', #263, #82, #30, .T. ) ;
#312 = DIRECTION ( 'NONE',  ( 3.491481338843133355E-15, -1.224646799147353207E-16, 1.000000000000000000 ) ) ;
#313 = AXIS2_PLACEMENT_3D ( 'NONE', #317, #236, #319 ) ;
#314 = UNCERTAINTY_MEASURE_WITH_UNIT (LENGTH_MEASURE( 1.000000000000000082E-05 ), #280, 'distance_accuracy_value', 'NONE');
#315 = CC_DESIGN_PERSON_AND_ORGANIZATION_ASSIGNMENT ( #208, #156, ( #35 ) ) ;
#316 = LINE ( 'NONE', #1, #329 ) ;
#317 = CARTESIAN_POINT ( 'NONE',  ( 9.426999614876460059E-14, -3.306546357697853733E-15, 27.00000000000000000 ) ) ;
#318 = CC_DESIGN_PERSON_AND_ORGANIZATION_ASSIGNMENT ( #201, #309, ( #19 ) ) ;
#319 = DIRECTION ( 'NONE',  ( 0.0000000000000000000, 1.000000000000000000, 0.0000000000000000000 ) ) ;
#320 = CARTESIAN_POINT ( 'NONE',  ( 2.748957990167462677E-13, -3.400000000000010125, 79.00000000000000000 ) ) ;
#321 = APPROVAL_PERSON_ORGANIZATION ( #176, #192, #78 ) ;
#322 = ADVANCED_FACE ( 'NONE', ( #160 ), #27, .T. ) ;
#323 = ADVANCED_FACE ( 'NONE', ( #235 ), #183, .F. ) ;
#324 = ORIENTED_EDGE ( 'NONE', *, *, #311, .T. ) ;
#325 = ORIENTED_EDGE ( 'NONE', *, *, #127, .T. ) ;
#326 = CARTESIAN_POINT ( 'NONE',  ( 0.0000000000000000000, 0.0000000000000000000, 0.0000000000000000000 ) ) ;
#327 = CALENDAR_DATE ( 2021, 3, 9 ) ;
#328 = AXIS2_PLACEMENT_3D ( 'NONE', #299, #249, #205 ) ;
#329 = VECTOR ( 'NONE', #230, 999.9999999999998863 ) ;
#330 = FACE_OUTER_BOUND ( 'NONE', #39, .T. ) ;
#331 = CARTESIAN_POINT ( 'NONE',  ( 1.795849207276721599E-30, 4.199999999999997513, 5.143516556418879970E-16 ) ) ;
#332 = CARTESIAN_POINT ( 'NONE',  ( 0.0000000000000000000, 0.0000000000000000000, 0.0000000000000000000 ) ) ;
#333 = PLANE ( 'NONE',  #4 ) ;
#334 = DATE_AND_TIME ( #203, #193 ) ;
#335 = CARTESIAN_POINT ( 'NONE',  ( 0.0000000000000000000, 0.0000000000000000000, 0.0000000000000000000 ) ) ;
#336 = CIRCLE ( 'NONE', #328, 3.400000000000000799 ) ;
#337 = DIRECTION ( 'NONE',  ( 3.491481338843133355E-15, -1.224646799147353207E-16, 1.000000000000000000 ) ) ;
ENDSEC;
END-ISO-10303-21;
