ISO-10303-21;
HEADER;
FILE_DESCRIPTION (( 'STEP AP203' ),
    '1' );
FILE_NAME ('54641.step',
    '2021-09-03T07:54:14',
    ( '' ),
    ( '' ),
    'SwSTEP 2.0',
    'SolidWorks 2019',
    '' );
FILE_SCHEMA (( 'CONFIG_CONTROL_DESIGN' ));
ENDSEC;

DATA;
#1 =( LENGTH_UNIT ( ) NAMED_UNIT ( * ) SI_UNIT ( .MILLI., .METRE. ) );
#2 = FACE_OUTER_BOUND ( 'NONE', #220, .T. ) ;
#3 = DIRECTION ( 'NONE',  ( -3.491481338843133355E-15, 1.224646799147353207E-16, -1.000000000000000000 ) ) ;
#4 = EDGE_CURVE ( 'NONE', #174, #146, #191, .T. ) ;
#5 = AXIS2_PLACEMENT_3D ( 'NONE', #300, #3, #283 ) ;
#6 = DIRECTION ( 'NONE',  ( 3.712636037372993282E-31, 1.000000000000000000, 1.045014142154705463E-16 ) ) ;
#7 = ORIENTED_EDGE ( 'NONE', *, *, #55, .F. ) ;
#8 = APPROVAL_DATE_TIME ( #242, #99 ) ;
#9 = EDGE_LOOP ( 'NONE', ( #177, #320, #265, #65 ) ) ;
#10 = EDGE_CURVE ( 'NONE', #222, #43, #187, .T. ) ;
#11 = ORIENTED_EDGE ( 'NONE', *, *, #241, .F. ) ;
#12 = PERSON_AND_ORGANIZATION_ROLE ( 'design_owner' ) ;
#13 = ORIENTED_EDGE ( 'NONE', *, *, #55, .T. ) ;
#14 = ORIENTED_EDGE ( 'NONE', *, *, #103, .F. ) ;
#15 = COORDINATED_UNIVERSAL_TIME_OFFSET ( 1, 0, .AHEAD. ) ;
#16 = AXIS2_PLACEMENT_3D ( 'NONE', #138, #194, #31 ) ;
#17 = CALENDAR_DATE ( 2021, 3, 9 ) ;
#18 = FACE_OUTER_BOUND ( 'NONE', #246, .T. ) ;
#19 = CYLINDRICAL_SURFACE ( 'NONE', #193, 4.149999999999992362 ) ;
#20 = DIRECTION ( 'NONE',  ( -3.491481338843133355E-15, 1.224646799147353207E-16, -1.000000000000000000 ) ) ;
#21 = PERSON ( 'UNSPECIFIED', 'UNSPECIFIED', 'UNSPECIFIED', ('UNSPECIFIED'), ('UNSPECIFIED'), ('UNSPECIFIED') ) ;
#22 = DIRECTION ( 'NONE',  ( -3.491481338843133355E-15, 1.224646799147353207E-16, -1.000000000000000000 ) ) ;
#23 = AXIS2_PLACEMENT_3D ( 'NONE', #314, #337, #102 ) ;
#24 = PERSON_AND_ORGANIZATION_ROLE ( 'creator' ) ;
#25 = CARTESIAN_POINT ( 'NONE',  ( 8.706258600108985718E-15, -3.053744440377092165E-16, 2.493571568964396690 ) ) ;
#26 = CARTESIAN_POINT ( 'NONE',  ( 2.748896757827505701E-13, -3.350000000000009859, 79.00000000000000000 ) ) ;
#27 = APPLICATION_CONTEXT ( 'configuration controlled 3d designs of mechanical parts and assemblies' ) ;
#28 = DIRECTION ( 'NONE',  ( 4.275831445896958607E-31, 1.000000000000000000, 1.224646799147353207E-16 ) ) ;
#29 = CC_DESIGN_SECURITY_CLASSIFICATION ( #257, ( #101 ) ) ;
#30 = CARTESIAN_POINT ( 'NONE',  ( 8.706258600108984140E-15, -4.149999999999990585, 2.493571568964396246 ) ) ;
#31 = DIRECTION ( 'NONE',  ( -4.275831445896958607E-31, -1.000000000000000000, -1.224646799147353207E-16 ) ) ;
#32 = VECTOR ( 'NONE', #229, 1000.000000000000114 ) ;
#33 = CLOSED_SHELL ( 'NONE', ( #60, #151, #179, #97, #213, #126 ) ) ;
#34 = CALENDAR_DATE ( 2021, 3, 9 ) ;
#35 = CIRCLE ( 'NONE', #230, 3.350000000000000089 ) ;
#36 = EDGE_CURVE ( 'NONE', #204, #146, #297, .T. ) ;
#37 = VERTEX_POINT ( 'NONE', #125 ) ;
#38 = ORIENTED_EDGE ( 'NONE', *, *, #10, .F. ) ;
#39 = EDGE_CURVE ( 'NONE', #293, #37, #35, .T. ) ;
#40 = ORIENTED_EDGE ( 'NONE', *, *, #309, .T. ) ;
#41 = ORIENTED_EDGE ( 'NONE', *, *, #136, .F. ) ;
#42 = APPROVAL_STATUS ( 'not_yet_approved' ) ;
#43 = VERTEX_POINT ( 'NONE', #57 ) ;
#44 = CC_DESIGN_APPROVAL ( #54, ( #101 ) ) ;
#45 = DIRECTION ( 'NONE',  ( -3.491481338843133355E-15, 1.224646799147353207E-16, -1.000000000000000000 ) ) ;
#46 = EDGE_CURVE ( 'NONE', #83, #268, #76, .T. ) ;
#47 = CARTESIAN_POINT ( 'NONE',  ( 9.426999614876460059E-14, -3.306546357697853733E-15, 27.00000000000000000 ) ) ;
#48 = PERSON_AND_ORGANIZATION ( #21, #62 ) ;
#49 = LINE ( 'NONE', #238, #178 ) ;
#50 = FACE_OUTER_BOUND ( 'NONE', #295, .T. ) ;
#51 = CONICAL_SURFACE ( 'NONE', #336, 3.350000000000000089, 0.7853981633974512766 ) ;
#52 = DIRECTION ( 'NONE',  ( 0.0000000000000000000, 1.000000000000000000, 0.0000000000000000000 ) ) ;
#53 = DIRECTION ( 'NONE',  ( -3.491481338843133355E-15, 1.224646799147353207E-16, -1.000000000000000000 ) ) ;
#54 = APPROVAL ( #42, 'UNSPECIFIED' ) ;
#55 = EDGE_CURVE ( 'NONE', #43, #222, #189, .T. ) ;
#56 = AXIS2_PLACEMENT_3D ( 'NONE', #209, #53, #118 ) ;
#57 = CARTESIAN_POINT ( 'NONE',  ( 5.199635579608290079E-14, -4.149999999999997691, 27.00000000000000000 ) ) ;
#58 = VECTOR ( 'NONE', #211, 1000.000000000000000 ) ;
#59 = EDGE_LOOP ( 'NONE', ( #85, #226, #40 ) ) ;
#60 = ADVANCED_FACE ( 'NONE', ( #115 ), #86, .T. ) ;
#61 = ORIENTED_EDGE ( 'NONE', *, *, #39, .T. ) ;
#62 = ORGANIZATION ( 'UNSPECIFIED', 'UNSPECIFIED', '' ) ;
#63 = APPROVAL ( #127, 'UNSPECIFIED' ) ;
#64 = ORIENTED_EDGE ( 'NONE', *, *, #267, .F. ) ;
#65 = ORIENTED_EDGE ( 'NONE', *, *, #36, .F. ) ;
#66 = DIRECTION ( 'NONE',  ( -3.491481338843133355E-15, 1.224646799147353207E-16, -1.000000000000000000 ) ) ;
#67 = AXIS2_PLACEMENT_3D ( 'NONE', #166, #335, #232 ) ;
#68 = DIRECTION ( 'NONE',  ( -3.491481338843133355E-15, 1.224646799147353207E-16, -1.000000000000000000 ) ) ;
#69 = DATE_AND_TIME ( #329, #263 ) ;
#70 = DIRECTION ( 'NONE',  ( -3.491481338843133355E-15, 1.224646799147353207E-16, -1.000000000000000000 ) ) ;
#71 = CARTESIAN_POINT ( 'NONE',  ( 2.758270257686075477E-13, 3.349999999999990763, 79.00000000000000000 ) ) ;
#72 = PLANE ( 'NONE',  #78 ) ;
#73 = ADVANCED_FACE ( 'NONE', ( #171 ), #19, .T. ) ;
#74 = CARTESIAN_POINT ( 'NONE',  ( 2.730338406975330915E-13, -9.576737969332302470E-15, 78.20000000000000284 ) ) ;
#75 = APPROVAL_PERSON_ORGANIZATION ( #157, #63, #210 ) ;
#76 = CIRCLE ( 'NONE', #120, 4.149999999999990585 ) ;
#77 = LINE ( 'NONE', #105, #197 ) ;
#78 = AXIS2_PLACEMENT_3D ( 'NONE', #132, #45, #279 ) ;
#79 = ORIENTED_EDGE ( 'NONE', *, *, #311, .F. ) ;
#80 = CIRCLE ( 'NONE', #110, 4.150000000000000355 ) ;
#81 = ORIENTED_EDGE ( 'NONE', *, *, #285, .F. ) ;
#82 = CALENDAR_DATE ( 2021, 3, 9 ) ;
#83 = VERTEX_POINT ( 'NONE', #30 ) ;
#84 = PRODUCT_DEFINITION ( 'UNKNOWN', '', #101, #290 ) ;
#85 = ORIENTED_EDGE ( 'NONE', *, *, #108, .F. ) ;
#86 = CONICAL_SURFACE ( 'NONE', #5, 3.350000000000000089, 0.7853981633974512766 ) ;
#87 = APPROVAL_DATE_TIME ( #69, #63 ) ;
#88 = EDGE_LOOP ( 'NONE', ( #323, #149, #64, #81 ) ) ;
#89 = CYLINDRICAL_SURFACE ( 'NONE', #153, 4.149999999999997691 ) ;
#90 = SHAPE_DEFINITION_REPRESENTATION ( #168, #154 ) ;
#91 = DIRECTION ( 'NONE',  ( -3.491481338843133355E-15, 1.224646799147353207E-16, -1.000000000000000000 ) ) ;
#92 = PERSON_AND_ORGANIZATION_ROLE ( 'classification_officer' ) ;
#93 = AXIS2_PLACEMENT_3D ( 'NONE', #281, #306, #260 ) ;
#94 = DIRECTION ( 'NONE',  ( 3.491481338843133355E-15, -1.224646799147353207E-16, 1.000000000000000000 ) ) ;
#95 = DIRECTION ( 'NONE',  ( -3.491481338843133355E-15, 1.224646799147353207E-16, -1.000000000000000000 ) ) ;
#96 = CARTESIAN_POINT ( 'NONE',  ( 0.0000000000000000000, 0.0000000000000000000, 0.0000000000000000000 ) ) ;
#97 = ADVANCED_FACE ( 'NONE', ( #2 ), #308, .T. ) ;
#98 = CARTESIAN_POINT ( 'NONE',  ( 9.214487021755137529E-15, 4.149999999999990585, 2.493571568964397134 ) ) ;
#99 = APPROVAL ( #315, 'UNSPECIFIED' ) ;
#100 = CARTESIAN_POINT ( 'NONE',  ( 1.841601468447949616E-13, -4.149999999999997691, 27.00000000000000000 ) ) ;
#101 = PRODUCT_DEFINITION_FORMATION_WITH_SPECIFIED_SOURCE ( 'ANY', '', #165, .NOT_KNOWN. ) ;
#102 = DIRECTION ( 'NONE',  ( -3.712636037372993282E-31, -1.000000000000000000, -1.045014142154705463E-16 ) ) ;
#103 = EDGE_CURVE ( 'NONE', #293, #269, #144, .T. ) ;
#104 = VECTOR ( 'NONE', #91, 1000.000000000000000 ) ;
#105 = CARTESIAN_POINT ( 'NONE',  ( 9.214487021755137529E-15, 4.149999999999990585, 2.493571568964397134 ) ) ;
#106 = PERSON_AND_ORGANIZATION ( #21, #62 ) ;
#107 = ORIENTED_EDGE ( 'NONE', *, *, #251, .F. ) ;
#108 = EDGE_CURVE ( 'NONE', #291, #83, #167, .T. ) ;
#109 = ORIENTED_EDGE ( 'NONE', *, *, #309, .F. ) ;
#110 = AXIS2_PLACEMENT_3D ( 'NONE', #186, #233, #328 ) ;
#111 = PERSON_AND_ORGANIZATION ( #21, #62 ) ;
#112 = EDGE_LOOP ( 'NONE', ( #244, #271, #109, #316 ) ) ;
#113 = PERSON_AND_ORGANIZATION ( #21, #62 ) ;
#114 = ORIENTED_EDGE ( 'NONE', *, *, #4, .T. ) ;
#115 = FACE_OUTER_BOUND ( 'NONE', #88, .T. ) ;
#116 = CC_DESIGN_APPROVAL ( #63, ( #257 ) ) ;
#117 = COORDINATED_UNIVERSAL_TIME_OFFSET ( 1, 0, .AHEAD. ) ;
#118 = DIRECTION ( 'NONE',  ( 0.0000000000000000000, 1.000000000000000000, 0.0000000000000000000 ) ) ;
#119 = AXIS2_PLACEMENT_3D ( 'NONE', #150, #248, #52 ) ;
#120 = AXIS2_PLACEMENT_3D ( 'NONE', #312, #70, #131 ) ;
#121 = CARTESIAN_POINT ( 'NONE',  ( 5.082284216461495435E-16, -4.149999999999997691, -5.082284216461529948E-16 ) ) ;
#122 = MANIFOLD_SOLID_BREP ( 'Corps-Déplacer/Copier1[2]', #142 ) ;
#123 = APPLICATION_CONTEXT ( 'configuration controlled 3d designs of mechanical parts and assemblies' ) ;
#124 = LINE ( 'NONE', #121, #137 ) ;
#125 = CARTESIAN_POINT ( 'NONE',  ( 2.758270257686075477E-13, 3.349999999999990763, 79.00000000000000000 ) ) ;
#126 = ADVANCED_FACE ( 'NONE', ( #274 ), #72, .F. ) ;
#127 = APPROVAL_STATUS ( 'not_yet_approved' ) ;
#128 = CONICAL_SURFACE ( 'NONE', #282, 4.149999999999990585, 1.029744258676649649 ) ;
#129 = CARTESIAN_POINT ( 'NONE',  ( 9.426999614876460059E-14, 4.149999999999990585, 27.00000000000000000 ) ) ;
#130 = CC_DESIGN_DATE_AND_TIME_ASSIGNMENT ( #162, #234, ( #257 ) ) ;
#131 = DIRECTION ( 'NONE',  ( 3.712636037372993282E-31, 1.000000000000000000, 1.045014142154705463E-16 ) ) ;
#132 = CARTESIAN_POINT ( 'NONE',  ( 2.758270257686075477E-13, 2.512097635958597535E-32, 79.00000000000000000 ) ) ;
#133 = CARTESIAN_POINT ( 'NONE',  ( 9.426999614876460059E-14, -3.306546357697853733E-15, 27.00000000000000000 ) ) ;
#134 = UNCERTAINTY_MEASURE_WITH_UNIT (LENGTH_MEASURE( 1.000000000000000082E-05 ), #1, 'distance_accuracy_value', 'NONE');
#135 = DIRECTION ( 'NONE',  ( 1.903218546456022717E-15, 0.8571673007021097801, 0.5150380749100585964 ) ) ;
#136 = EDGE_CURVE ( 'NONE', #37, #293, #331, .T. ) ;
#137 = VECTOR ( 'NONE', #20, 1000.000000000000000 ) ;
#138 = CARTESIAN_POINT ( 'NONE',  ( 9.426999614876460059E-14, 3.112001549023344957E-32, 27.00000000000000000 ) ) ;
#139 = ADVANCED_FACE ( 'NONE', ( #50 ), #128, .T. ) ;
#140 = CARTESIAN_POINT ( 'NONE',  ( 8.706258600108985718E-15, -3.053744440377092165E-16, 2.493571568964396690 ) ) ;
#141 = CC_DESIGN_PERSON_AND_ORGANIZATION_ASSIGNMENT ( #250, #270, ( #101 ) ) ;
#142 = CLOSED_SHELL ( 'NONE', ( #208, #318, #139, #73, #299 ) ) ;
#143 = AXIS2_PLACEMENT_3D ( 'NONE', #133, #159, #280 ) ;
#144 = LINE ( 'NONE', #288, #32 ) ;
#145 = EDGE_LOOP ( 'NONE', ( #152, #114 ) ) ;
#146 = VERTEX_POINT ( 'NONE', #296 ) ;
#147 = CIRCLE ( 'NONE', #163, 4.150000000000000355 ) ;
#148 = APPLICATION_PROTOCOL_DEFINITION ( 'international standard', 'config_control_design', 1994, #123 ) ;
#149 = ORIENTED_EDGE ( 'NONE', *, *, #103, .T. ) ;
#150 = CARTESIAN_POINT ( 'NONE',  ( 9.426999614876460059E-14, -3.306546357697853733E-15, 27.00000000000000000 ) ) ;
#151 = ADVANCED_FACE ( 'NONE', ( #325 ), #89, .T. ) ;
#152 = ORIENTED_EDGE ( 'NONE', *, *, #277, .T. ) ;
#153 = AXIS2_PLACEMENT_3D ( 'NONE', #278, #276, #212 ) ;
#154 = ADVANCED_BREP_SHAPE_REPRESENTATION ( '54641', ( #239, #122, #93 ), #221 ) ;
#155 = CC_DESIGN_PERSON_AND_ORGANIZATION_ASSIGNMENT ( #327, #92, ( #257 ) ) ;
#156 = DIRECTION ( 'NONE',  ( -3.712636037372993282E-31, -1.000000000000000000, -1.045014142154705463E-16 ) ) ;
#157 = PERSON_AND_ORGANIZATION ( #21, #62 ) ;
#158 = DIRECTION ( 'NONE',  ( -3.491481338843133355E-15, 1.224646799147353207E-16, -1.000000000000000000 ) ) ;
#159 = DIRECTION ( 'NONE',  ( -3.491481338843133355E-15, 1.224646799147353207E-16, -1.000000000000000000 ) ) ;
#160 = CARTESIAN_POINT ( 'NONE',  ( 1.774470050047234432E-30, 4.149999999999992362, 5.082284216461506282E-16 ) ) ;
#161 = CC_DESIGN_PERSON_AND_ORGANIZATION_ASSIGNMENT ( #106, #12, ( #165 ) ) ;
#162 = DATE_AND_TIME ( #17, #185 ) ;
#163 = AXIS2_PLACEMENT_3D ( 'NONE', #74, #237, #333 ) ;
#164 = CARTESIAN_POINT ( 'NONE',  ( 9.426999614876460059E-14, 3.112001549023344957E-32, 27.00000000000000000 ) ) ;
#165 = PRODUCT ( '54641', '54641', '', ( #262 ) ) ;
#166 = CARTESIAN_POINT ( 'NONE',  ( 9.426999614876460059E-14, -3.306546357697853733E-15, 27.00000000000000000 ) ) ;
#167 = LINE ( 'NONE', #301, #58 ) ;
#168 = PRODUCT_DEFINITION_SHAPE ( 'NONE', 'NONE',  #84 ) ;
#169 = APPROVAL_PERSON_ORGANIZATION ( #332, #54, #324 ) ;
#170 = EDGE_CURVE ( 'NONE', #43, #83, #49, .T. ) ;
#171 = FACE_OUTER_BOUND ( 'NONE', #198, .T. ) ;
#172 = AXIS2_PLACEMENT_3D ( 'NONE', #47, #158, #254 ) ;
#173 = APPROVAL_ROLE ( '' ) ;
#174 = VERTEX_POINT ( 'NONE', #100 ) ;
#175 = ORIENTED_EDGE ( 'NONE', *, *, #285, .T. ) ;
#176 =( NAMED_UNIT ( * ) PLANE_ANGLE_UNIT ( ) SI_UNIT ( $, .RADIAN. ) );
#177 = ORIENTED_EDGE ( 'NONE', *, *, #267, .T. ) ;
#178 = VECTOR ( 'NONE', #66, 1000.000000000000000 ) ;
#179 = ADVANCED_FACE ( 'NONE', ( #183 ), #235, .F. ) ;
#180 = ORIENTED_EDGE ( 'NONE', *, *, #251, .T. ) ;
#181 = DATE_AND_TIME ( #231, #322 ) ;
#182 = ORIENTED_EDGE ( 'NONE', *, *, #39, .F. ) ;
#183 = FACE_OUTER_BOUND ( 'NONE', #145, .T. ) ;
#184 = CARTESIAN_POINT ( 'NONE',  ( 1.774470050047236534E-30, 4.149999999999997691, 5.082284216461512198E-16 ) ) ;
#185 = LOCAL_TIME ( 9, 54, 14.00000000000000000, #117 ) ;
#186 = CARTESIAN_POINT ( 'NONE',  ( 2.730338406975330915E-13, -9.576737969332302470E-15, 78.20000000000000284 ) ) ;
#187 = CIRCLE ( 'NONE', #143, 4.149999999999994138 ) ;
#188 = DIRECTION ( 'NONE',  ( -2.468850131082257455E-15, 0.7071067811865497932, -0.7071067811865453523 ) ) ;
#189 = CIRCLE ( 'NONE', #67, 4.149999999999994138 ) ;
#190 = CARTESIAN_POINT ( 'NONE',  ( 1.841601468447948858E-13, -4.150000000000009237, 78.20000000000000284 ) ) ;
#191 = CIRCLE ( 'NONE', #119, 4.149999999999994138 ) ;
#192 = PLANE ( 'NONE',  #16 ) ;
#193 = AXIS2_PLACEMENT_3D ( 'NONE', #96, #313, #28 ) ;
#194 = DIRECTION ( 'NONE',  ( 3.491481338843133355E-15, -1.224646799147353207E-16, 1.000000000000000000 ) ) ;
#195 = CC_DESIGN_PERSON_AND_ORGANIZATION_ASSIGNMENT ( #48, #24, ( #101 ) ) ;
#196 = DIRECTION ( 'NONE',  ( -3.491481338843133355E-15, 1.224646799147353207E-16, -1.000000000000000000 ) ) ;
#197 = VECTOR ( 'NONE', #135, 999.9999999999998863 ) ;
#198 = EDGE_LOOP ( 'NONE', ( #289, #13, #321, #224 ) ) ;
#199 = EDGE_CURVE ( 'NONE', #222, #268, #252, .T. ) ;
#200 = DATE_AND_TIME ( #82, #202 ) ;
#201 = ORIENTED_EDGE ( 'NONE', *, *, #46, .T. ) ;
#202 = LOCAL_TIME ( 9, 54, 14.00000000000000000, #319 ) ;
#203 = ORIENTED_EDGE ( 'NONE', *, *, #108, .T. ) ;
#204 = VERTEX_POINT ( 'NONE', #207 ) ;
#205 = APPROVAL_DATE_TIME ( #181, #54 ) ;
#206 = DIRECTION ( 'NONE',  ( -4.275831445896958607E-31, -1.000000000000000000, -1.224646799147353207E-16 ) ) ;
#207 = CARTESIAN_POINT ( 'NONE',  ( 2.730338406975330915E-13, 4.149999999999990585, 78.20000000000000284 ) ) ;
#208 = ADVANCED_FACE ( 'NONE', ( #256 ), #259, .T. ) ;
#209 = CARTESIAN_POINT ( 'NONE',  ( 2.758270257686075477E-13, -9.674709713264090904E-15, 79.00000000000000000 ) ) ;
#210 = APPROVAL_ROLE ( '' ) ;
#211 = DIRECTION ( 'NONE',  ( 1.798245827342160317E-15, -0.8571673007021098911, 0.5150380749100582634 ) ) ;
#212 = DIRECTION ( 'NONE',  ( 4.275831445896957731E-31, 1.000000000000000000, 1.224646799147352961E-16 ) ) ;
#213 = ADVANCED_FACE ( 'NONE', ( #18 ), #51, .T. ) ;
#214 = CONICAL_SURFACE ( 'NONE', #23, 4.149999999999990585, 1.029744258676649649 ) ;
#215 = DIRECTION ( 'NONE',  ( -3.491481338843133355E-15, 1.224646799147353207E-16, -1.000000000000000000 ) ) ;
#216 = CARTESIAN_POINT ( 'NONE',  ( 0.0000000000000000000, 0.0000000000000000000, 0.0000000000000000000 ) ) ;
#217 = CARTESIAN_POINT ( 'NONE',  ( 0.0000000000000000000, 0.0000000000000000000, 0.0000000000000000000 ) ) ;
#218 = CC_DESIGN_APPROVAL ( #99, ( #84 ) ) ;
#219 = FACE_OUTER_BOUND ( 'NONE', #59, .T. ) ;
#220 = EDGE_LOOP ( 'NONE', ( #11, #180, #266, #317 ) ) ;
#221 =( GEOMETRIC_REPRESENTATION_CONTEXT ( 3 ) GLOBAL_UNCERTAINTY_ASSIGNED_CONTEXT ( ( #134 ) ) GLOBAL_UNIT_ASSIGNED_CONTEXT ( ( #1, #176, #264 ) ) REPRESENTATION_CONTEXT ( 'NONE', 'WORKASPACE' ) );
#222 = VERTEX_POINT ( 'NONE', #129 ) ;
#223 = PERSON_AND_ORGANIZATION_ROLE ( 'creator' ) ;
#224 = ORIENTED_EDGE ( 'NONE', *, *, #46, .F. ) ;
#225 = DATE_TIME_ROLE ( 'creation_date' ) ;
#226 = ORIENTED_EDGE ( 'NONE', *, *, #311, .T. ) ;
#227 = CIRCLE ( 'NONE', #240, 4.149999999999990585 ) ;
#228 = EDGE_LOOP ( 'NONE', ( #38, #7 ) ) ;
#229 = DIRECTION ( 'NONE',  ( -2.382254525458708792E-15, -0.7071067811865495711, -0.7071067811865455743 ) ) ;
#230 = AXIS2_PLACEMENT_3D ( 'NONE', #236, #95, #307 ) ;
#231 = CALENDAR_DATE ( 2021, 3, 9 ) ;
#232 = DIRECTION ( 'NONE',  ( 0.0000000000000000000, 1.000000000000000000, 0.0000000000000000000 ) ) ;
#233 = DIRECTION ( 'NONE',  ( -3.491481338843133355E-15, 1.224646799147353207E-16, -1.000000000000000000 ) ) ;
#234 = DATE_TIME_ROLE ( 'classification_date' ) ;
#235 = PLANE ( 'NONE',  #243 ) ;
#236 = CARTESIAN_POINT ( 'NONE',  ( 2.758270257686075477E-13, -9.674709713264090904E-15, 79.00000000000000000 ) ) ;
#237 = DIRECTION ( 'NONE',  ( -3.491481338843133355E-15, 1.224646799147353207E-16, -1.000000000000000000 ) ) ;
#238 = CARTESIAN_POINT ( 'NONE',  ( 5.082284216461488532E-16, -4.149999999999992362, -5.082284216461523045E-16 ) ) ;
#239 = MANIFOLD_SOLID_BREP ( 'Corps-Déplacer/Copier1[1]', #33 ) ;
#240 = AXIS2_PLACEMENT_3D ( 'NONE', #140, #215, #6 ) ;
#241 = EDGE_CURVE ( 'NONE', #269, #174, #124, .T. ) ;
#242 = DATE_AND_TIME ( #34, #292 ) ;
#243 = AXIS2_PLACEMENT_3D ( 'NONE', #164, #334, #206 ) ;
#244 = ORIENTED_EDGE ( 'NONE', *, *, #10, .T. ) ;
#245 = COORDINATED_UNIVERSAL_TIME_OFFSET ( 1, 0, .AHEAD. ) ;
#246 = EDGE_LOOP ( 'NONE', ( #14, #61, #175, #107 ) ) ;
#247 = CC_DESIGN_DATE_AND_TIME_ASSIGNMENT ( #200, #225, ( #84 ) ) ;
#248 = DIRECTION ( 'NONE',  ( -3.491481338843133355E-15, 1.224646799147353207E-16, -1.000000000000000000 ) ) ;
#249 = APPROVAL_PERSON_ORGANIZATION ( #111, #99, #173 ) ;
#250 = PERSON_AND_ORGANIZATION ( #21, #62 ) ;
#251 = EDGE_CURVE ( 'NONE', #269, #204, #80, .T. ) ;
#252 = LINE ( 'NONE', #160, #104 ) ;
#253 = COORDINATED_UNIVERSAL_TIME_OFFSET ( 1, 0, .AHEAD. ) ;
#254 = DIRECTION ( 'NONE',  ( 0.0000000000000000000, 1.000000000000000000, 0.0000000000000000000 ) ) ;
#255 = DIRECTION ( 'NONE',  ( -3.491481338843133355E-15, 1.224646799147353207E-16, -1.000000000000000000 ) ) ;
#256 = FACE_OUTER_BOUND ( 'NONE', #112, .T. ) ;
#257 = SECURITY_CLASSIFICATION ( '', '', #275 ) ;
#258 = CARTESIAN_POINT ( 'NONE',  ( 2.758270257686075477E-13, -9.674709713264090904E-15, 79.00000000000000000 ) ) ;
#259 = CYLINDRICAL_SURFACE ( 'NONE', #305, 4.149999999999992362 ) ;
#260 = DIRECTION ( 'NONE',  ( 1.000000000000000000, 0.0000000000000000000, 0.0000000000000000000 ) ) ;
#261 = FACE_OUTER_BOUND ( 'NONE', #228, .T. ) ;
#262 = MECHANICAL_CONTEXT ( 'NONE', #27, 'mechanical' ) ;
#263 = LOCAL_TIME ( 9, 54, 14.00000000000000000, #253 ) ;
#264 =( NAMED_UNIT ( * ) SI_UNIT ( $, .STERADIAN. ) SOLID_ANGLE_UNIT ( ) );
#265 = ORIENTED_EDGE ( 'NONE', *, *, #277, .F. ) ;
#266 = ORIENTED_EDGE ( 'NONE', *, *, #36, .T. ) ;
#267 = EDGE_CURVE ( 'NONE', #204, #269, #147, .T. ) ;
#268 = VERTEX_POINT ( 'NONE', #98 ) ;
#269 = VERTEX_POINT ( 'NONE', #190 ) ;
#270 = PERSON_AND_ORGANIZATION_ROLE ( 'design_supplier' ) ;
#271 = ORIENTED_EDGE ( 'NONE', *, *, #170, .T. ) ;
#272 = DIRECTION ( 'NONE',  ( 4.275831445896958607E-31, 1.000000000000000000, 1.224646799147353207E-16 ) ) ;
#273 = VECTOR ( 'NONE', #188, 1000.000000000000114 ) ;
#274 = FACE_OUTER_BOUND ( 'NONE', #287, .T. ) ;
#275 = SECURITY_CLASSIFICATION_LEVEL ( 'unclassified' ) ;
#276 = DIRECTION ( 'NONE',  ( -3.491481338843133355E-15, 1.224646799147353207E-16, -1.000000000000000000 ) ) ;
#277 = EDGE_CURVE ( 'NONE', #146, #174, #298, .T. ) ;
#278 = CARTESIAN_POINT ( 'NONE',  ( 0.0000000000000000000, 0.0000000000000000000, 0.0000000000000000000 ) ) ;
#279 = DIRECTION ( 'NONE',  ( 4.275831445896958607E-31, 1.000000000000000000, 1.224646799147353207E-16 ) ) ;
#280 = DIRECTION ( 'NONE',  ( 0.0000000000000000000, 1.000000000000000000, 0.0000000000000000000 ) ) ;
#281 = CARTESIAN_POINT ( 'NONE',  ( 0.0000000000000000000, 0.0000000000000000000, 0.0000000000000000000 ) ) ;
#282 = AXIS2_PLACEMENT_3D ( 'NONE', #25, #94, #156 ) ;
#283 = DIRECTION ( 'NONE',  ( 0.0000000000000000000, 1.000000000000000000, 0.0000000000000000000 ) ) ;
#284 = APPLICATION_PROTOCOL_DEFINITION ( 'international standard', 'config_control_design', 1994, #27 ) ;
#285 = EDGE_CURVE ( 'NONE', #37, #204, #330, .T. ) ;
#286 = PRODUCT_RELATED_PRODUCT_CATEGORY ( 'detail', '', ( #165 ) ) ;
#287 = EDGE_LOOP ( 'NONE', ( #41, #182 ) ) ;
#288 = CARTESIAN_POINT ( 'NONE',  ( 2.762372824463218637E-13, -3.350000000000009859, 79.00000000000000000 ) ) ;
#289 = ORIENTED_EDGE ( 'NONE', *, *, #170, .F. ) ;
#290 = DESIGN_CONTEXT ( 'detailed design', #123, 'design' ) ;
#291 = VERTEX_POINT ( 'NONE', #216 ) ;
#292 = LOCAL_TIME ( 9, 54, 14.00000000000000000, #245 ) ;
#293 = VERTEX_POINT ( 'NONE', #26 ) ;
#294 = DIRECTION ( 'NONE',  ( 4.275831445896957731E-31, 1.000000000000000000, 1.224646799147352961E-16 ) ) ;
#295 = EDGE_LOOP ( 'NONE', ( #79, #203, #201 ) ) ;
#296 = CARTESIAN_POINT ( 'NONE',  ( 9.426999614876460059E-14, 4.149999999999990585, 27.00000000000000000 ) ) ;
#297 = LINE ( 'NONE', #184, #326 ) ;
#298 = CIRCLE ( 'NONE', #172, 4.149999999999994138 ) ;
#299 = ADVANCED_FACE ( 'NONE', ( #261 ), #192, .T. ) ;
#300 = CARTESIAN_POINT ( 'NONE',  ( 2.758270257686075477E-13, -9.674709713264090904E-15, 79.00000000000000000 ) ) ;
#301 = CARTESIAN_POINT ( 'NONE',  ( 8.706258600108984140E-15, -4.149999999999990585, 2.493571568964396246 ) ) ;
#302 = CC_DESIGN_PERSON_AND_ORGANIZATION_ASSIGNMENT ( #113, #223, ( #84 ) ) ;
#303 = CARTESIAN_POINT ( 'NONE',  ( 0.0000000000000000000, 0.0000000000000000000, 0.0000000000000000000 ) ) ;
#304 = DIRECTION ( 'NONE',  ( 0.0000000000000000000, 1.000000000000000000, 0.0000000000000000000 ) ) ;
#305 = AXIS2_PLACEMENT_3D ( 'NONE', #303, #68, #272 ) ;
#306 = DIRECTION ( 'NONE',  ( 0.0000000000000000000, 0.0000000000000000000, 1.000000000000000000 ) ) ;
#307 = DIRECTION ( 'NONE',  ( 0.0000000000000000000, 1.000000000000000000, 0.0000000000000000000 ) ) ;
#308 = CYLINDRICAL_SURFACE ( 'NONE', #310, 4.149999999999997691 ) ;
#309 = EDGE_CURVE ( 'NONE', #268, #83, #227, .T. ) ;
#310 = AXIS2_PLACEMENT_3D ( 'NONE', #217, #196, #294 ) ;
#311 = EDGE_CURVE ( 'NONE', #291, #268, #77, .T. ) ;
#312 = CARTESIAN_POINT ( 'NONE',  ( 8.706258600108985718E-15, -3.053744440377092165E-16, 2.493571568964396690 ) ) ;
#313 = DIRECTION ( 'NONE',  ( -3.491481338843133355E-15, 1.224646799147353207E-16, -1.000000000000000000 ) ) ;
#314 = CARTESIAN_POINT ( 'NONE',  ( 8.706258600108985718E-15, -3.053744440377092165E-16, 2.493571568964396690 ) ) ;
#315 = APPROVAL_STATUS ( 'not_yet_approved' ) ;
#316 = ORIENTED_EDGE ( 'NONE', *, *, #199, .F. ) ;
#317 = ORIENTED_EDGE ( 'NONE', *, *, #4, .F. ) ;
#318 = ADVANCED_FACE ( 'NONE', ( #219 ), #214, .T. ) ;
#319 = COORDINATED_UNIVERSAL_TIME_OFFSET ( 1, 0, .AHEAD. ) ;
#320 = ORIENTED_EDGE ( 'NONE', *, *, #241, .T. ) ;
#321 = ORIENTED_EDGE ( 'NONE', *, *, #199, .T. ) ;
#322 = LOCAL_TIME ( 9, 54, 14.00000000000000000, #15 ) ;
#323 = ORIENTED_EDGE ( 'NONE', *, *, #136, .T. ) ;
#324 = APPROVAL_ROLE ( '' ) ;
#325 = FACE_OUTER_BOUND ( 'NONE', #9, .T. ) ;
#326 = VECTOR ( 'NONE', #255, 1000.000000000000000 ) ;
#327 = PERSON_AND_ORGANIZATION ( #21, #62 ) ;
#328 = DIRECTION ( 'NONE',  ( 0.0000000000000000000, 1.000000000000000000, 0.0000000000000000000 ) ) ;
#329 = CALENDAR_DATE ( 2021, 3, 9 ) ;
#330 = LINE ( 'NONE', #71, #273 ) ;
#331 = CIRCLE ( 'NONE', #56, 3.350000000000000089 ) ;
#332 = PERSON_AND_ORGANIZATION ( #21, #62 ) ;
#333 = DIRECTION ( 'NONE',  ( 0.0000000000000000000, 1.000000000000000000, 0.0000000000000000000 ) ) ;
#334 = DIRECTION ( 'NONE',  ( 3.491481338843133355E-15, -1.224646799147353207E-16, 1.000000000000000000 ) ) ;
#335 = DIRECTION ( 'NONE',  ( -3.491481338843133355E-15, 1.224646799147353207E-16, -1.000000000000000000 ) ) ;
#336 = AXIS2_PLACEMENT_3D ( 'NONE', #258, #22, #304 ) ;
#337 = DIRECTION ( 'NONE',  ( 3.491481338843133355E-15, -1.224646799147353207E-16, 1.000000000000000000 ) ) ;
ENDSEC;
END-ISO-10303-21;
