ISO-10303-21;
HEADER;
FILE_DESCRIPTION (( 'STEP AP203' ),
    '1' );
FILE_NAME ('54640.step',
    '2021-09-03T07:54:08',
    ( '' ),
    ( '' ),
    'SwSTEP 2.0',
    'SolidWorks 2019',
    '' );
FILE_SCHEMA (( 'CONFIG_CONTROL_DESIGN' ));
ENDSEC;

DATA;
#1 = AXIS2_PLACEMENT_3D ( 'NONE', #281, #185, #111 ) ;
#2 = DIRECTION ( 'NONE',  ( -3.491481338843133355E-15, 1.224646799147353207E-16, -1.000000000000000000 ) ) ;
#3 = EDGE_CURVE ( 'NONE', #328, #187, #17, .T. ) ;
#4 = ADVANCED_BREP_SHAPE_REPRESENTATION ( '54640', ( #176, #63, #232 ), #97 ) ;
#5 = COORDINATED_UNIVERSAL_TIME_OFFSET ( 1, 0, .AHEAD. ) ;
#6 = VERTEX_POINT ( 'NONE', #275 ) ;
#7 = AXIS2_PLACEMENT_3D ( 'NONE', #24, #134, #110 ) ;
#8 = PERSON_AND_ORGANIZATION_ROLE ( 'classification_officer' ) ;
#9 = EDGE_LOOP ( 'NONE', ( #115, #138, #91, #272 ) ) ;
#10 = EDGE_LOOP ( 'NONE', ( #168, #33 ) ) ;
#11 = AXIS2_PLACEMENT_3D ( 'NONE', #153, #77, #21 ) ;
#12 = SECURITY_CLASSIFICATION_LEVEL ( 'unclassified' ) ;
#13 = CARTESIAN_POINT ( 'NONE',  ( 0.0000000000000000000, 0.0000000000000000000, 0.0000000000000000000 ) ) ;
#14 = PERSON_AND_ORGANIZATION ( #204, #143 ) ;
#15 = DIRECTION ( 'NONE',  ( 0.0000000000000000000, 1.000000000000000000, 0.0000000000000000000 ) ) ;
#16 = ADVANCED_FACE ( 'NONE', ( #100 ), #72, .F. ) ;
#17 = CIRCLE ( 'NONE', #288, 4.099999999999989875 ) ;
#18 = ORIENTED_EDGE ( 'NONE', *, *, #238, .T. ) ;
#19 = DIRECTION ( 'NONE',  ( -3.491481338843133355E-15, 1.224646799147353207E-16, -1.000000000000000000 ) ) ;
#20 = DIRECTION ( 'NONE',  ( 3.757912086609249938E-31, 1.000000000000000000, 1.057758217059031320E-16 ) ) ;
#21 = DIRECTION ( 'NONE',  ( -3.757912086609249938E-31, -1.000000000000000000, -1.057758217059031320E-16 ) ) ;
#22 = PERSON_AND_ORGANIZATION ( #204, #143 ) ;
#23 = DIRECTION ( 'NONE',  ( 0.0000000000000000000, 1.000000000000000000, 0.0000000000000000000 ) ) ;
#24 = CARTESIAN_POINT ( 'NONE',  ( 9.426999614876460059E-14, 3.074507554456798243E-32, 27.00000000000000000 ) ) ;
#25 = DIRECTION ( 'NONE',  ( 4.275831445896959482E-31, 1.000000000000000000, 1.224646799147353207E-16 ) ) ;
#26 = SECURITY_CLASSIFICATION ( '', '', #12 ) ;
#27 = CC_DESIGN_DATE_AND_TIME_ASSIGNMENT ( #209, #192, ( #290 ) ) ;
#28 = DATE_AND_TIME ( #312, #289 ) ;
#29 = EDGE_LOOP ( 'NONE', ( #193, #265, #195, #319 ) ) ;
#30 = PERSON_AND_ORGANIZATION_ROLE ( 'creator' ) ;
#31 = VERTEX_POINT ( 'NONE', #152 ) ;
#32 = AXIS2_PLACEMENT_3D ( 'NONE', #130, #306, #260 ) ;
#33 = ORIENTED_EDGE ( 'NONE', *, *, #211, .F. ) ;
#34 = ORIENTED_EDGE ( 'NONE', *, *, #323, .F. ) ;
#35 = AXIS2_PLACEMENT_3D ( 'NONE', #95, #144, #20 ) ;
#36 = APPROVAL_PERSON_ORGANIZATION ( #161, #212, #266 ) ;
#37 = CALENDAR_DATE ( 2021, 3, 9 ) ;
#38 = PRODUCT_RELATED_PRODUCT_CATEGORY ( 'detail', '', ( #88 ) ) ;
#39 = VERTEX_POINT ( 'NONE', #13 ) ;
#40 = COORDINATED_UNIVERSAL_TIME_OFFSET ( 1, 0, .AHEAD. ) ;
#41 = CARTESIAN_POINT ( 'NONE',  ( 8.601363918179960520E-15, -3.016952338685801137E-16, 2.463528538013018299 ) ) ;
#42 = CARTESIAN_POINT ( 'NONE',  ( 0.0000000000000000000, 0.0000000000000000000, 0.0000000000000000000 ) ) ;
#43 = EDGE_CURVE ( 'NONE', #125, #187, #268, .T. ) ;
#44 = APPROVAL_DATE_TIME ( #127, #70 ) ;
#45 = AXIS2_PLACEMENT_3D ( 'NONE', #98, #194, #223 ) ;
#46 = LINE ( 'NONE', #253, #231 ) ;
#47 = CARTESIAN_POINT ( 'NONE',  ( 1.841540236107992134E-13, -4.099999999999996980, 27.00000000000000000 ) ) ;
#48 = FACE_OUTER_BOUND ( 'NONE', #117, .T. ) ;
#49 = CIRCLE ( 'NONE', #1, 3.299999999999999378 ) ;
#50 = EDGE_CURVE ( 'NONE', #187, #328, #250, .T. ) ;
#51 = CARTESIAN_POINT ( 'NONE',  ( 9.426999614876460059E-14, -3.306546357697853733E-15, 27.00000000000000000 ) ) ;
#52 = DIRECTION ( 'NONE',  ( 4.275831445896959482E-31, 1.000000000000000000, 1.224646799147353207E-16 ) ) ;
#53 = APPROVAL_PERSON_ORGANIZATION ( #22, #70, #101 ) ;
#54 = DIRECTION ( 'NONE',  ( -3.491481338843133355E-15, 1.224646799147353207E-16, -1.000000000000000000 ) ) ;
#55 = AXIS2_PLACEMENT_3D ( 'NONE', #122, #322, #297 ) ;
#56 = CARTESIAN_POINT ( 'NONE',  ( 8.601363918179958942E-15, -4.099999999999989875, 2.463528538013017855 ) ) ;
#57 = CIRCLE ( 'NONE', #32, 4.099999999999999645 ) ;
#58 = APPLICATION_PROTOCOL_DEFINITION ( 'international standard', 'config_control_design', 1994, #331 ) ;
#59 = ORIENTED_EDGE ( 'NONE', *, *, #184, .F. ) ;
#60 = CC_DESIGN_APPROVAL ( #70, ( #26 ) ) ;
#61 = APPROVAL_STATUS ( 'not_yet_approved' ) ;
#62 = ORIENTED_EDGE ( 'NONE', *, *, #199, .T. ) ;
#63 = MANIFOLD_SOLID_BREP ( 'Corps-Déplacer/Copier1[2]', #273 ) ;
#64 = CC_DESIGN_PERSON_AND_ORGANIZATION_ASSIGNMENT ( #241, #8, ( #26 ) ) ;
#65 = PRODUCT_DEFINITION_SHAPE ( 'NONE', 'NONE',  #290 ) ;
#66 = ORIENTED_EDGE ( 'NONE', *, *, #3, .T. ) ;
#67 = DIRECTION ( 'NONE',  ( -3.491481338843133355E-15, 1.224646799147353207E-16, -1.000000000000000000 ) ) ;
#68 = CARTESIAN_POINT ( 'NONE',  ( 2.758270257686075477E-13, 2.474603641392050274E-32, 79.00000000000000000 ) ) ;
#69 = COORDINATED_UNIVERSAL_TIME_OFFSET ( 1, 0, .AHEAD. ) ;
#70 = APPROVAL ( #99, 'UNSPECIFIED' ) ;
#71 = DIRECTION ( 'NONE',  ( -3.491481338843133355E-15, 1.224646799147353207E-16, -1.000000000000000000 ) ) ;
#72 = PLANE ( 'NONE',  #126 ) ;
#73 = CIRCLE ( 'NONE', #245, 3.299999999999999378 ) ;
#74 = CYLINDRICAL_SURFACE ( 'NONE', #159, 4.099999999999996092 ) ;
#75 = DIRECTION ( 'NONE',  ( 4.275831445896958607E-31, 1.000000000000000000, 1.224646799147353207E-16 ) ) ;
#76 = CALENDAR_DATE ( 2021, 3, 9 ) ;
#77 = DIRECTION ( 'NONE',  ( 3.491481338843133355E-15, -1.224646799147353207E-16, 1.000000000000000000 ) ) ;
#78 = CLOSED_SHELL ( 'NONE', ( #327, #243, #313, #105, #301, #16 ) ) ;
#79 = VECTOR ( 'NONE', #81, 1000.000000000000000 ) ;
#80 = DIRECTION ( 'NONE',  ( 1.798245827342160317E-15, -0.8571673007021098911, 0.5150380749100582634 ) ) ;
#81 = DIRECTION ( 'NONE',  ( -3.491481338843133355E-15, 1.224646799147353207E-16, -1.000000000000000000 ) ) ;
#82 = ADVANCED_FACE ( 'NONE', ( #247 ), #216, .T. ) ;
#83 = CARTESIAN_POINT ( 'NONE',  ( 9.426999614876460059E-14, 4.099999999999989875, 27.00000000000000000 ) ) ;
#84 = CONICAL_SURFACE ( 'NONE', #316, 4.099999999999989875, 1.029744258676649649 ) ;
#85 = MECHANICAL_CONTEXT ( 'NONE', #310, 'mechanical' ) ;
#86 = ORIENTED_EDGE ( 'NONE', *, *, #3, .F. ) ;
#87 =( LENGTH_UNIT ( ) NAMED_UNIT ( * ) SI_UNIT ( .MILLI., .METRE. ) );
#88 = PRODUCT ( '54640', '54640', '', ( #85 ) ) ;
#89 = EDGE_LOOP ( 'NONE', ( #166, #120, #86, #150 ) ) ;
#90 = DIRECTION ( 'NONE',  ( 0.0000000000000000000, 0.0000000000000000000, 1.000000000000000000 ) ) ;
#91 = ORIENTED_EDGE ( 'NONE', *, *, #149, .F. ) ;
#92 = CIRCLE ( 'NONE', #259, 4.099999999999993427 ) ;
#93 = ORIENTED_EDGE ( 'NONE', *, *, #173, .F. ) ;
#94 = AXIS2_PLACEMENT_3D ( 'NONE', #104, #207, #75 ) ;
#95 = CARTESIAN_POINT ( 'NONE',  ( 8.601363918179960520E-15, -3.016952338685801137E-16, 2.463528538013018299 ) ) ;
#96 = DIRECTION ( 'NONE',  ( 4.275831445896958607E-31, 1.000000000000000000, 1.224646799147353207E-16 ) ) ;
#97 =( GEOMETRIC_REPRESENTATION_CONTEXT ( 3 ) GLOBAL_UNCERTAINTY_ASSIGNED_CONTEXT ( ( #235 ) ) GLOBAL_UNIT_ASSIGNED_CONTEXT ( ( #87, #124, #219 ) ) REPRESENTATION_CONTEXT ( 'NONE', 'WORKASPACE' ) );
#98 = CARTESIAN_POINT ( 'NONE',  ( 9.426999614876460059E-14, -3.306546357697853733E-15, 27.00000000000000000 ) ) ;
#99 = APPROVAL_STATUS ( 'not_yet_approved' ) ;
#100 = FACE_OUTER_BOUND ( 'NONE', #10, .T. ) ;
#101 = APPROVAL_ROLE ( '' ) ;
#102 = ORIENTED_EDGE ( 'NONE', *, *, #50, .F. ) ;
#103 = AXIS2_PLACEMENT_3D ( 'NONE', #180, #182, #23 ) ;
#104 = CARTESIAN_POINT ( 'NONE',  ( 0.0000000000000000000, 0.0000000000000000000, 0.0000000000000000000 ) ) ;
#105 = ADVANCED_FACE ( 'NONE', ( #146 ), #74, .T. ) ;
#106 = CARTESIAN_POINT ( 'NONE',  ( 9.103469105830375258E-15, 4.099999999999989875, 2.463528538013018743 ) ) ;
#107 = EDGE_CURVE ( 'NONE', #294, #174, #46, .T. ) ;
#108 = DIRECTION ( 'NONE',  ( -3.491481338843133355E-15, 1.224646799147353207E-16, -1.000000000000000000 ) ) ;
#109 = APPROVAL_PERSON_ORGANIZATION ( #295, #233, #285 ) ;
#110 = DIRECTION ( 'NONE',  ( -4.275831445896958607E-31, -1.000000000000000000, -1.224646799147353207E-16 ) ) ;
#111 = DIRECTION ( 'NONE',  ( 0.0000000000000000000, 1.000000000000000000, 0.0000000000000000000 ) ) ;
#112 = CC_DESIGN_SECURITY_CLASSIFICATION ( #26, ( #119 ) ) ;
#113 = DIRECTION ( 'NONE',  ( -2.382254525458708792E-15, -0.7071067811865495711, -0.7071067811865455743 ) ) ;
#114 = APPROVAL_DATE_TIME ( #171, #212 ) ;
#115 = ORIENTED_EDGE ( 'NONE', *, *, #156, .T. ) ;
#116 = ORIENTED_EDGE ( 'NONE', *, *, #107, .T. ) ;
#117 = EDGE_LOOP ( 'NONE', ( #172, #239, #210 ) ) ;
#118 = EDGE_LOOP ( 'NONE', ( #34, #62, #116, #314 ) ) ;
#119 = PRODUCT_DEFINITION_FORMATION_WITH_SPECIFIED_SOURCE ( 'ANY', '', #88, .NOT_KNOWN. ) ;
#120 = ORIENTED_EDGE ( 'NONE', *, *, #43, .T. ) ;
#121 = COORDINATED_UNIVERSAL_TIME_OFFSET ( 1, 0, .AHEAD. ) ;
#122 = CARTESIAN_POINT ( 'NONE',  ( 9.426999614876460059E-14, 3.074507554456798243E-32, 27.00000000000000000 ) ) ;
#123 = ADVANCED_FACE ( 'NONE', ( #128 ), #84, .T. ) ;
#124 =( NAMED_UNIT ( * ) PLANE_ANGLE_UNIT ( ) SI_UNIT ( $, .RADIAN. ) );
#125 = VERTEX_POINT ( 'NONE', #249 ) ;
#126 = AXIS2_PLACEMENT_3D ( 'NONE', #68, #196, #296 ) ;
#127 = DATE_AND_TIME ( #76, #201 ) ;
#128 = FACE_OUTER_BOUND ( 'NONE', #215, .T. ) ;
#129 = CARTESIAN_POINT ( 'NONE',  ( 9.426999614876460059E-14, -3.306546357697853733E-15, 27.00000000000000000 ) ) ;
#130 = CARTESIAN_POINT ( 'NONE',  ( 2.730338406975330915E-13, -9.576737969332302470E-15, 78.20000000000000284 ) ) ;
#131 = CARTESIAN_POINT ( 'NONE',  ( 2.730338406975330915E-13, 4.099999999999989875, 78.20000000000000284 ) ) ;
#132 = DIRECTION ( 'NONE',  ( -3.491481338843133355E-15, 1.224646799147353207E-16, -1.000000000000000000 ) ) ;
#133 = CC_DESIGN_PERSON_AND_ORGANIZATION_ASSIGNMENT ( #269, #30, ( #119 ) ) ;
#134 = DIRECTION ( 'NONE',  ( 3.491481338843133355E-15, -1.224646799147353207E-16, 1.000000000000000000 ) ) ;
#135 = CONICAL_SURFACE ( 'NONE', #139, 3.299999999999999378, 0.7853981633974512766 ) ;
#136 = LINE ( 'NONE', #106, #227 ) ;
#137 = DIRECTION ( 'NONE',  ( 0.0000000000000000000, 1.000000000000000000, 0.0000000000000000000 ) ) ;
#138 = ORIENTED_EDGE ( 'NONE', *, *, #323, .T. ) ;
#139 = AXIS2_PLACEMENT_3D ( 'NONE', #324, #67, #137 ) ;
#140 = PERSON_AND_ORGANIZATION_ROLE ( 'design_supplier' ) ;
#141 = VERTEX_POINT ( 'NONE', #47 ) ;
#142 = EDGE_LOOP ( 'NONE', ( #188, #318, #224, #102 ) ) ;
#143 = ORGANIZATION ( 'UNSPECIFIED', 'UNSPECIFIED', '' ) ;
#144 = DIRECTION ( 'NONE',  ( -3.491481338843133355E-15, 1.224646799147353207E-16, -1.000000000000000000 ) ) ;
#145 = CC_DESIGN_PERSON_AND_ORGANIZATION_ASSIGNMENT ( #14, #140, ( #119 ) ) ;
#146 = FACE_OUTER_BOUND ( 'NONE', #118, .T. ) ;
#147 = CARTESIAN_POINT ( 'NONE',  ( 8.601363918179960520E-15, -3.016952338685801137E-16, 2.463528538013018299 ) ) ;
#148 = CC_DESIGN_APPROVAL ( #233, ( #119 ) ) ;
#149 = EDGE_CURVE ( 'NONE', #174, #141, #92, .T. ) ;
#150 = ORIENTED_EDGE ( 'NONE', *, *, #287, .F. ) ;
#151 = COORDINATED_UNIVERSAL_TIME_OFFSET ( 1, 0, .AHEAD. ) ;
#152 = CARTESIAN_POINT ( 'NONE',  ( 1.841540236107990872E-13, -4.100000000000009415, 78.20000000000000284 ) ) ;
#153 = CARTESIAN_POINT ( 'NONE',  ( 8.601363918179960520E-15, -3.016952338685801137E-16, 2.463528538013018299 ) ) ;
#154 = DIRECTION ( 'NONE',  ( 0.0000000000000000000, 1.000000000000000000, 0.0000000000000000000 ) ) ;
#155 = CARTESIAN_POINT ( 'NONE',  ( 0.0000000000000000000, 0.0000000000000000000, 0.0000000000000000000 ) ) ;
#156 = EDGE_CURVE ( 'NONE', #294, #31, #226, .T. ) ;
#157 = LOCAL_TIME ( 9, 54, 8.000000000000000000, #121 ) ;
#158 = DIRECTION ( 'NONE',  ( 0.0000000000000000000, 1.000000000000000000, 0.0000000000000000000 ) ) ;
#159 = AXIS2_PLACEMENT_3D ( 'NONE', #42, #300, #96 ) ;
#160 = CYLINDRICAL_SURFACE ( 'NONE', #181, 4.099999999999991651 ) ;
#161 = PERSON_AND_ORGANIZATION ( #204, #143 ) ;
#162 = ORIENTED_EDGE ( 'NONE', *, *, #205, .F. ) ;
#163 = APPROVAL_DATE_TIME ( #28, #233 ) ;
#164 = ORIENTED_EDGE ( 'NONE', *, *, #149, .T. ) ;
#165 = CONICAL_SURFACE ( 'NONE', #103, 3.299999999999999378, 0.7853981633974512766 ) ;
#166 = ORIENTED_EDGE ( 'NONE', *, *, #173, .T. ) ;
#167 = CARTESIAN_POINT ( 'NONE',  ( 9.103469105830375258E-15, 4.099999999999989875, 2.463528538013018743 ) ) ;
#168 = ORIENTED_EDGE ( 'NONE', *, *, #238, .F. ) ;
#169 = APPLICATION_PROTOCOL_DEFINITION ( 'international standard', 'config_control_design', 1994, #310 ) ;
#170 = DIRECTION ( 'NONE',  ( 3.491481338843133355E-15, -1.224646799147353207E-16, 1.000000000000000000 ) ) ;
#171 = DATE_AND_TIME ( #37, #317 ) ;
#172 = ORIENTED_EDGE ( 'NONE', *, *, #298, .F. ) ;
#173 = EDGE_CURVE ( 'NONE', #263, #125, #213, .T. ) ;
#174 = VERTEX_POINT ( 'NONE', #83 ) ;
#175 = LOCAL_TIME ( 9, 54, 8.000000000000000000, #69 ) ;
#176 = MANIFOLD_SOLID_BREP ( 'Corps-Déplacer/Copier1[1]', #78 ) ;
#177 = EDGE_LOOP ( 'NONE', ( #18, #284, #311, #162 ) ) ;
#178 = FACE_OUTER_BOUND ( 'NONE', #89, .T. ) ;
#179 = ADVANCED_FACE ( 'NONE', ( #178 ), #160, .T. ) ;
#180 = CARTESIAN_POINT ( 'NONE',  ( 2.758270257686075477E-13, -9.674709713264090904E-15, 79.00000000000000000 ) ) ;
#181 = AXIS2_PLACEMENT_3D ( 'NONE', #277, #132, #25 ) ;
#182 = DIRECTION ( 'NONE',  ( -3.491481338843133355E-15, 1.224646799147353207E-16, -1.000000000000000000 ) ) ;
#183 = LINE ( 'NONE', #202, #332 ) ;
#184 = EDGE_CURVE ( 'NONE', #125, #263, #299, .T. ) ;
#185 = DIRECTION ( 'NONE',  ( -3.491481338843133355E-15, 1.224646799147353207E-16, -1.000000000000000000 ) ) ;
#186 = CC_DESIGN_PERSON_AND_ORGANIZATION_ASSIGNMENT ( #208, #283, ( #88 ) ) ;
#187 = VERTEX_POINT ( 'NONE', #56 ) ;
#188 = ORIENTED_EDGE ( 'NONE', *, *, #43, .F. ) ;
#189 = CC_DESIGN_PERSON_AND_ORGANIZATION_ASSIGNMENT ( #261, #321, ( #290 ) ) ;
#190 = EDGE_LOOP ( 'NONE', ( #93, #59 ) ) ;
#191 = ORIENTED_EDGE ( 'NONE', *, *, #298, .T. ) ;
#192 = DATE_TIME_ROLE ( 'creation_date' ) ;
#193 = ORIENTED_EDGE ( 'NONE', *, *, #335, .F. ) ;
#194 = DIRECTION ( 'NONE',  ( -3.491481338843133355E-15, 1.224646799147353207E-16, -1.000000000000000000 ) ) ;
#195 = ORIENTED_EDGE ( 'NONE', *, *, #205, .T. ) ;
#196 = DIRECTION ( 'NONE',  ( -3.491481338843133355E-15, 1.224646799147353207E-16, -1.000000000000000000 ) ) ;
#197 = DATE_TIME_ROLE ( 'classification_date' ) ;
#198 = CARTESIAN_POINT ( 'NONE',  ( 8.601363918179958942E-15, -4.099999999999989875, 2.463528538013017855 ) ) ;
#199 = EDGE_CURVE ( 'NONE', #31, #294, #57, .T. ) ;
#200 = LINE ( 'NONE', #256, #79 ) ;
#201 = LOCAL_TIME ( 9, 54, 8.000000000000000000, #151 ) ;
#202 = CARTESIAN_POINT ( 'NONE',  ( 2.758270257686075477E-13, 3.299999999999990052, 79.00000000000000000 ) ) ;
#203 = AXIS2_PLACEMENT_3D ( 'NONE', #206, #54, #158 ) ;
#204 = PERSON ( 'UNSPECIFIED', 'UNSPECIFIED', 'UNSPECIFIED', ('UNSPECIFIED'), ('UNSPECIFIED'), ('UNSPECIFIED') ) ;
#205 = EDGE_CURVE ( 'NONE', #242, #294, #183, .T. ) ;
#206 = CARTESIAN_POINT ( 'NONE',  ( 9.426999614876460059E-14, -3.306546357697853733E-15, 27.00000000000000000 ) ) ;
#207 = DIRECTION ( 'NONE',  ( -3.491481338843133355E-15, 1.224646799147353207E-16, -1.000000000000000000 ) ) ;
#208 = PERSON_AND_ORGANIZATION ( #204, #143 ) ;
#209 = DATE_AND_TIME ( #248, #175 ) ;
#210 = ORIENTED_EDGE ( 'NONE', *, *, #50, .T. ) ;
#211 = EDGE_CURVE ( 'NONE', #6, #242, #49, .T. ) ;
#212 = APPROVAL ( #61, 'UNSPECIFIED' ) ;
#213 = CIRCLE ( 'NONE', #45, 4.099999999999993427 ) ;
#214 = ADVANCED_FACE ( 'NONE', ( #255 ), #225, .T. ) ;
#215 = EDGE_LOOP ( 'NONE', ( #244, #191, #66 ) ) ;
#216 = PLANE ( 'NONE',  #55 ) ;
#217 = CALENDAR_DATE ( 2021, 3, 9 ) ;
#218 = ORIENTED_EDGE ( 'NONE', *, *, #320, .T. ) ;
#219 =( NAMED_UNIT ( * ) SI_UNIT ( $, .STERADIAN. ) SOLID_ANGLE_UNIT ( ) );
#220 = AXIS2_PLACEMENT_3D ( 'NONE', #155, #308, #52 ) ;
#221 = CARTESIAN_POINT ( 'NONE',  ( 2.730338406975330915E-13, -9.576737969332302470E-15, 78.20000000000000284 ) ) ;
#222 = CC_DESIGN_DATE_AND_TIME_ASSIGNMENT ( #292, #197, ( #26 ) ) ;
#223 = DIRECTION ( 'NONE',  ( 0.0000000000000000000, 1.000000000000000000, 0.0000000000000000000 ) ) ;
#224 = ORIENTED_EDGE ( 'NONE', *, *, #287, .T. ) ;
#225 = CYLINDRICAL_SURFACE ( 'NONE', #220, 4.099999999999991651 ) ;
#226 = CIRCLE ( 'NONE', #267, 4.099999999999999645 ) ;
#227 = VECTOR ( 'NONE', #304, 999.9999999999998863 ) ;
#228 = CARTESIAN_POINT ( 'NONE',  ( 2.758270257686075477E-13, -9.674709713264090904E-15, 79.00000000000000000 ) ) ;
#229 = FACE_OUTER_BOUND ( 'NONE', #9, .T. ) ;
#230 = DIRECTION ( 'NONE',  ( -2.468850131082257455E-15, 0.7071067811865497932, -0.7071067811865453523 ) ) ;
#231 = VECTOR ( 'NONE', #19, 1000.000000000000000 ) ;
#232 = AXIS2_PLACEMENT_3D ( 'NONE', #237, #90, #286 ) ;
#233 = APPROVAL ( #246, 'UNSPECIFIED' ) ;
#234 = CARTESIAN_POINT ( 'NONE',  ( 5.021051876504125692E-16, -4.099999999999996092, -5.021051876504161190E-16 ) ) ;
#235 = UNCERTAINTY_MEASURE_WITH_UNIT (LENGTH_MEASURE( 1.000000000000000082E-05 ), #87, 'distance_accuracy_value', 'NONE');
#236 = CARTESIAN_POINT ( 'NONE',  ( 2.762311592123261156E-13, -3.300000000000009148, 79.00000000000000000 ) ) ;
#237 = CARTESIAN_POINT ( 'NONE',  ( 0.0000000000000000000, 0.0000000000000000000, 0.0000000000000000000 ) ) ;
#238 = EDGE_CURVE ( 'NONE', #242, #6, #73, .T. ) ;
#239 = ORIENTED_EDGE ( 'NONE', *, *, #271, .T. ) ;
#240 = VECTOR ( 'NONE', #2, 1000.000000000000000 ) ;
#241 = PERSON_AND_ORGANIZATION ( #204, #143 ) ;
#242 = VERTEX_POINT ( 'NONE', #280 ) ;
#243 = ADVANCED_FACE ( 'NONE', ( #229 ), #333, .T. ) ;
#244 = ORIENTED_EDGE ( 'NONE', *, *, #271, .F. ) ;
#245 = AXIS2_PLACEMENT_3D ( 'NONE', #228, #108, #337 ) ;
#246 = APPROVAL_STATUS ( 'not_yet_approved' ) ;
#247 = FACE_OUTER_BOUND ( 'NONE', #190, .T. ) ;
#248 = CALENDAR_DATE ( 2021, 3, 9 ) ;
#249 = CARTESIAN_POINT ( 'NONE',  ( 5.193778522112265191E-14, -4.099999999999996980, 27.00000000000000000 ) ) ;
#250 = CIRCLE ( 'NONE', #35, 4.099999999999989875 ) ;
#251 = CC_DESIGN_APPROVAL ( #212, ( #290 ) ) ;
#252 = DIRECTION ( 'NONE',  ( -3.491481338843133355E-15, 1.224646799147353207E-16, -1.000000000000000000 ) ) ;
#253 = CARTESIAN_POINT ( 'NONE',  ( 1.753090892817751470E-30, 4.099999999999996092, 5.021051876504143441E-16 ) ) ;
#254 = DIRECTION ( 'NONE',  ( 3.757912086609249938E-31, 1.000000000000000000, 1.057758217059031320E-16 ) ) ;
#255 = FACE_OUTER_BOUND ( 'NONE', #142, .T. ) ;
#256 = CARTESIAN_POINT ( 'NONE',  ( 1.753090892817749718E-30, 4.099999999999991651, 5.021051876504137524E-16 ) ) ;
#257 = PLANE ( 'NONE',  #7 ) ;
#258 = LINE ( 'NONE', #234, #240 ) ;
#259 = AXIS2_PLACEMENT_3D ( 'NONE', #129, #329, #15 ) ;
#260 = DIRECTION ( 'NONE',  ( 0.0000000000000000000, 1.000000000000000000, 0.0000000000000000000 ) ) ;
#261 = PERSON_AND_ORGANIZATION ( #204, #143 ) ;
#262 = LINE ( 'NONE', #236, #325 ) ;
#263 = VERTEX_POINT ( 'NONE', #334 ) ;
#264 = AXIS2_PLACEMENT_3D ( 'NONE', #51, #276, #154 ) ;
#265 = ORIENTED_EDGE ( 'NONE', *, *, #211, .T. ) ;
#266 = APPROVAL_ROLE ( '' ) ;
#267 = AXIS2_PLACEMENT_3D ( 'NONE', #221, #252, #326 ) ;
#268 = LINE ( 'NONE', #291, #305 ) ;
#269 = PERSON_AND_ORGANIZATION ( #204, #143 ) ;
#270 = DIRECTION ( 'NONE',  ( -3.757912086609249938E-31, -1.000000000000000000, -1.057758217059031320E-16 ) ) ;
#271 = EDGE_CURVE ( 'NONE', #39, #187, #303, .T. ) ;
#272 = ORIENTED_EDGE ( 'NONE', *, *, #107, .F. ) ;
#273 = CLOSED_SHELL ( 'NONE', ( #179, #123, #293, #214, #82 ) ) ;
#274 = DIRECTION ( 'NONE',  ( -3.491481338843133355E-15, 1.224646799147353207E-16, -1.000000000000000000 ) ) ;
#275 = CARTESIAN_POINT ( 'NONE',  ( 2.748835525487547715E-13, -3.300000000000009148, 79.00000000000000000 ) ) ;
#276 = DIRECTION ( 'NONE',  ( -3.491481338843133355E-15, 1.224646799147353207E-16, -1.000000000000000000 ) ) ;
#277 = CARTESIAN_POINT ( 'NONE',  ( 0.0000000000000000000, 0.0000000000000000000, 0.0000000000000000000 ) ) ;
#278 = VECTOR ( 'NONE', #80, 1000.000000000000000 ) ;
#279 = FACE_OUTER_BOUND ( 'NONE', #29, .T. ) ;
#280 = CARTESIAN_POINT ( 'NONE',  ( 2.758270257686075477E-13, 3.299999999999990052, 79.00000000000000000 ) ) ;
#281 = CARTESIAN_POINT ( 'NONE',  ( 2.758270257686075477E-13, -9.674709713264090904E-15, 79.00000000000000000 ) ) ;
#282 = CIRCLE ( 'NONE', #203, 4.099999999999993427 ) ;
#283 = PERSON_AND_ORGANIZATION_ROLE ( 'design_owner' ) ;
#284 = ORIENTED_EDGE ( 'NONE', *, *, #335, .T. ) ;
#285 = APPROVAL_ROLE ( '' ) ;
#286 = DIRECTION ( 'NONE',  ( 1.000000000000000000, 0.0000000000000000000, 0.0000000000000000000 ) ) ;
#287 = EDGE_CURVE ( 'NONE', #263, #328, #200, .T. ) ;
#288 = AXIS2_PLACEMENT_3D ( 'NONE', #41, #274, #254 ) ;
#289 = LOCAL_TIME ( 9, 54, 8.000000000000000000, #5 ) ;
#290 = PRODUCT_DEFINITION ( 'UNKNOWN', '', #119, #330 ) ;
#291 = CARTESIAN_POINT ( 'NONE',  ( 5.021051876504120761E-16, -4.099999999999991651, -5.021051876504155274E-16 ) ) ;
#292 = DATE_AND_TIME ( #217, #157 ) ;
#293 = ADVANCED_FACE ( 'NONE', ( #48 ), #307, .T. ) ;
#294 = VERTEX_POINT ( 'NONE', #131 ) ;
#295 = PERSON_AND_ORGANIZATION ( #204, #143 ) ;
#296 = DIRECTION ( 'NONE',  ( 4.275831445896958607E-31, 1.000000000000000000, 1.224646799147353207E-16 ) ) ;
#297 = DIRECTION ( 'NONE',  ( -4.275831445896958607E-31, -1.000000000000000000, -1.224646799147353207E-16 ) ) ;
#298 = EDGE_CURVE ( 'NONE', #39, #328, #136, .T. ) ;
#299 = CIRCLE ( 'NONE', #264, 4.099999999999993427 ) ;
#300 = DIRECTION ( 'NONE',  ( -3.491481338843133355E-15, 1.224646799147353207E-16, -1.000000000000000000 ) ) ;
#301 = ADVANCED_FACE ( 'NONE', ( #279 ), #165, .T. ) ;
#302 = SHAPE_DEFINITION_REPRESENTATION ( #65, #4 ) ;
#303 = LINE ( 'NONE', #198, #278 ) ;
#304 = DIRECTION ( 'NONE',  ( 1.903218546456022717E-15, 0.8571673007021097801, 0.5150380749100585964 ) ) ;
#305 = VECTOR ( 'NONE', #71, 1000.000000000000000 ) ;
#306 = DIRECTION ( 'NONE',  ( -3.491481338843133355E-15, 1.224646799147353207E-16, -1.000000000000000000 ) ) ;
#307 = CONICAL_SURFACE ( 'NONE', #11, 4.099999999999989875, 1.029744258676649649 ) ;
#308 = DIRECTION ( 'NONE',  ( -3.491481338843133355E-15, 1.224646799147353207E-16, -1.000000000000000000 ) ) ;
#309 = FACE_OUTER_BOUND ( 'NONE', #177, .T. ) ;
#310 = APPLICATION_CONTEXT ( 'configuration controlled 3d designs of mechanical parts and assemblies' ) ;
#311 = ORIENTED_EDGE ( 'NONE', *, *, #156, .F. ) ;
#312 = CALENDAR_DATE ( 2021, 3, 9 ) ;
#313 = ADVANCED_FACE ( 'NONE', ( #336 ), #257, .F. ) ;
#314 = ORIENTED_EDGE ( 'NONE', *, *, #320, .F. ) ;
#315 = EDGE_LOOP ( 'NONE', ( #164, #218 ) ) ;
#316 = AXIS2_PLACEMENT_3D ( 'NONE', #147, #170, #270 ) ;
#317 = LOCAL_TIME ( 9, 54, 8.000000000000000000, #40 ) ;
#318 = ORIENTED_EDGE ( 'NONE', *, *, #184, .T. ) ;
#319 = ORIENTED_EDGE ( 'NONE', *, *, #199, .F. ) ;
#320 = EDGE_CURVE ( 'NONE', #141, #174, #282, .T. ) ;
#321 = PERSON_AND_ORGANIZATION_ROLE ( 'creator' ) ;
#322 = DIRECTION ( 'NONE',  ( 3.491481338843133355E-15, -1.224646799147353207E-16, 1.000000000000000000 ) ) ;
#323 = EDGE_CURVE ( 'NONE', #31, #141, #258, .T. ) ;
#324 = CARTESIAN_POINT ( 'NONE',  ( 2.758270257686075477E-13, -9.674709713264090904E-15, 79.00000000000000000 ) ) ;
#325 = VECTOR ( 'NONE', #113, 1000.000000000000114 ) ;
#326 = DIRECTION ( 'NONE',  ( 0.0000000000000000000, 1.000000000000000000, 0.0000000000000000000 ) ) ;
#327 = ADVANCED_FACE ( 'NONE', ( #309 ), #135, .T. ) ;
#328 = VERTEX_POINT ( 'NONE', #167 ) ;
#329 = DIRECTION ( 'NONE',  ( -3.491481338843133355E-15, 1.224646799147353207E-16, -1.000000000000000000 ) ) ;
#330 = DESIGN_CONTEXT ( 'detailed design', #331, 'design' ) ;
#331 = APPLICATION_CONTEXT ( 'configuration controlled 3d designs of mechanical parts and assemblies' ) ;
#332 = VECTOR ( 'NONE', #230, 1000.000000000000114 ) ;
#333 = CYLINDRICAL_SURFACE ( 'NONE', #94, 4.099999999999996092 ) ;
#334 = CARTESIAN_POINT ( 'NONE',  ( 9.426999614876460059E-14, 4.099999999999989875, 27.00000000000000000 ) ) ;
#335 = EDGE_CURVE ( 'NONE', #6, #31, #262, .T. ) ;
#336 = FACE_OUTER_BOUND ( 'NONE', #315, .T. ) ;
#337 = DIRECTION ( 'NONE',  ( 0.0000000000000000000, 1.000000000000000000, 0.0000000000000000000 ) ) ;
ENDSEC;
END-ISO-10303-21;
