ISO-10303-21;
HEADER;
FILE_DESCRIPTION (( 'STEP AP203' ),
    '1' );
FILE_NAME ('54639.step',
    '2021-09-03T07:54:03',
    ( '' ),
    ( '' ),
    'SwSTEP 2.0',
    'SolidWorks 2019',
    '' );
FILE_SCHEMA (( 'CONFIG_CONTROL_DESIGN' ));
ENDSEC;

DATA;
#1 = DIRECTION ( 'NONE',  ( -3.491481338843133355E-15, 1.224646799147353207E-16, -1.000000000000000000 ) ) ;
#2 = VERTEX_POINT ( 'NONE', #178 ) ;
#3 = ORIENTED_EDGE ( 'NONE', *, *, #88, .F. ) ;
#4 = AXIS2_PLACEMENT_3D ( 'NONE', #314, #191, #164 ) ;
#5 = PRODUCT_DEFINITION_FORMATION_WITH_SPECIFIED_SOURCE ( 'ANY', '', #70, .NOT_KNOWN. ) ;
#6 = CARTESIAN_POINT ( 'NONE',  ( 1.731711735588266756E-30, 4.049999999999996270, 4.959819536546775670E-16 ) ) ;
#7 = APPLICATION_CONTEXT ( 'configuration controlled 3d designs of mechanical parts and assemblies' ) ;
#8 = CARTESIAN_POINT ( 'NONE',  ( 1.841479003768035158E-13, -4.049999999999997158, 27.00000000000000000 ) ) ;
#9 = LINE ( 'NONE', #108, #289 ) ;
#10 = AXIS2_PLACEMENT_3D ( 'NONE', #211, #111, #35 ) ;
#11 = CARTESIAN_POINT ( 'NONE',  ( 2.758270257686075477E-13, -9.674709713264090904E-15, 79.00000000000000000 ) ) ;
#12 = DIRECTION ( 'NONE',  ( -3.491481338843133355E-15, 1.224646799147353207E-16, -1.000000000000000000 ) ) ;
#13 = DIRECTION ( 'NONE',  ( 0.0000000000000000000, 1.000000000000000000, 0.0000000000000000000 ) ) ;
#14 = VECTOR ( 'NONE', #161, 1000.000000000000000 ) ;
#15 = DIRECTION ( 'NONE',  ( -3.491481338843133355E-15, 1.224646799147353207E-16, -1.000000000000000000 ) ) ;
#16 = CC_DESIGN_SECURITY_CLASSIFICATION ( #171, ( #5 ) ) ;
#17 = DIRECTION ( 'NONE',  ( 1.000000000000000000, 0.0000000000000000000, 0.0000000000000000000 ) ) ;
#18 = LINE ( 'NONE', #39, #81 ) ;
#19 = LOCAL_TIME ( 9, 54, 3.000000000000000000, #174 ) ;
#20 = APPROVAL_ROLE ( '' ) ;
#21 = EDGE_LOOP ( 'NONE', ( #154, #75, #255, #151 ) ) ;
#22 = DATE_AND_TIME ( #278, #246 ) ;
#23 = ORIENTED_EDGE ( 'NONE', *, *, #190, .F. ) ;
#24 = EDGE_LOOP ( 'NONE', ( #305, #230, #3, #55 ) ) ;
#25 = CIRCLE ( 'NONE', #209, 3.250000000000000000 ) ;
#26 = APPROVAL_ROLE ( '' ) ;
#27 = VERTEX_POINT ( 'NONE', #28 ) ;
#28 = CARTESIAN_POINT ( 'NONE',  ( 2.748774293147590234E-13, -3.250000000000009326, 79.00000000000000000 ) ) ;
#29 = LINE ( 'NONE', #83, #188 ) ;
#30 = AXIS2_PLACEMENT_3D ( 'NONE', #168, #172, #295 ) ;
#31 = CARTESIAN_POINT ( 'NONE',  ( 2.758270257686075477E-13, 2.437109646825504381E-32, 79.00000000000000000 ) ) ;
#32 = EDGE_CURVE ( 'NONE', #46, #128, #285, .T. ) ;
#33 = DIRECTION ( 'NONE',  ( 1.903218546456022717E-15, 0.8571673007021097801, 0.5150380749100585964 ) ) ;
#34 = EDGE_CURVE ( 'NONE', #2, #128, #155, .T. ) ;
#35 = DIRECTION ( 'NONE',  ( 0.0000000000000000000, 1.000000000000000000, 0.0000000000000000000 ) ) ;
#36 =( GEOMETRIC_REPRESENTATION_CONTEXT ( 3 ) GLOBAL_UNCERTAINTY_ASSIGNED_CONTEXT ( ( #62 ) ) GLOBAL_UNIT_ASSIGNED_CONTEXT ( ( #89, #115, #222 ) ) REPRESENTATION_CONTEXT ( 'NONE', 'WORKASPACE' ) );
#37 = DIRECTION ( 'NONE',  ( 4.275831445896958607E-31, 1.000000000000000000, 1.224646799147353207E-16 ) ) ;
#38 = FACE_OUTER_BOUND ( 'NONE', #203, .T. ) ;
#39 = CARTESIAN_POINT ( 'NONE',  ( 2.758270257686075477E-13, 3.249999999999990230, 79.00000000000000000 ) ) ;
#40 = AXIS2_PLACEMENT_3D ( 'NONE', #59, #264, #137 ) ;
#41 = DIRECTION ( 'NONE',  ( 0.0000000000000000000, 0.0000000000000000000, 1.000000000000000000 ) ) ;
#42 = APPROVAL ( #200, 'UNSPECIFIED' ) ;
#43 = CARTESIAN_POINT ( 'NONE',  ( 8.496469236250936900E-15, -2.980160236994511096E-16, 2.433485507061639908 ) ) ;
#44 = FACE_OUTER_BOUND ( 'NONE', #132, .T. ) ;
#45 = AXIS2_PLACEMENT_3D ( 'NONE', #296, #15, #323 ) ;
#46 = VERTEX_POINT ( 'NONE', #103 ) ;
#47 = EDGE_CURVE ( 'NONE', #69, #313, #294, .T. ) ;
#48 = PERSON_AND_ORGANIZATION ( #85, #77 ) ;
#49 = ORIENTED_EDGE ( 'NONE', *, *, #185, .T. ) ;
#50 = CALENDAR_DATE ( 2021, 3, 9 ) ;
#51 = ORIENTED_EDGE ( 'NONE', *, *, #262, .T. ) ;
#52 = PERSON_AND_ORGANIZATION ( #85, #77 ) ;
#53 = VERTEX_POINT ( 'NONE', #189 ) ;
#54 = CIRCLE ( 'NONE', #276, 4.049999999999993605 ) ;
#55 = ORIENTED_EDGE ( 'NONE', *, *, #32, .F. ) ;
#56 = DIRECTION ( 'NONE',  ( -3.491481338843133355E-15, 1.224646799147353207E-16, -1.000000000000000000 ) ) ;
#57 = LINE ( 'NONE', #6, #91 ) ;
#58 = CONICAL_SURFACE ( 'NONE', #299, 3.250000000000000000, 0.7853981633974512766 ) ;
#59 = CARTESIAN_POINT ( 'NONE',  ( 2.758270257686075477E-13, -9.674709713264090904E-15, 79.00000000000000000 ) ) ;
#60 = DIRECTION ( 'NONE',  ( 3.491481338843133355E-15, -1.224646799147353207E-16, 1.000000000000000000 ) ) ;
#61 = APPROVAL ( #281, 'UNSPECIFIED' ) ;
#62 = UNCERTAINTY_MEASURE_WITH_UNIT (LENGTH_MEASURE( 1.000000000000000082E-05 ), #89, 'distance_accuracy_value', 'NONE');
#63 = DIRECTION ( 'NONE',  ( 0.0000000000000000000, 1.000000000000000000, 0.0000000000000000000 ) ) ;
#64 = ADVANCED_FACE ( 'NONE', ( #266 ), #316, .T. ) ;
#65 = CARTESIAN_POINT ( 'NONE',  ( 8.496469236250936900E-15, -2.980160236994511096E-16, 2.433485507061639908 ) ) ;
#66 = DIRECTION ( 'NONE',  ( -3.491481338843133355E-15, 1.224646799147353207E-16, -1.000000000000000000 ) ) ;
#67 = ORIENTED_EDGE ( 'NONE', *, *, #245, .T. ) ;
#68 = FACE_OUTER_BOUND ( 'NONE', #258, .T. ) ;
#69 = VERTEX_POINT ( 'NONE', #186 ) ;
#70 = PRODUCT ( '54639', '54639', '', ( #169 ) ) ;
#71 = ORIENTED_EDGE ( 'NONE', *, *, #324, .F. ) ;
#72 = DIRECTION ( 'NONE',  ( 3.804306062987141999E-31, 1.000000000000000000, 1.070816960479513212E-16 ) ) ;
#73 = PERSON_AND_ORGANIZATION ( #85, #77 ) ;
#74 = APPROVAL ( #252, 'UNSPECIFIED' ) ;
#75 = ORIENTED_EDGE ( 'NONE', *, *, #302, .T. ) ;
#76 = DIRECTION ( 'NONE',  ( -3.491481338843133355E-15, 1.224646799147353207E-16, -1.000000000000000000 ) ) ;
#77 = ORGANIZATION ( 'UNSPECIFIED', 'UNSPECIFIED', '' ) ;
#78 = CARTESIAN_POINT ( 'NONE',  ( 2.730338406975330915E-13, -9.576737969332302470E-15, 78.20000000000000284 ) ) ;
#79 = FACE_OUTER_BOUND ( 'NONE', #159, .T. ) ;
#80 = DIRECTION ( 'NONE',  ( -3.491481338843133355E-15, 1.224646799147353207E-16, -1.000000000000000000 ) ) ;
#81 = VECTOR ( 'NONE', #87, 1000.000000000000114 ) ;
#82 = DIRECTION ( 'NONE',  ( 0.0000000000000000000, 1.000000000000000000, 0.0000000000000000000 ) ) ;
#83 = CARTESIAN_POINT ( 'NONE',  ( 4.959819536546758906E-16, -4.049999999999996270, -4.959819536546793419E-16 ) ) ;
#84 = EDGE_CURVE ( 'NONE', #308, #2, #138, .T. ) ;
#85 = PERSON ( 'UNSPECIFIED', 'UNSPECIFIED', 'UNSPECIFIED', ('UNSPECIFIED'), ('UNSPECIFIED'), ('UNSPECIFIED') ) ;
#86 = AXIS2_PLACEMENT_3D ( 'NONE', #242, #60, #215 ) ;
#87 = DIRECTION ( 'NONE',  ( -2.468850131082257455E-15, 0.7071067811865497932, -0.7071067811865453523 ) ) ;
#88 = EDGE_CURVE ( 'NONE', #128, #2, #135, .T. ) ;
#89 =( LENGTH_UNIT ( ) NAMED_UNIT ( * ) SI_UNIT ( .MILLI., .METRE. ) );
#90 = ADVANCED_FACE ( 'NONE', ( #112 ), #58, .T. ) ;
#91 = VECTOR ( 'NONE', #288, 1000.000000000000000 ) ;
#92 = CARTESIAN_POINT ( 'NONE',  ( 5.187921464616240302E-14, -4.049999999999997158, 27.00000000000000000 ) ) ;
#93 = CC_DESIGN_PERSON_AND_ORGANIZATION_ASSIGNMENT ( #52, #254, ( #5 ) ) ;
#94 = COORDINATED_UNIVERSAL_TIME_OFFSET ( 1, 0, .AHEAD. ) ;
#95 = DIRECTION ( 'NONE',  ( 0.0000000000000000000, 1.000000000000000000, 0.0000000000000000000 ) ) ;
#96 = APPROVAL_DATE_TIME ( #100, #42 ) ;
#97 = CIRCLE ( 'NONE', #117, 3.250000000000000000 ) ;
#98 = ORIENTED_EDGE ( 'NONE', *, *, #245, .F. ) ;
#99 = CC_DESIGN_PERSON_AND_ORGANIZATION_ASSIGNMENT ( #48, #304, ( #5 ) ) ;
#100 = DATE_AND_TIME ( #307, #335 ) ;
#101 = EDGE_LOOP ( 'NONE', ( #206, #49, #234, #23 ) ) ;
#102 = APPLICATION_PROTOCOL_DEFINITION ( 'international standard', 'config_control_design', 1994, #227 ) ;
#103 = CARTESIAN_POINT ( 'NONE',  ( 9.426999614876460059E-14, 4.049999999999990052, 27.00000000000000000 ) ) ;
#104 = ORIENTED_EDGE ( 'NONE', *, *, #302, .F. ) ;
#105 = CC_DESIGN_APPROVAL ( #61, ( #5 ) ) ;
#106 = PLANE ( 'NONE',  #86 ) ;
#107 = DIRECTION ( 'NONE',  ( 4.275831445896958607E-31, 1.000000000000000000, 1.224646799147353207E-16 ) ) ;
#108 = CARTESIAN_POINT ( 'NONE',  ( 2.762250359783304180E-13, -3.250000000000009326, 79.00000000000000000 ) ) ;
#109 = CONICAL_SURFACE ( 'NONE', #40, 3.250000000000000000, 0.7853981633974512766 ) ;
#110 = APPROVAL_PERSON_ORGANIZATION ( #207, #42, #26 ) ;
#111 = DIRECTION ( 'NONE',  ( -3.491481338843133355E-15, 1.224646799147353207E-16, -1.000000000000000000 ) ) ;
#112 = FACE_OUTER_BOUND ( 'NONE', #157, .T. ) ;
#113 = DIRECTION ( 'NONE',  ( 1.798245827342160317E-15, -0.8571673007021098911, 0.5150380749100582634 ) ) ;
#114 = AXIS2_PLACEMENT_3D ( 'NONE', #31, #136, #107 ) ;
#115 =( NAMED_UNIT ( * ) PLANE_ANGLE_UNIT ( ) SI_UNIT ( $, .RADIAN. ) );
#116 = CC_DESIGN_PERSON_AND_ORGANIZATION_ASSIGNMENT ( #127, #180, ( #197 ) ) ;
#117 = AXIS2_PLACEMENT_3D ( 'NONE', #292, #80, #82 ) ;
#118 = EDGE_CURVE ( 'NONE', #27, #175, #25, .T. ) ;
#119 = COORDINATED_UNIVERSAL_TIME_OFFSET ( 1, 0, .AHEAD. ) ;
#120 = PERSON_AND_ORGANIZATION ( #85, #77 ) ;
#121 = VERTEX_POINT ( 'NONE', #236 ) ;
#122 = PRODUCT_DEFINITION_SHAPE ( 'NONE', 'NONE',  #197 ) ;
#123 = SHAPE_DEFINITION_REPRESENTATION ( #122, #265 ) ;
#124 = ORIENTED_EDGE ( 'NONE', *, *, #118, .T. ) ;
#125 = EDGE_CURVE ( 'NONE', #313, #69, #334, .T. ) ;
#126 = AXIS2_PLACEMENT_3D ( 'NONE', #43, #216, #141 ) ;
#127 = PERSON_AND_ORGANIZATION ( #85, #77 ) ;
#128 = VERTEX_POINT ( 'NONE', #237 ) ;
#129 = SECURITY_CLASSIFICATION_LEVEL ( 'unclassified' ) ;
#130 = EDGE_LOOP ( 'NONE', ( #311, #201 ) ) ;
#131 = CC_DESIGN_DATE_AND_TIME_ASSIGNMENT ( #330, #274, ( #197 ) ) ;
#132 = EDGE_LOOP ( 'NONE', ( #251, #208, #275 ) ) ;
#133 = ADVANCED_FACE ( 'NONE', ( #165 ), #320, .T. ) ;
#134 = DIRECTION ( 'NONE',  ( -3.491481338843133355E-15, 1.224646799147353207E-16, -1.000000000000000000 ) ) ;
#135 = CIRCLE ( 'NONE', #204, 4.049999999999990052 ) ;
#136 = DIRECTION ( 'NONE',  ( -3.491481338843133355E-15, 1.224646799147353207E-16, -1.000000000000000000 ) ) ;
#137 = DIRECTION ( 'NONE',  ( 0.0000000000000000000, 1.000000000000000000, 0.0000000000000000000 ) ) ;
#138 = LINE ( 'NONE', #263, #14 ) ;
#139 = CIRCLE ( 'NONE', #143, 4.049999999999993605 ) ;
#140 = DIRECTION ( 'NONE',  ( -3.491481338843133355E-15, 1.224646799147353207E-16, -1.000000000000000000 ) ) ;
#141 = DIRECTION ( 'NONE',  ( -3.804306062987141999E-31, -1.000000000000000000, -1.070816960479513212E-16 ) ) ;
#142 = EDGE_CURVE ( 'NONE', #175, #27, #97, .T. ) ;
#143 = AXIS2_PLACEMENT_3D ( 'NONE', #217, #271, #13 ) ;
#144 = CIRCLE ( 'NONE', #10, 4.049999999999993605 ) ;
#145 = CYLINDRICAL_SURFACE ( 'NONE', #45, 4.049999999999991829 ) ;
#146 = CARTESIAN_POINT ( 'NONE',  ( 9.426999614876460059E-14, -3.306546357697853733E-15, 27.00000000000000000 ) ) ;
#147 = EDGE_CURVE ( 'NONE', #121, #184, #144, .T. ) ;
#148 = DIRECTION ( 'NONE',  ( -3.804306062987141999E-31, -1.000000000000000000, -1.070816960479513212E-16 ) ) ;
#149 = CLOSED_SHELL ( 'NONE', ( #133, #270, #310, #322, #158 ) ) ;
#150 = CC_DESIGN_APPROVAL ( #74, ( #197 ) ) ;
#151 = ORIENTED_EDGE ( 'NONE', *, *, #34, .F. ) ;
#152 = ORIENTED_EDGE ( 'NONE', *, *, #287, .F. ) ;
#153 = APPROVAL_ROLE ( '' ) ;
#154 = ORIENTED_EDGE ( 'NONE', *, *, #84, .F. ) ;
#155 = CIRCLE ( 'NONE', #213, 4.049999999999990052 ) ;
#156 = PERSON_AND_ORGANIZATION_ROLE ( 'classification_officer' ) ;
#157 = EDGE_LOOP ( 'NONE', ( #98, #124, #259, #279 ) ) ;
#158 = ADVANCED_FACE ( 'NONE', ( #79 ), #106, .T. ) ;
#159 = EDGE_LOOP ( 'NONE', ( #210, #104 ) ) ;
#160 = LINE ( 'NONE', #260, #256 ) ;
#161 = DIRECTION ( 'NONE',  ( -3.491481338843133355E-15, 1.224646799147353207E-16, -1.000000000000000000 ) ) ;
#162 = CARTESIAN_POINT ( 'NONE',  ( 8.496469236250936900E-15, -2.980160236994511096E-16, 2.433485507061639908 ) ) ;
#163 = CC_DESIGN_PERSON_AND_ORGANIZATION_ASSIGNMENT ( #120, #250, ( #70 ) ) ;
#164 = DIRECTION ( 'NONE',  ( 4.275831445896958607E-31, 1.000000000000000000, 1.224646799147353207E-16 ) ) ;
#165 = FACE_OUTER_BOUND ( 'NONE', #24, .T. ) ;
#166 = APPROVAL_PERSON_ORGANIZATION ( #73, #74, #20 ) ;
#167 = ORIENTED_EDGE ( 'NONE', *, *, #190, .T. ) ;
#168 = CARTESIAN_POINT ( 'NONE',  ( 0.0000000000000000000, 0.0000000000000000000, 0.0000000000000000000 ) ) ;
#169 = MECHANICAL_CONTEXT ( 'NONE', #7, 'mechanical' ) ;
#170 = CC_DESIGN_DATE_AND_TIME_ASSIGNMENT ( #329, #312, ( #171 ) ) ;
#171 = SECURITY_CLASSIFICATION ( '', '', #129 ) ;
#172 = DIRECTION ( 'NONE',  ( -3.491481338843133355E-15, 1.224646799147353207E-16, -1.000000000000000000 ) ) ;
#173 = ORIENTED_EDGE ( 'NONE', *, *, #324, .T. ) ;
#174 = COORDINATED_UNIVERSAL_TIME_OFFSET ( 1, 0, .AHEAD. ) ;
#175 = VERTEX_POINT ( 'NONE', #321 ) ;
#176 = APPROVAL_DATE_TIME ( #22, #61 ) ;
#177 = EDGE_CURVE ( 'NONE', #53, #128, #160, .T. ) ;
#178 = CARTESIAN_POINT ( 'NONE',  ( 8.496469236250935322E-15, -4.049999999999990052, 2.433485507061639463 ) ) ;
#179 = DESIGN_CONTEXT ( 'detailed design', #227, 'design' ) ;
#180 = PERSON_AND_ORGANIZATION_ROLE ( 'creator' ) ;
#181 = EDGE_LOOP ( 'NONE', ( #331, #67, #232, #152 ) ) ;
#182 = AXIS2_PLACEMENT_3D ( 'NONE', #146, #66, #225 ) ;
#183 = APPROVAL_DATE_TIME ( #309, #74 ) ;
#184 = VERTEX_POINT ( 'NONE', #8 ) ;
#185 = EDGE_CURVE ( 'NONE', #313, #184, #29, .T. ) ;
#186 = CARTESIAN_POINT ( 'NONE',  ( 2.730338406975330915E-13, 4.049999999999990052, 78.20000000000000284 ) ) ;
#187 = FACE_OUTER_BOUND ( 'NONE', #130, .T. ) ;
#188 = VECTOR ( 'NONE', #134, 1000.000000000000000 ) ;
#189 = CARTESIAN_POINT ( 'NONE',  ( 0.0000000000000000000, 0.0000000000000000000, 0.0000000000000000000 ) ) ;
#190 = EDGE_CURVE ( 'NONE', #69, #121, #57, .T. ) ;
#191 = DIRECTION ( 'NONE',  ( -3.491481338843133355E-15, 1.224646799147353207E-16, -1.000000000000000000 ) ) ;
#192 = DIRECTION ( 'NONE',  ( 3.804306062987141999E-31, 1.000000000000000000, 1.070816960479513212E-16 ) ) ;
#193 = CARTESIAN_POINT ( 'NONE',  ( 8.496469236250935322E-15, -4.049999999999990052, 2.433485507061639463 ) ) ;
#194 = VECTOR ( 'NONE', #113, 1000.000000000000000 ) ;
#195 = FACE_OUTER_BOUND ( 'NONE', #303, .T. ) ;
#196 = APPLICATION_PROTOCOL_DEFINITION ( 'international standard', 'config_control_design', 1994, #7 ) ;
#197 = PRODUCT_DEFINITION ( 'UNKNOWN', '', #5, #179 ) ;
#198 = CARTESIAN_POINT ( 'NONE',  ( 9.426999614876460059E-14, 3.037013559890252077E-32, 27.00000000000000000 ) ) ;
#199 = FACE_OUTER_BOUND ( 'NONE', #21, .T. ) ;
#200 = APPROVAL_STATUS ( 'not_yet_approved' ) ;
#201 = ORIENTED_EDGE ( 'NONE', *, *, #118, .F. ) ;
#202 = PERSON_AND_ORGANIZATION ( #85, #77 ) ;
#203 = EDGE_LOOP ( 'NONE', ( #219, #51, #253 ) ) ;
#204 = AXIS2_PLACEMENT_3D ( 'NONE', #162, #293, #192 ) ;
#205 = CARTESIAN_POINT ( 'NONE',  ( 8.496469236250936900E-15, -2.980160236994511096E-16, 2.433485507061639908 ) ) ;
#206 = ORIENTED_EDGE ( 'NONE', *, *, #47, .T. ) ;
#207 = PERSON_AND_ORGANIZATION ( #85, #77 ) ;
#208 = ORIENTED_EDGE ( 'NONE', *, *, #177, .T. ) ;
#209 = AXIS2_PLACEMENT_3D ( 'NONE', #11, #140, #238 ) ;
#210 = ORIENTED_EDGE ( 'NONE', *, *, #267, .F. ) ;
#211 = CARTESIAN_POINT ( 'NONE',  ( 9.426999614876460059E-14, -3.306546357697853733E-15, 27.00000000000000000 ) ) ;
#212 = FACE_OUTER_BOUND ( 'NONE', #181, .T. ) ;
#213 = AXIS2_PLACEMENT_3D ( 'NONE', #205, #1, #72 ) ;
#214 = DIRECTION ( 'NONE',  ( -2.382254525458708792E-15, -0.7071067811865495711, -0.7071067811865455743 ) ) ;
#215 = DIRECTION ( 'NONE',  ( -4.275831445896958607E-31, -1.000000000000000000, -1.224646799147353207E-16 ) ) ;
#216 = DIRECTION ( 'NONE',  ( 3.491481338843133355E-15, -1.224646799147353207E-16, 1.000000000000000000 ) ) ;
#217 = CARTESIAN_POINT ( 'NONE',  ( 9.426999614876460059E-14, -3.306546357697853733E-15, 27.00000000000000000 ) ) ;
#218 = AXIS2_PLACEMENT_3D ( 'NONE', #272, #41, #17 ) ;
#219 = ORIENTED_EDGE ( 'NONE', *, *, #177, .F. ) ;
#220 = LOCAL_TIME ( 9, 54, 3.000000000000000000, #119 ) ;
#221 = MANIFOLD_SOLID_BREP ( 'Corps-Déplacer/Copier1[2]', #149 ) ;
#222 =( NAMED_UNIT ( * ) SI_UNIT ( $, .STERADIAN. ) SOLID_ANGLE_UNIT ( ) );
#223 = ADVANCED_FACE ( 'NONE', ( #187 ), #291, .F. ) ;
#224 = DIRECTION ( 'NONE',  ( -3.491481338843133355E-15, 1.224646799147353207E-16, -1.000000000000000000 ) ) ;
#225 = DIRECTION ( 'NONE',  ( 0.0000000000000000000, 1.000000000000000000, 0.0000000000000000000 ) ) ;
#226 = CONICAL_SURFACE ( 'NONE', #283, 4.049999999999990052, 1.029744258676649649 ) ;
#227 = APPLICATION_CONTEXT ( 'configuration controlled 3d designs of mechanical parts and assemblies' ) ;
#228 = CALENDAR_DATE ( 2021, 3, 9 ) ;
#229 = DIRECTION ( 'NONE',  ( -3.491481338843133355E-15, 1.224646799147353207E-16, -1.000000000000000000 ) ) ;
#230 = ORIENTED_EDGE ( 'NONE', *, *, #84, .T. ) ;
#231 = VECTOR ( 'NONE', #229, 1000.000000000000000 ) ;
#232 = ORIENTED_EDGE ( 'NONE', *, *, #47, .F. ) ;
#233 = CARTESIAN_POINT ( 'NONE',  ( 1.731711735588264654E-30, 4.049999999999991829, 4.959819536546770739E-16 ) ) ;
#234 = ORIENTED_EDGE ( 'NONE', *, *, #147, .F. ) ;
#235 = AXIS2_PLACEMENT_3D ( 'NONE', #280, #76, #95 ) ;
#236 = CARTESIAN_POINT ( 'NONE',  ( 9.426999614876460059E-14, 4.049999999999990052, 27.00000000000000000 ) ) ;
#237 = CARTESIAN_POINT ( 'NONE',  ( 8.992451189905614565E-15, 4.049999999999990052, 2.433485507061640352 ) ) ;
#238 = DIRECTION ( 'NONE',  ( 0.0000000000000000000, 1.000000000000000000, 0.0000000000000000000 ) ) ;
#239 = CONICAL_SURFACE ( 'NONE', #126, 4.049999999999990052, 1.029744258676649649 ) ;
#240 = DIRECTION ( 'NONE',  ( -3.491481338843133355E-15, 1.224646799147353207E-16, -1.000000000000000000 ) ) ;
#241 = ADVANCED_FACE ( 'NONE', ( #212 ), #109, .T. ) ;
#242 = CARTESIAN_POINT ( 'NONE',  ( 9.426999614876460059E-14, 3.037013559890252077E-32, 27.00000000000000000 ) ) ;
#243 = DIRECTION ( 'NONE',  ( 3.491481338843133355E-15, -1.224646799147353207E-16, 1.000000000000000000 ) ) ;
#244 = AXIS2_PLACEMENT_3D ( 'NONE', #78, #240, #63 ) ;
#245 = EDGE_CURVE ( 'NONE', #27, #313, #9, .T. ) ;
#246 = LOCAL_TIME ( 9, 54, 3.000000000000000000, #94 ) ;
#247 = CYLINDRICAL_SURFACE ( 'NONE', #30, 4.049999999999996270 ) ;
#248 = LINE ( 'NONE', #193, #194 ) ;
#249 = LOCAL_TIME ( 9, 54, 3.000000000000000000, #284 ) ;
#250 = PERSON_AND_ORGANIZATION_ROLE ( 'design_owner' ) ;
#251 = ORIENTED_EDGE ( 'NONE', *, *, #262, .F. ) ;
#252 = APPROVAL_STATUS ( 'not_yet_approved' ) ;
#253 = ORIENTED_EDGE ( 'NONE', *, *, #34, .T. ) ;
#254 = PERSON_AND_ORGANIZATION_ROLE ( 'creator' ) ;
#255 = ORIENTED_EDGE ( 'NONE', *, *, #32, .T. ) ;
#256 = VECTOR ( 'NONE', #33, 999.9999999999998863 ) ;
#257 = CALENDAR_DATE ( 2021, 3, 9 ) ;
#258 = EDGE_LOOP ( 'NONE', ( #333, #282, #167, #71 ) ) ;
#259 = ORIENTED_EDGE ( 'NONE', *, *, #287, .T. ) ;
#260 = CARTESIAN_POINT ( 'NONE',  ( 8.992451189905614565E-15, 4.049999999999990052, 2.433485507061640352 ) ) ;
#261 = AXIS2_PLACEMENT_3D ( 'NONE', #198, #243, #327 ) ;
#262 = EDGE_CURVE ( 'NONE', #53, #2, #248, .T. ) ;
#263 = CARTESIAN_POINT ( 'NONE',  ( 4.959819536546753976E-16, -4.049999999999991829, -4.959819536546787503E-16 ) ) ;
#264 = DIRECTION ( 'NONE',  ( -3.491481338843133355E-15, 1.224646799147353207E-16, -1.000000000000000000 ) ) ;
#265 = ADVANCED_BREP_SHAPE_REPRESENTATION ( '54639', ( #326, #221, #218 ), #36 ) ;
#266 = FACE_OUTER_BOUND ( 'NONE', #101, .T. ) ;
#267 = EDGE_CURVE ( 'NONE', #46, #308, #139, .T. ) ;
#268 = CARTESIAN_POINT ( 'NONE',  ( 0.0000000000000000000, 0.0000000000000000000, 0.0000000000000000000 ) ) ;
#269 = CARTESIAN_POINT ( 'NONE',  ( 9.426999614876460059E-14, -3.306546357697853733E-15, 27.00000000000000000 ) ) ;
#270 = ADVANCED_FACE ( 'NONE', ( #44 ), #226, .T. ) ;
#271 = DIRECTION ( 'NONE',  ( -3.491481338843133355E-15, 1.224646799147353207E-16, -1.000000000000000000 ) ) ;
#272 = CARTESIAN_POINT ( 'NONE',  ( 0.0000000000000000000, 0.0000000000000000000, 0.0000000000000000000 ) ) ;
#273 = PLANE ( 'NONE',  #261 ) ;
#274 = DATE_TIME_ROLE ( 'creation_date' ) ;
#275 = ORIENTED_EDGE ( 'NONE', *, *, #88, .T. ) ;
#276 = AXIS2_PLACEMENT_3D ( 'NONE', #269, #224, #301 ) ;
#277 = CC_DESIGN_APPROVAL ( #42, ( #171 ) ) ;
#278 = CALENDAR_DATE ( 2021, 3, 9 ) ;
#279 = ORIENTED_EDGE ( 'NONE', *, *, #125, .F. ) ;
#280 = CARTESIAN_POINT ( 'NONE',  ( 2.730338406975330915E-13, -9.576737969332302470E-15, 78.20000000000000284 ) ) ;
#281 = APPROVAL_STATUS ( 'not_yet_approved' ) ;
#282 = ORIENTED_EDGE ( 'NONE', *, *, #125, .T. ) ;
#283 = AXIS2_PLACEMENT_3D ( 'NONE', #65, #325, #148 ) ;
#284 = COORDINATED_UNIVERSAL_TIME_OFFSET ( 1, 0, .AHEAD. ) ;
#285 = LINE ( 'NONE', #233, #231 ) ;
#286 = CARTESIAN_POINT ( 'NONE',  ( 2.758270257686075477E-13, -9.674709713264090904E-15, 79.00000000000000000 ) ) ;
#287 = EDGE_CURVE ( 'NONE', #175, #69, #18, .T. ) ;
#288 = DIRECTION ( 'NONE',  ( -3.491481338843133355E-15, 1.224646799147353207E-16, -1.000000000000000000 ) ) ;
#289 = VECTOR ( 'NONE', #214, 1000.000000000000114 ) ;
#290 = AXIS2_PLACEMENT_3D ( 'NONE', #268, #56, #37 ) ;
#291 = PLANE ( 'NONE',  #114 ) ;
#292 = CARTESIAN_POINT ( 'NONE',  ( 2.758270257686075477E-13, -9.674709713264090904E-15, 79.00000000000000000 ) ) ;
#293 = DIRECTION ( 'NONE',  ( -3.491481338843133355E-15, 1.224646799147353207E-16, -1.000000000000000000 ) ) ;
#294 = CIRCLE ( 'NONE', #235, 4.049999999999999822 ) ;
#295 = DIRECTION ( 'NONE',  ( 4.275831445896958607E-31, 1.000000000000000000, 1.224646799147353207E-16 ) ) ;
#296 = CARTESIAN_POINT ( 'NONE',  ( 0.0000000000000000000, 0.0000000000000000000, 0.0000000000000000000 ) ) ;
#297 = ORIENTED_EDGE ( 'NONE', *, *, #147, .T. ) ;
#298 = CARTESIAN_POINT ( 'NONE',  ( 1.841479003768033896E-13, -4.050000000000009592, 78.20000000000000284 ) ) ;
#299 = AXIS2_PLACEMENT_3D ( 'NONE', #286, #12, #317 ) ;
#300 = CC_DESIGN_PERSON_AND_ORGANIZATION_ASSIGNMENT ( #332, #156, ( #171 ) ) ;
#301 = DIRECTION ( 'NONE',  ( 0.0000000000000000000, 1.000000000000000000, 0.0000000000000000000 ) ) ;
#302 = EDGE_CURVE ( 'NONE', #308, #46, #54, .T. ) ;
#303 = EDGE_LOOP ( 'NONE', ( #297, #173 ) ) ;
#304 = PERSON_AND_ORGANIZATION_ROLE ( 'design_supplier' ) ;
#305 = ORIENTED_EDGE ( 'NONE', *, *, #267, .T. ) ;
#306 = CLOSED_SHELL ( 'NONE', ( #241, #64, #315, #336, #90, #223 ) ) ;
#307 = CALENDAR_DATE ( 2021, 3, 9 ) ;
#308 = VERTEX_POINT ( 'NONE', #92 ) ;
#309 = DATE_AND_TIME ( #228, #19 ) ;
#310 = ADVANCED_FACE ( 'NONE', ( #38 ), #239, .T. ) ;
#311 = ORIENTED_EDGE ( 'NONE', *, *, #142, .F. ) ;
#312 = DATE_TIME_ROLE ( 'classification_date' ) ;
#313 = VERTEX_POINT ( 'NONE', #298 ) ;
#314 = CARTESIAN_POINT ( 'NONE',  ( 0.0000000000000000000, 0.0000000000000000000, 0.0000000000000000000 ) ) ;
#315 = ADVANCED_FACE ( 'NONE', ( #195 ), #273, .F. ) ;
#316 = CYLINDRICAL_SURFACE ( 'NONE', #4, 4.049999999999996270 ) ;
#317 = DIRECTION ( 'NONE',  ( 0.0000000000000000000, 1.000000000000000000, 0.0000000000000000000 ) ) ;
#318 = APPROVAL_PERSON_ORGANIZATION ( #202, #61, #153 ) ;
#319 = PRODUCT_RELATED_PRODUCT_CATEGORY ( 'detail', '', ( #70 ) ) ;
#320 = CYLINDRICAL_SURFACE ( 'NONE', #290, 4.049999999999991829 ) ;
#321 = CARTESIAN_POINT ( 'NONE',  ( 2.758270257686075477E-13, 3.249999999999990230, 79.00000000000000000 ) ) ;
#322 = ADVANCED_FACE ( 'NONE', ( #199 ), #145, .T. ) ;
#323 = DIRECTION ( 'NONE',  ( 4.275831445896958607E-31, 1.000000000000000000, 1.224646799147353207E-16 ) ) ;
#324 = EDGE_CURVE ( 'NONE', #184, #121, #328, .T. ) ;
#325 = DIRECTION ( 'NONE',  ( 3.491481338843133355E-15, -1.224646799147353207E-16, 1.000000000000000000 ) ) ;
#326 = MANIFOLD_SOLID_BREP ( 'Corps-Déplacer/Copier1[1]', #306 ) ;
#327 = DIRECTION ( 'NONE',  ( -4.275831445896958607E-31, -1.000000000000000000, -1.224646799147353207E-16 ) ) ;
#328 = CIRCLE ( 'NONE', #182, 4.049999999999993605 ) ;
#329 = DATE_AND_TIME ( #257, #220 ) ;
#330 = DATE_AND_TIME ( #50, #249 ) ;
#331 = ORIENTED_EDGE ( 'NONE', *, *, #142, .T. ) ;
#332 = PERSON_AND_ORGANIZATION ( #85, #77 ) ;
#333 = ORIENTED_EDGE ( 'NONE', *, *, #185, .F. ) ;
#334 = CIRCLE ( 'NONE', #244, 4.049999999999999822 ) ;
#335 = LOCAL_TIME ( 9, 54, 3.000000000000000000, #337 ) ;
#336 = ADVANCED_FACE ( 'NONE', ( #68 ), #247, .T. ) ;
#337 = COORDINATED_UNIVERSAL_TIME_OFFSET ( 1, 0, .AHEAD. ) ;
ENDSEC;
END-ISO-10303-21;
