ISO-10303-21;
HEADER;
FILE_DESCRIPTION (( 'STEP AP203' ),
    '1' );
FILE_NAME ('54636.step',
    '2021-09-03T07:53:58',
    ( '' ),
    ( '' ),
    'SwSTEP 2.0',
    'SolidWorks 2019',
    '' );
FILE_SCHEMA (( 'CONFIG_CONTROL_DESIGN' ));
ENDSEC;

DATA;
#1 = CARTESIAN_POINT ( 'NONE',  ( 9.426999614876460059E-14, -3.306546357697853733E-15, 27.00000000000000000 ) ) ;
#2 = EDGE_CURVE ( 'NONE', #38, #263, #158, .T. ) ;
#3 = DIRECTION ( 'NONE',  ( -3.491481338843133355E-15, 1.224646799147353207E-16, -1.000000000000000000 ) ) ;
#4 = PLANE ( 'NONE',  #234 ) ;
#5 = LOCAL_TIME ( 9, 53, 58.00000000000000000, #265 ) ;
#6 = APPROVAL_DATE_TIME ( #145, #51 ) ;
#7 = PERSON_AND_ORGANIZATION_ROLE ( 'classification_officer' ) ;
#8 = PERSON_AND_ORGANIZATION ( #49, #161 ) ;
#9 = AXIS2_PLACEMENT_3D ( 'NONE', #92, #279, #331 ) ;
#10 = EDGE_LOOP ( 'NONE', ( #114, #155, #15, #191 ) ) ;
#11 = PLANE ( 'NONE',  #243 ) ;
#12 = DIRECTION ( 'NONE',  ( 4.275831445896958607E-31, 1.000000000000000000, 1.224646799147353207E-16 ) ) ;
#13 = ORIENTED_EDGE ( 'NONE', *, *, #280, .T. ) ;
#14 = CARTESIAN_POINT ( 'NONE',  ( 2.730338406975330915E-13, 3.999999999999990674, 78.20000000000000284 ) ) ;
#15 = ORIENTED_EDGE ( 'NONE', *, *, #72, .T. ) ;
#16 = LOCAL_TIME ( 9, 53, 58.00000000000000000, #212 ) ;
#17 = DIRECTION ( 'NONE',  ( -3.851859888774480902E-31, -1.000000000000000000, -1.084202172485507022E-16 ) ) ;
#18 = DIRECTION ( 'NONE',  ( -3.491481338843133355E-15, 1.224646799147353207E-16, -1.000000000000000000 ) ) ;
#19 = CARTESIAN_POINT ( 'NONE',  ( 2.758270257686075477E-13, 3.199999999999990408, 79.00000000000000000 ) ) ;
#20 = VECTOR ( 'NONE', #73, 1000.000000000000000 ) ;
#21 = CYLINDRICAL_SURFACE ( 'NONE', #278, 3.999999999999996447 ) ;
#22 = DIRECTION ( 'NONE',  ( -3.491481338843133355E-15, 1.224646799147353207E-16, -1.000000000000000000 ) ) ;
#23 = DATE_AND_TIME ( #146, #16 ) ;
#24 = ORIENTED_EDGE ( 'NONE', *, *, #115, .T. ) ;
#25 = CONICAL_SURFACE ( 'NONE', #254, 3.999999999999990674, 1.029744258676649649 ) ;
#26 = VECTOR ( 'NONE', #178, 1000.000000000000000 ) ;
#27 = PERSON_AND_ORGANIZATION_ROLE ( 'design_supplier' ) ;
#28 = CC_DESIGN_PERSON_AND_ORGANIZATION_ASSIGNMENT ( #119, #7, ( #215 ) ) ;
#29 = APPLICATION_PROTOCOL_DEFINITION ( 'international standard', 'config_control_design', 1994, #289 ) ;
#30 = EDGE_LOOP ( 'NONE', ( #63, #220, #166, #266 ) ) ;
#31 = EDGE_CURVE ( 'NONE', #82, #251, #217, .T. ) ;
#32 = PERSON_AND_ORGANIZATION_ROLE ( 'creator' ) ;
#33 = VERTEX_POINT ( 'NONE', #41 ) ;
#34 = EDGE_CURVE ( 'NONE', #33, #329, #39, .T. ) ;
#35 = CC_DESIGN_APPROVAL ( #51, ( #163 ) ) ;
#36 = PRODUCT ( '54636', '54636', '', ( #316 ) ) ;
#37 = COORDINATED_UNIVERSAL_TIME_OFFSET ( 1, 0, .AHEAD. ) ;
#38 = VERTEX_POINT ( 'NONE', #14 ) ;
#39 = LINE ( 'NONE', #126, #237 ) ;
#40 = EDGE_LOOP ( 'NONE', ( #240, #120 ) ) ;
#41 = CARTESIAN_POINT ( 'NONE',  ( 0.0000000000000000000, 0.0000000000000000000, 0.0000000000000000000 ) ) ;
#42 = EDGE_CURVE ( 'NONE', #38, #222, #128, .T. ) ;
#43 = VERTEX_POINT ( 'NONE', #151 ) ;
#44 = CARTESIAN_POINT ( 'NONE',  ( 9.426999614876460059E-14, 3.999999999999990674, 27.00000000000000000 ) ) ;
#45 = CARTESIAN_POINT ( 'NONE',  ( 1.710332578358780290E-30, 3.999999999999992450, 4.898587196589402968E-16 ) ) ;
#46 = CIRCLE ( 'NONE', #337, 3.999999999999994227 ) ;
#47 = AXIS2_PLACEMENT_3D ( 'NONE', #175, #272, #226 ) ;
#48 = CARTESIAN_POINT ( 'NONE',  ( 8.391574554321913279E-15, -2.943368135303221055E-16, 2.403442476110261961 ) ) ;
#49 = PERSON ( 'UNSPECIFIED', 'UNSPECIFIED', 'UNSPECIFIED', ('UNSPECIFIED'), ('UNSPECIFIED'), ('UNSPECIFIED') ) ;
#50 = CARTESIAN_POINT ( 'NONE',  ( 2.758270257686075477E-13, -9.674709713264090904E-15, 79.00000000000000000 ) ) ;
#51 = APPROVAL ( #291, 'UNSPECIFIED' ) ;
#52 = LINE ( 'NONE', #139, #231 ) ;
#53 = AXIS2_PLACEMENT_3D ( 'NONE', #164, #209, #257 ) ;
#54 = FACE_OUTER_BOUND ( 'NONE', #179, .T. ) ;
#55 = DATE_AND_TIME ( #268, #5 ) ;
#56 = PERSON_AND_ORGANIZATION ( #49, #161 ) ;
#57 = VERTEX_POINT ( 'NONE', #44 ) ;
#58 = CONICAL_SURFACE ( 'NONE', #241, 3.200000000000000178, 0.7853981633974512766 ) ;
#59 = DATE_AND_TIME ( #189, #184 ) ;
#60 = APPROVAL_STATUS ( 'not_yet_approved' ) ;
#61 = ADVANCED_FACE ( 'NONE', ( #201 ), #70, .T. ) ;
#62 = DIRECTION ( 'NONE',  ( 0.0000000000000000000, 0.0000000000000000000, 1.000000000000000000 ) ) ;
#63 = ORIENTED_EDGE ( 'NONE', *, *, #252, .T. ) ;
#64 = ORIENTED_EDGE ( 'NONE', *, *, #34, .F. ) ;
#65 = PERSON_AND_ORGANIZATION ( #49, #161 ) ;
#66 = CARTESIAN_POINT ( 'NONE',  ( 2.758270257686075477E-13, 3.199999999999990408, 79.00000000000000000 ) ) ;
#67 = LINE ( 'NONE', #66, #118 ) ;
#68 = APPROVAL_STATUS ( 'not_yet_approved' ) ;
#69 = DIRECTION ( 'NONE',  ( -3.491481338843133355E-15, 1.224646799147353207E-16, -1.000000000000000000 ) ) ;
#70 = CONICAL_SURFACE ( 'NONE', #259, 3.200000000000000178, 0.7853981633974512766 ) ;
#71 = DIRECTION ( 'NONE',  ( -3.491481338843133355E-15, 1.224646799147353207E-16, -1.000000000000000000 ) ) ;
#72 = EDGE_CURVE ( 'NONE', #251, #38, #67, .T. ) ;
#73 = DIRECTION ( 'NONE',  ( -3.491481338843133355E-15, 1.224646799147353207E-16, -1.000000000000000000 ) ) ;
#74 = DIRECTION ( 'NONE',  ( -3.851859888774480902E-31, -1.000000000000000000, -1.084202172485507022E-16 ) ) ;
#75 = DESIGN_CONTEXT ( 'detailed design', #95, 'design' ) ;
#76 = CARTESIAN_POINT ( 'NONE',  ( 8.391574554321913279E-15, -2.943368135303221055E-16, 2.403442476110261961 ) ) ;
#77 = EDGE_CURVE ( 'NONE', #263, #43, #94, .T. ) ;
#78 = CARTESIAN_POINT ( 'NONE',  ( 0.0000000000000000000, 0.0000000000000000000, 0.0000000000000000000 ) ) ;
#79 = DIRECTION ( 'NONE',  ( -4.275831445896958607E-31, -1.000000000000000000, -1.224646799147353207E-16 ) ) ;
#80 = DIRECTION ( 'NONE',  ( 1.000000000000000000, 0.0000000000000000000, 0.0000000000000000000 ) ) ;
#81 = APPROVAL_ROLE ( '' ) ;
#82 = VERTEX_POINT ( 'NONE', #245 ) ;
#83 = VECTOR ( 'NONE', #90, 1000.000000000000114 ) ;
#84 = CIRCLE ( 'NONE', #177, 3.200000000000000178 ) ;
#85 = PERSON_AND_ORGANIZATION ( #49, #161 ) ;
#86 = EDGE_LOOP ( 'NONE', ( #274, #211, #196, #250 ) ) ;
#87 = CYLINDRICAL_SURFACE ( 'NONE', #130, 3.999999999999996447 ) ;
#88 = ORIENTED_EDGE ( 'NONE', *, *, #31, .F. ) ;
#89 = CONICAL_SURFACE ( 'NONE', #111, 3.999999999999990674, 1.029744258676649649 ) ;
#90 = DIRECTION ( 'NONE',  ( -2.382254525458708792E-15, -0.7071067811865495711, -0.7071067811865455743 ) ) ;
#91 = CC_DESIGN_DATE_AND_TIME_ASSIGNMENT ( #55, #295, ( #163 ) ) ;
#92 = CARTESIAN_POINT ( 'NONE',  ( 2.730338406975330915E-13, -9.576737969332302470E-15, 78.20000000000000284 ) ) ;
#93 = EDGE_CURVE ( 'NONE', #263, #38, #304, .T. ) ;
#94 = LINE ( 'NONE', #199, #26 ) ;
#95 = APPLICATION_CONTEXT ( 'configuration controlled 3d designs of mechanical parts and assemblies' ) ;
#96 = VECTOR ( 'NONE', #282, 1000.000000000000000 ) ;
#97 = APPROVAL ( #60, 'UNSPECIFIED' ) ;
#98 = CARTESIAN_POINT ( 'NONE',  ( 2.758270257686075477E-13, 2.399615652258957941E-32, 79.00000000000000000 ) ) ;
#99 = CIRCLE ( 'NONE', #147, 3.999999999999994227 ) ;
#100 = DIRECTION ( 'NONE',  ( 0.0000000000000000000, 1.000000000000000000, 0.0000000000000000000 ) ) ;
#101 = PRODUCT_RELATED_PRODUCT_CATEGORY ( 'detail', '', ( #36 ) ) ;
#102 = CARTESIAN_POINT ( 'NONE',  ( 8.391574554321911702E-15, -3.999999999999990674, 2.403442476110261516 ) ) ;
#103 = AXIS2_PLACEMENT_3D ( 'NONE', #76, #182, #284 ) ;
#104 = DIRECTION ( 'NONE',  ( 0.0000000000000000000, 1.000000000000000000, 0.0000000000000000000 ) ) ;
#105 = CC_DESIGN_DATE_AND_TIME_ASSIGNMENT ( #59, #239, ( #215 ) ) ;
#106 = LINE ( 'NONE', #102, #96 ) ;
#107 = MANIFOLD_SOLID_BREP ( 'Corps-Déplacer/Copier1[1]', #277 ) ;
#108 = DIRECTION ( 'NONE',  ( 3.491481338843133355E-15, -1.224646799147353207E-16, 1.000000000000000000 ) ) ;
#109 = DIRECTION ( 'NONE',  ( 0.0000000000000000000, 1.000000000000000000, 0.0000000000000000000 ) ) ;
#110 = ADVANCED_FACE ( 'NONE', ( #246 ), #11, .F. ) ;
#111 = AXIS2_PLACEMENT_3D ( 'NONE', #48, #261, #74 ) ;
#112 = APPROVAL_DATE_TIME ( #23, #97 ) ;
#113 = COORDINATED_UNIVERSAL_TIME_OFFSET ( 1, 0, .AHEAD. ) ;
#114 = ORIENTED_EDGE ( 'NONE', *, *, #127, .F. ) ;
#115 = EDGE_CURVE ( 'NONE', #57, #317, #99, .T. ) ;
#116 = PERSON_AND_ORGANIZATION ( #49, #161 ) ;
#117 = APPROVAL_PERSON_ORGANIZATION ( #116, #51, #81 ) ;
#118 = VECTOR ( 'NONE', #150, 1000.000000000000114 ) ;
#119 = PERSON_AND_ORGANIZATION ( #49, #161 ) ;
#120 = ORIENTED_EDGE ( 'NONE', *, *, #297, .F. ) ;
#121 = FACE_OUTER_BOUND ( 'NONE', #292, .T. ) ;
#122 = ORIENTED_EDGE ( 'NONE', *, *, #171, .F. ) ;
#123 = FACE_OUTER_BOUND ( 'NONE', #86, .T. ) ;
#124 = AXIS2_PLACEMENT_3D ( 'NONE', #136, #233, #109 ) ;
#125 = CYLINDRICAL_SURFACE ( 'NONE', #264, 3.999999999999992450 ) ;
#126 = CARTESIAN_POINT ( 'NONE',  ( 8.881433273980853872E-15, 3.999999999999990674, 2.403442476110262405 ) ) ;
#127 = EDGE_CURVE ( 'NONE', #82, #263, #202, .T. ) ;
#128 = LINE ( 'NONE', #172, #143 ) ;
#129 = ADVANCED_BREP_SHAPE_REPRESENTATION ( '54636', ( #107, #328, #138 ), #332 ) ;
#130 = AXIS2_PLACEMENT_3D ( 'NONE', #165, #187, #293 ) ;
#131 = ORIENTED_EDGE ( 'NONE', *, *, #280, .F. ) ;
#132 = CARTESIAN_POINT ( 'NONE',  ( 9.426999614876460059E-14, 2.999519565323705910E-32, 27.00000000000000000 ) ) ;
#133 = UNCERTAINTY_MEASURE_WITH_UNIT (LENGTH_MEASURE( 1.000000000000000082E-05 ), #192, 'distance_accuracy_value', 'NONE');
#134 = DIRECTION ( 'NONE',  ( 0.0000000000000000000, 1.000000000000000000, 0.0000000000000000000 ) ) ;
#135 = ADVANCED_FACE ( 'NONE', ( #123 ), #125, .T. ) ;
#136 = CARTESIAN_POINT ( 'NONE',  ( 9.426999614876460059E-14, -3.306546357697853733E-15, 27.00000000000000000 ) ) ;
#137 = CLOSED_SHELL ( 'NONE', ( #310, #174, #148, #135, #203 ) ) ;
#138 = AXIS2_PLACEMENT_3D ( 'NONE', #262, #62, #80 ) ;
#139 = CARTESIAN_POINT ( 'NONE',  ( 4.898587196589386205E-16, -3.999999999999992450, -4.898587196589420717E-16 ) ) ;
#140 = ADVANCED_FACE ( 'NONE', ( #162 ), #21, .T. ) ;
#141 = DIRECTION ( 'NONE',  ( 0.0000000000000000000, 1.000000000000000000, 0.0000000000000000000 ) ) ;
#142 = PRODUCT_DEFINITION_SHAPE ( 'NONE', 'NONE',  #163 ) ;
#143 = VECTOR ( 'NONE', #224, 1000.000000000000000 ) ;
#144 = SECURITY_CLASSIFICATION_LEVEL ( 'unclassified' ) ;
#145 = DATE_AND_TIME ( #290, #229 ) ;
#146 = CALENDAR_DATE ( 2021, 3, 9 ) ;
#147 = AXIS2_PLACEMENT_3D ( 'NONE', #327, #71, #100 ) ;
#148 = ADVANCED_FACE ( 'NONE', ( #260 ), #25, .T. ) ;
#149 = COORDINATED_UNIVERSAL_TIME_OFFSET ( 1, 0, .AHEAD. ) ;
#150 = DIRECTION ( 'NONE',  ( -2.468850131082257455E-15, 0.7071067811865497932, -0.7071067811865453523 ) ) ;
#151 = CARTESIAN_POINT ( 'NONE',  ( 1.841417771428077425E-13, -3.999999999999997335, 27.00000000000000000 ) ) ;
#152 = AXIS2_PLACEMENT_3D ( 'NONE', #132, #207, #79 ) ;
#153 = APPROVAL_DATE_TIME ( #299, #318 ) ;
#154 = ORIENTED_EDGE ( 'NONE', *, *, #42, .T. ) ;
#155 = ORIENTED_EDGE ( 'NONE', *, *, #31, .T. ) ;
#156 = ORIENTED_EDGE ( 'NONE', *, *, #301, .F. ) ;
#157 = DIRECTION ( 'NONE',  ( 4.275831445896958607E-31, 1.000000000000000000, 1.224646799147352961E-16 ) ) ;
#158 = CIRCLE ( 'NONE', #321, 4.000000000000000000 ) ;
#159 = CARTESIAN_POINT ( 'NONE',  ( 8.391574554321911702E-15, -3.999999999999990674, 2.403442476110261516 ) ) ;
#160 = DIRECTION ( 'NONE',  ( 0.0000000000000000000, 1.000000000000000000, 0.0000000000000000000 ) ) ;
#161 = ORGANIZATION ( 'UNSPECIFIED', 'UNSPECIFIED', '' ) ;
#162 = FACE_OUTER_BOUND ( 'NONE', #216, .T. ) ;
#163 = PRODUCT_DEFINITION ( 'UNKNOWN', '', #286, #75 ) ;
#164 = CARTESIAN_POINT ( 'NONE',  ( 8.391574554321913279E-15, -2.943368135303221055E-16, 2.403442476110261961 ) ) ;
#165 = CARTESIAN_POINT ( 'NONE',  ( 0.0000000000000000000, 0.0000000000000000000, 0.0000000000000000000 ) ) ;
#166 = ORIENTED_EDGE ( 'NONE', *, *, #2, .F. ) ;
#167 = CC_DESIGN_PERSON_AND_ORGANIZATION_ASSIGNMENT ( #214, #32, ( #163 ) ) ;
#168 = ORIENTED_EDGE ( 'NONE', *, *, #2, .T. ) ;
#169 = VERTEX_POINT ( 'NONE', #159 ) ;
#170 = ORIENTED_EDGE ( 'NONE', *, *, #171, .T. ) ;
#171 = EDGE_CURVE ( 'NONE', #222, #43, #308, .T. ) ;
#172 = CARTESIAN_POINT ( 'NONE',  ( 1.710332578358781691E-30, 3.999999999999996447, 4.898587196589408884E-16 ) ) ;
#173 = CARTESIAN_POINT ( 'NONE',  ( 2.758270257686075477E-13, -9.674709713264090904E-15, 79.00000000000000000 ) ) ;
#174 = ADVANCED_FACE ( 'NONE', ( #285 ), #89, .T. ) ;
#175 = CARTESIAN_POINT ( 'NONE',  ( 2.758270257686075477E-13, -9.674709713264090904E-15, 79.00000000000000000 ) ) ;
#176 = LOCAL_TIME ( 9, 53, 58.00000000000000000, #149 ) ;
#177 = AXIS2_PLACEMENT_3D ( 'NONE', #287, #22, #160 ) ;
#178 = DIRECTION ( 'NONE',  ( -3.491481338843133355E-15, 1.224646799147353207E-16, -1.000000000000000000 ) ) ;
#179 = EDGE_LOOP ( 'NONE', ( #170, #13 ) ) ;
#180 = DIRECTION ( 'NONE',  ( -3.491481338843133355E-15, 1.224646799147353207E-16, -1.000000000000000000 ) ) ;
#181 = CYLINDRICAL_SURFACE ( 'NONE', #248, 3.999999999999992450 ) ;
#182 = DIRECTION ( 'NONE',  ( -3.491481338843133355E-15, 1.224646799147353207E-16, -1.000000000000000000 ) ) ;
#183 = CARTESIAN_POINT ( 'NONE',  ( 0.0000000000000000000, 0.0000000000000000000, 0.0000000000000000000 ) ) ;
#184 = LOCAL_TIME ( 9, 53, 58.00000000000000000, #113 ) ;
#185 = DIRECTION ( 'NONE',  ( 3.491481338843133355E-15, -1.224646799147353207E-16, 1.000000000000000000 ) ) ;
#186 = APPLICATION_PROTOCOL_DEFINITION ( 'international standard', 'config_control_design', 1994, #95 ) ;
#187 = DIRECTION ( 'NONE',  ( -3.491481338843133355E-15, 1.224646799147353207E-16, -1.000000000000000000 ) ) ;
#188 = ORIENTED_EDGE ( 'NONE', *, *, #77, .F. ) ;
#189 = CALENDAR_DATE ( 2021, 3, 9 ) ;
#190 = CIRCLE ( 'NONE', #103, 3.999999999999990674 ) ;
#191 = ORIENTED_EDGE ( 'NONE', *, *, #93, .F. ) ;
#192 =( LENGTH_UNIT ( ) NAMED_UNIT ( * ) SI_UNIT ( .MILLI., .METRE. ) );
#193 = ORIENTED_EDGE ( 'NONE', *, *, #42, .F. ) ;
#194 = APPROVAL_ROLE ( '' ) ;
#195 = EDGE_LOOP ( 'NONE', ( #24, #315, #267, #156 ) ) ;
#196 = ORIENTED_EDGE ( 'NONE', *, *, #301, .T. ) ;
#197 = CARTESIAN_POINT ( 'NONE',  ( 0.0000000000000000000, 0.0000000000000000000, 0.0000000000000000000 ) ) ;
#198 = EDGE_CURVE ( 'NONE', #317, #169, #52, .T. ) ;
#199 = CARTESIAN_POINT ( 'NONE',  ( 4.898587196589392121E-16, -3.999999999999996447, -4.898587196589424662E-16 ) ) ;
#200 = CALENDAR_DATE ( 2021, 3, 9 ) ;
#201 = FACE_OUTER_BOUND ( 'NONE', #10, .T. ) ;
#202 = LINE ( 'NONE', #306, #83 ) ;
#203 = ADVANCED_FACE ( 'NONE', ( #208 ), #312, .T. ) ;
#204 = LINE ( 'NONE', #45, #20 ) ;
#205 = CIRCLE ( 'NONE', #221, 3.999999999999994227 ) ;
#206 = DIRECTION ( 'NONE',  ( -4.275831445896958607E-31, -1.000000000000000000, -1.224646799147353207E-16 ) ) ;
#207 = DIRECTION ( 'NONE',  ( 3.491481338843133355E-15, -1.224646799147353207E-16, 1.000000000000000000 ) ) ;
#208 = FACE_OUTER_BOUND ( 'NONE', #40, .T. ) ;
#209 = DIRECTION ( 'NONE',  ( -3.491481338843133355E-15, 1.224646799147353207E-16, -1.000000000000000000 ) ) ;
#210 = PERSON_AND_ORGANIZATION ( #49, #161 ) ;
#211 = ORIENTED_EDGE ( 'NONE', *, *, #297, .T. ) ;
#212 = COORDINATED_UNIVERSAL_TIME_OFFSET ( 1, 0, .AHEAD. ) ;
#213 = ORIENTED_EDGE ( 'NONE', *, *, #326, .T. ) ;
#214 = PERSON_AND_ORGANIZATION ( #49, #161 ) ;
#215 = SECURITY_CLASSIFICATION ( '', '', #144 ) ;
#216 = EDGE_LOOP ( 'NONE', ( #188, #244, #154, #131 ) ) ;
#217 = CIRCLE ( 'NONE', #47, 3.200000000000000178 ) ;
#218 = CC_DESIGN_PERSON_AND_ORGANIZATION_ASSIGNMENT ( #85, #269, ( #36 ) ) ;
#219 = APPROVAL_ROLE ( '' ) ;
#220 = ORIENTED_EDGE ( 'NONE', *, *, #127, .T. ) ;
#221 = AXIS2_PLACEMENT_3D ( 'NONE', #1, #18, #141 ) ;
#222 = VERTEX_POINT ( 'NONE', #256 ) ;
#223 = ADVANCED_FACE ( 'NONE', ( #54 ), #4, .F. ) ;
#224 = DIRECTION ( 'NONE',  ( -3.491481338843133355E-15, 1.224646799147353207E-16, -1.000000000000000000 ) ) ;
#225 = DIRECTION ( 'NONE',  ( 0.0000000000000000000, 1.000000000000000000, 0.0000000000000000000 ) ) ;
#226 = DIRECTION ( 'NONE',  ( 0.0000000000000000000, 1.000000000000000000, 0.0000000000000000000 ) ) ;
#227 = DIRECTION ( 'NONE',  ( -3.491481338843133355E-15, 1.224646799147353207E-16, -1.000000000000000000 ) ) ;
#228 = DIRECTION ( 'NONE',  ( -3.491481338843133355E-15, 1.224646799147353207E-16, -1.000000000000000000 ) ) ;
#229 = LOCAL_TIME ( 9, 53, 58.00000000000000000, #37 ) ;
#230 = CARTESIAN_POINT ( 'NONE',  ( 1.841417771428076162E-13, -4.000000000000009770, 78.20000000000000284 ) ) ;
#231 = VECTOR ( 'NONE', #3, 1000.000000000000000 ) ;
#232 = DIRECTION ( 'NONE',  ( 4.275831445896957731E-31, 1.000000000000000000, 1.224646799147353207E-16 ) ) ;
#233 = DIRECTION ( 'NONE',  ( -3.491481338843133355E-15, 1.224646799147353207E-16, -1.000000000000000000 ) ) ;
#234 = AXIS2_PLACEMENT_3D ( 'NONE', #336, #185, #206 ) ;
#235 = CC_DESIGN_PERSON_AND_ORGANIZATION_ASSIGNMENT ( #56, #27, ( #286 ) ) ;
#236 = ORIENTED_EDGE ( 'NONE', *, *, #34, .T. ) ;
#237 = VECTOR ( 'NONE', #281, 999.9999999999998863 ) ;
#238 =( NAMED_UNIT ( * ) PLANE_ANGLE_UNIT ( ) SI_UNIT ( $, .RADIAN. ) );
#239 = DATE_TIME_ROLE ( 'classification_date' ) ;
#240 = ORIENTED_EDGE ( 'NONE', *, *, #115, .F. ) ;
#241 = AXIS2_PLACEMENT_3D ( 'NONE', #50, #227, #134 ) ;
#242 = ORIENTED_EDGE ( 'NONE', *, *, #288, .T. ) ;
#243 = AXIS2_PLACEMENT_3D ( 'NONE', #98, #302, #12 ) ;
#244 = ORIENTED_EDGE ( 'NONE', *, *, #93, .T. ) ;
#245 = CARTESIAN_POINT ( 'NONE',  ( 2.748713060807633257E-13, -3.200000000000009504, 79.00000000000000000 ) ) ;
#246 = FACE_OUTER_BOUND ( 'NONE', #271, .T. ) ;
#247 = EDGE_CURVE ( 'NONE', #169, #329, #276, .T. ) ;
#248 = AXIS2_PLACEMENT_3D ( 'NONE', #78, #180, #157 ) ;
#249 = SHAPE_DEFINITION_REPRESENTATION ( #142, #129 ) ;
#250 = ORIENTED_EDGE ( 'NONE', *, *, #247, .F. ) ;
#251 = VERTEX_POINT ( 'NONE', #19 ) ;
#252 = EDGE_CURVE ( 'NONE', #251, #82, #84, .T. ) ;
#253 = CARTESIAN_POINT ( 'NONE',  ( 2.730338406975330915E-13, -9.576737969332302470E-15, 78.20000000000000284 ) ) ;
#254 = AXIS2_PLACEMENT_3D ( 'NONE', #307, #108, #17 ) ;
#255 = CARTESIAN_POINT ( 'NONE',  ( 5.182064407120215414E-14, -3.999999999999997335, 27.00000000000000000 ) ) ;
#256 = CARTESIAN_POINT ( 'NONE',  ( 9.426999614876460059E-14, 3.999999999999990674, 27.00000000000000000 ) ) ;
#257 = DIRECTION ( 'NONE',  ( 3.851859888774480902E-31, 1.000000000000000000, 1.084202172485507022E-16 ) ) ;
#258 = CC_DESIGN_APPROVAL ( #318, ( #215 ) ) ;
#259 = AXIS2_PLACEMENT_3D ( 'NONE', #173, #330, #225 ) ;
#260 = FACE_OUTER_BOUND ( 'NONE', #322, .T. ) ;
#261 = DIRECTION ( 'NONE',  ( 3.491481338843133355E-15, -1.224646799147353207E-16, 1.000000000000000000 ) ) ;
#262 = CARTESIAN_POINT ( 'NONE',  ( 0.0000000000000000000, 0.0000000000000000000, 0.0000000000000000000 ) ) ;
#263 = VERTEX_POINT ( 'NONE', #230 ) ;
#264 = AXIS2_PLACEMENT_3D ( 'NONE', #197, #69, #300 ) ;
#265 = COORDINATED_UNIVERSAL_TIME_OFFSET ( 1, 0, .AHEAD. ) ;
#266 = ORIENTED_EDGE ( 'NONE', *, *, #72, .F. ) ;
#267 = ORIENTED_EDGE ( 'NONE', *, *, #326, .F. ) ;
#268 = CALENDAR_DATE ( 2021, 3, 9 ) ;
#269 = PERSON_AND_ORGANIZATION_ROLE ( 'design_owner' ) ;
#270 = APPROVAL_PERSON_ORGANIZATION ( #210, #97, #219 ) ;
#271 = EDGE_LOOP ( 'NONE', ( #325, #88 ) ) ;
#272 = DIRECTION ( 'NONE',  ( -3.491481338843133355E-15, 1.224646799147353207E-16, -1.000000000000000000 ) ) ;
#273 = ADVANCED_FACE ( 'NONE', ( #334 ), #58, .T. ) ;
#274 = ORIENTED_EDGE ( 'NONE', *, *, #198, .F. ) ;
#275 = DIRECTION ( 'NONE',  ( -3.491481338843133355E-15, 1.224646799147353207E-16, -1.000000000000000000 ) ) ;
#276 = CIRCLE ( 'NONE', #53, 3.999999999999990674 ) ;
#277 = CLOSED_SHELL ( 'NONE', ( #273, #335, #223, #140, #61, #110 ) ) ;
#278 = AXIS2_PLACEMENT_3D ( 'NONE', #183, #228, #232 ) ;
#279 = DIRECTION ( 'NONE',  ( -3.491481338843133355E-15, 1.224646799147353207E-16, -1.000000000000000000 ) ) ;
#280 = EDGE_CURVE ( 'NONE', #43, #222, #205, .T. ) ;
#281 = DIRECTION ( 'NONE',  ( 1.903218546456022717E-15, 0.8571673007021097801, 0.5150380749100585964 ) ) ;
#282 = DIRECTION ( 'NONE',  ( 1.798245827342160317E-15, -0.8571673007021098911, 0.5150380749100582634 ) ) ;
#283 = DIRECTION ( 'NONE',  ( -3.491481338843133355E-15, 1.224646799147353207E-16, -1.000000000000000000 ) ) ;
#284 = DIRECTION ( 'NONE',  ( 3.851859888774480902E-31, 1.000000000000000000, 1.084202172485507022E-16 ) ) ;
#285 = FACE_OUTER_BOUND ( 'NONE', #305, .T. ) ;
#286 = PRODUCT_DEFINITION_FORMATION_WITH_SPECIFIED_SOURCE ( 'ANY', '', #36, .NOT_KNOWN. ) ;
#287 = CARTESIAN_POINT ( 'NONE',  ( 2.758270257686075477E-13, -9.674709713264090904E-15, 79.00000000000000000 ) ) ;
#288 = EDGE_CURVE ( 'NONE', #33, #169, #106, .T. ) ;
#289 = APPLICATION_CONTEXT ( 'configuration controlled 3d designs of mechanical parts and assemblies' ) ;
#290 = CALENDAR_DATE ( 2021, 3, 9 ) ;
#291 = APPROVAL_STATUS ( 'not_yet_approved' ) ;
#292 = EDGE_LOOP ( 'NONE', ( #168, #333, #122, #193 ) ) ;
#293 = DIRECTION ( 'NONE',  ( 4.275831445896957731E-31, 1.000000000000000000, 1.224646799147353207E-16 ) ) ;
#294 = ORIENTED_EDGE ( 'NONE', *, *, #247, .T. ) ;
#295 = DATE_TIME_ROLE ( 'creation_date' ) ;
#296 = ORIENTED_EDGE ( 'NONE', *, *, #288, .F. ) ;
#297 = EDGE_CURVE ( 'NONE', #317, #57, #46, .T. ) ;
#298 = DIRECTION ( 'NONE',  ( 0.0000000000000000000, 1.000000000000000000, 0.0000000000000000000 ) ) ;
#299 = DATE_AND_TIME ( #200, #176 ) ;
#300 = DIRECTION ( 'NONE',  ( 4.275831445896958607E-31, 1.000000000000000000, 1.224646799147352961E-16 ) ) ;
#301 = EDGE_CURVE ( 'NONE', #57, #329, #204, .T. ) ;
#302 = DIRECTION ( 'NONE',  ( -3.491481338843133355E-15, 1.224646799147353207E-16, -1.000000000000000000 ) ) ;
#303 = CC_DESIGN_SECURITY_CLASSIFICATION ( #215, ( #286 ) ) ;
#304 = CIRCLE ( 'NONE', #9, 4.000000000000000000 ) ;
#305 = EDGE_LOOP ( 'NONE', ( #296, #236, #213 ) ) ;
#306 = CARTESIAN_POINT ( 'NONE',  ( 2.762189127443346699E-13, -3.200000000000009504, 79.00000000000000000 ) ) ;
#307 = CARTESIAN_POINT ( 'NONE',  ( 8.391574554321913279E-15, -2.943368135303221055E-16, 2.403442476110261961 ) ) ;
#308 = CIRCLE ( 'NONE', #124, 3.999999999999994227 ) ;
#309 = CARTESIAN_POINT ( 'NONE',  ( 9.426999614876460059E-14, -3.306546357697853733E-15, 27.00000000000000000 ) ) ;
#310 = ADVANCED_FACE ( 'NONE', ( #311 ), #181, .T. ) ;
#311 = FACE_OUTER_BOUND ( 'NONE', #195, .T. ) ;
#312 = PLANE ( 'NONE',  #152 ) ;
#313 = CC_DESIGN_PERSON_AND_ORGANIZATION_ASSIGNMENT ( #8, #314, ( #286 ) ) ;
#314 = PERSON_AND_ORGANIZATION_ROLE ( 'creator' ) ;
#315 = ORIENTED_EDGE ( 'NONE', *, *, #198, .T. ) ;
#316 = MECHANICAL_CONTEXT ( 'NONE', #289, 'mechanical' ) ;
#317 = VERTEX_POINT ( 'NONE', #255 ) ;
#318 = APPROVAL ( #68, 'UNSPECIFIED' ) ;
#319 = APPROVAL_PERSON_ORGANIZATION ( #65, #318, #194 ) ;
#320 =( NAMED_UNIT ( * ) SI_UNIT ( $, .STERADIAN. ) SOLID_ANGLE_UNIT ( ) );
#321 = AXIS2_PLACEMENT_3D ( 'NONE', #253, #275, #298 ) ;
#322 = EDGE_LOOP ( 'NONE', ( #64, #242, #294 ) ) ;
#323 = CC_DESIGN_APPROVAL ( #97, ( #286 ) ) ;
#324 = CARTESIAN_POINT ( 'NONE',  ( 8.881433273980853872E-15, 3.999999999999990674, 2.403442476110262405 ) ) ;
#325 = ORIENTED_EDGE ( 'NONE', *, *, #252, .F. ) ;
#326 = EDGE_CURVE ( 'NONE', #329, #169, #190, .T. ) ;
#327 = CARTESIAN_POINT ( 'NONE',  ( 9.426999614876460059E-14, -3.306546357697853733E-15, 27.00000000000000000 ) ) ;
#328 = MANIFOLD_SOLID_BREP ( 'Corps-Déplacer/Copier1[2]', #137 ) ;
#329 = VERTEX_POINT ( 'NONE', #324 ) ;
#330 = DIRECTION ( 'NONE',  ( -3.491481338843133355E-15, 1.224646799147353207E-16, -1.000000000000000000 ) ) ;
#331 = DIRECTION ( 'NONE',  ( 0.0000000000000000000, 1.000000000000000000, 0.0000000000000000000 ) ) ;
#332 =( GEOMETRIC_REPRESENTATION_CONTEXT ( 3 ) GLOBAL_UNCERTAINTY_ASSIGNED_CONTEXT ( ( #133 ) ) GLOBAL_UNIT_ASSIGNED_CONTEXT ( ( #192, #238, #320 ) ) REPRESENTATION_CONTEXT ( 'NONE', 'WORKASPACE' ) );
#333 = ORIENTED_EDGE ( 'NONE', *, *, #77, .T. ) ;
#334 = FACE_OUTER_BOUND ( 'NONE', #30, .T. ) ;
#335 = ADVANCED_FACE ( 'NONE', ( #121 ), #87, .T. ) ;
#336 = CARTESIAN_POINT ( 'NONE',  ( 9.426999614876460059E-14, 2.999519565323705910E-32, 27.00000000000000000 ) ) ;
#337 = AXIS2_PLACEMENT_3D ( 'NONE', #309, #283, #104 ) ;
ENDSEC;
END-ISO-10303-21;
