ISO-10303-21;
HEADER;
FILE_DESCRIPTION (( 'STEP AP203' ),
    '1' );
FILE_NAME ('54635.step',
    '2021-09-03T07:53:53',
    ( '' ),
    ( '' ),
    'SwSTEP 2.0',
    'SolidWorks 2019',
    '' );
FILE_SCHEMA (( 'CONFIG_CONTROL_DESIGN' ));
ENDSEC;

DATA;
#1 = APPROVAL_DATE_TIME ( #124, #194 ) ;
#2 = DIRECTION ( 'NONE',  ( -3.491481338843133355E-15, 1.224646799147353207E-16, -1.000000000000000000 ) ) ;
#3 = EDGE_LOOP ( 'NONE', ( #129, #127, #281, #309 ) ) ;
#4 = DIRECTION ( 'NONE',  ( -3.491481338843133355E-15, 1.224646799147353207E-16, -1.000000000000000000 ) ) ;
#5 = ORIENTED_EDGE ( 'NONE', *, *, #283, .F. ) ;
#6 = EDGE_CURVE ( 'NONE', #208, #207, #75, .T. ) ;
#7 = ORIENTED_EDGE ( 'NONE', *, *, #174, .F. ) ;
#8 = DIRECTION ( 'NONE',  ( -2.382254525458708792E-15, -0.7071067811865495711, -0.7071067811865455743 ) ) ;
#9 = CARTESIAN_POINT ( 'NONE',  ( 8.286679872392888082E-15, -3.949999999999990852, 2.373399445158883125 ) ) ;
#10 = AXIS2_PLACEMENT_3D ( 'NONE', #192, #130, #325 ) ;
#11 = DIRECTION ( 'NONE',  ( -3.491481338843133355E-15, 1.224646799147353207E-16, -1.000000000000000000 ) ) ;
#12 = CARTESIAN_POINT ( 'NONE',  ( 9.426999614876460059E-14, 3.949999999999990852, 27.00000000000000000 ) ) ;
#13 = CYLINDRICAL_SURFACE ( 'NONE', #209, 3.949999999999992628 ) ;
#14 = EDGE_CURVE ( 'NONE', #99, #43, #205, .T. ) ;
#15 = CALENDAR_DATE ( 2021, 3, 9 ) ;
#16 = DIRECTION ( 'NONE',  ( 0.0000000000000000000, 1.000000000000000000, 0.0000000000000000000 ) ) ;
#17 = APPLICATION_CONTEXT ( 'configuration controlled 3d designs of mechanical parts and assemblies' ) ;
#18 = DATE_AND_TIME ( #68, #259 ) ;
#19 = APPROVAL_PERSON_ORGANIZATION ( #94, #331, #137 ) ;
#20 = APPROVAL_DATE_TIME ( #50, #272 ) ;
#21 = DIRECTION ( 'NONE',  ( -3.491481338843133355E-15, 1.224646799147353207E-16, -1.000000000000000000 ) ) ;
#22 = LINE ( 'NONE', #206, #150 ) ;
#23 = CARTESIAN_POINT ( 'NONE',  ( 8.286679872392888082E-15, -3.949999999999990852, 2.373399445158883125 ) ) ;
#24 = LOCAL_TIME ( 9, 53, 53.00000000000000000, #201 ) ;
#25 = APPLICATION_CONTEXT ( 'configuration controlled 3d designs of mechanical parts and assemblies' ) ;
#26 = CC_DESIGN_PERSON_AND_ORGANIZATION_ASSIGNMENT ( #146, #328, ( #232 ) ) ;
#27 = DIRECTION ( 'NONE',  ( -3.491481338843133355E-15, 1.224646799147353207E-16, -1.000000000000000000 ) ) ;
#28 = ORIENTED_EDGE ( 'NONE', *, *, #329, .T. ) ;
#29 = VERTEX_POINT ( 'NONE', #77 ) ;
#30 = AXIS2_PLACEMENT_3D ( 'NONE', #33, #85, #111 ) ;
#31 = ORIENTED_EDGE ( 'NONE', *, *, #14, .F. ) ;
#32 = CARTESIAN_POINT ( 'NONE',  ( 2.758270257686075477E-13, -9.674709713264090904E-15, 79.00000000000000000 ) ) ;
#33 = CARTESIAN_POINT ( 'NONE',  ( 2.730338406975330915E-13, -9.576737969332302470E-15, 78.20000000000000284 ) ) ;
#34 = PERSON ( 'UNSPECIFIED', 'UNSPECIFIED', 'UNSPECIFIED', ('UNSPECIFIED'), ('UNSPECIFIED'), ('UNSPECIFIED') ) ;
#35 = VECTOR ( 'NONE', #8, 1000.000000000000114 ) ;
#36 = FACE_OUTER_BOUND ( 'NONE', #240, .T. ) ;
#37 = CARTESIAN_POINT ( 'NONE',  ( 0.0000000000000000000, 0.0000000000000000000, 0.0000000000000000000 ) ) ;
#38 = DIRECTION ( 'NONE',  ( -3.900617608885549931E-31, -1.000000000000000000, -1.097926250618234861E-16 ) ) ;
#39 = ORGANIZATION ( 'UNSPECIFIED', 'UNSPECIFIED', '' ) ;
#40 = CC_DESIGN_DATE_AND_TIME_ASSIGNMENT ( #225, #299, ( #177 ) ) ;
#41 = LINE ( 'NONE', #302, #108 ) ;
#42 = COORDINATED_UNIVERSAL_TIME_OFFSET ( 1, 0, .AHEAD. ) ;
#43 = VERTEX_POINT ( 'NONE', #9 ) ;
#44 = APPROVAL_STATUS ( 'not_yet_approved' ) ;
#45 = PRODUCT_DEFINITION_SHAPE ( 'NONE', 'NONE',  #177 ) ;
#46 = COORDINATED_UNIVERSAL_TIME_OFFSET ( 1, 0, .AHEAD. ) ;
#47 = FACE_OUTER_BOUND ( 'NONE', #228, .T. ) ;
#48 = VECTOR ( 'NONE', #315, 1000.000000000000114 ) ;
#49 = SECURITY_CLASSIFICATION ( '', '', #220 ) ;
#50 = DATE_AND_TIME ( #173, #332 ) ;
#51 = DIRECTION ( 'NONE',  ( -3.491481338843133355E-15, 1.224646799147353207E-16, -1.000000000000000000 ) ) ;
#52 = ORIENTED_EDGE ( 'NONE', *, *, #184, .T. ) ;
#53 = CIRCLE ( 'NONE', #10, 3.950000000000000178 ) ;
#54 = CARTESIAN_POINT ( 'NONE',  ( 2.758270257686075477E-13, 3.149999999999991029, 79.00000000000000000 ) ) ;
#55 = ORIENTED_EDGE ( 'NONE', *, *, #294, .F. ) ;
#56 = DIRECTION ( 'NONE',  ( -3.491481338843133355E-15, 1.224646799147353207E-16, -1.000000000000000000 ) ) ;
#57 = ORIENTED_EDGE ( 'NONE', *, *, #169, .F. ) ;
#58 = VERTEX_POINT ( 'NONE', #86 ) ;
#59 = AXIS2_PLACEMENT_3D ( 'NONE', #65, #162, #38 ) ;
#60 = DIRECTION ( 'NONE',  ( -3.491481338843133355E-15, 1.224646799147353207E-16, -1.000000000000000000 ) ) ;
#61 = CC_DESIGN_PERSON_AND_ORGANIZATION_ASSIGNMENT ( #170, #95, ( #177 ) ) ;
#62 = CARTESIAN_POINT ( 'NONE',  ( 2.730338406975330915E-13, 3.949999999999990852, 78.20000000000000284 ) ) ;
#63 = CARTESIAN_POINT ( 'NONE',  ( 0.0000000000000000000, 0.0000000000000000000, 0.0000000000000000000 ) ) ;
#64 = EDGE_CURVE ( 'NONE', #58, #80, #53, .T. ) ;
#65 = CARTESIAN_POINT ( 'NONE',  ( 8.286679872392889659E-15, -2.906576033611931014E-16, 2.373399445158883569 ) ) ;
#66 = CONICAL_SURFACE ( 'NONE', #133, 3.150000000000000355, 0.7853981633974512766 ) ;
#67 = DIRECTION ( 'NONE',  ( -3.491481338843133355E-15, 1.224646799147353207E-16, -1.000000000000000000 ) ) ;
#68 = CALENDAR_DATE ( 2021, 3, 9 ) ;
#69 = APPROVAL_ROLE ( '' ) ;
#70 = AXIS2_PLACEMENT_3D ( 'NONE', #223, #307, #248 ) ;
#71 = PLANE ( 'NONE',  #230 ) ;
#72 = PERSON_AND_ORGANIZATION_ROLE ( 'design_owner' ) ;
#73 = COORDINATED_UNIVERSAL_TIME_OFFSET ( 1, 0, .AHEAD. ) ;
#74 = DATE_AND_TIME ( #143, #264 ) ;
#75 = CIRCLE ( 'NONE', #107, 3.150000000000000355 ) ;
#76 = ORIENTED_EDGE ( 'NONE', *, *, #114, .F. ) ;
#77 = CARTESIAN_POINT ( 'NONE',  ( 1.841356539088119943E-13, -3.949999999999997957, 27.00000000000000000 ) ) ;
#78 = EDGE_LOOP ( 'NONE', ( #147, #236, #55, #235 ) ) ;
#79 = CIRCLE ( 'NONE', #316, 3.949999999999994404 ) ;
#80 = VERTEX_POINT ( 'NONE', #62 ) ;
#81 = ORIENTED_EDGE ( 'NONE', *, *, #294, .T. ) ;
#82 = LINE ( 'NONE', #265, #175 ) ;
#83 = AXIS2_PLACEMENT_3D ( 'NONE', #106, #324, #243 ) ;
#84 =( GEOMETRIC_REPRESENTATION_CONTEXT ( 3 ) GLOBAL_UNCERTAINTY_ASSIGNED_CONTEXT ( ( #310 ) ) GLOBAL_UNIT_ASSIGNED_CONTEXT ( ( #334, #118, #90 ) ) REPRESENTATION_CONTEXT ( 'NONE', 'WORKASPACE' ) );
#85 = DIRECTION ( 'NONE',  ( -3.491481338843133355E-15, 1.224646799147353207E-16, -1.000000000000000000 ) ) ;
#86 = CARTESIAN_POINT ( 'NONE',  ( 1.841356539088118681E-13, -3.950000000000009948, 78.20000000000000284 ) ) ;
#87 = LINE ( 'NONE', #188, #132 ) ;
#88 = CIRCLE ( 'NONE', #144, 3.150000000000000355 ) ;
#89 = CYLINDRICAL_SURFACE ( 'NONE', #308, 3.949999999999992628 ) ;
#90 =( NAMED_UNIT ( * ) SI_UNIT ( $, .STERADIAN. ) SOLID_ANGLE_UNIT ( ) );
#91 = DIRECTION ( 'NONE',  ( 3.491481338843133355E-15, -1.224646799147353207E-16, 1.000000000000000000 ) ) ;
#92 = FACE_OUTER_BOUND ( 'NONE', #156, .T. ) ;
#93 = CC_DESIGN_APPROVAL ( #331, ( #177 ) ) ;
#94 = PERSON_AND_ORGANIZATION ( #34, #39 ) ;
#95 = PERSON_AND_ORGANIZATION_ROLE ( 'creator' ) ;
#96 = MANIFOLD_SOLID_BREP ( 'Corps-Déplacer/Copier1[2]', #226 ) ;
#97 = ADVANCED_FACE ( 'NONE', ( #134 ), #197, .T. ) ;
#98 = ORIENTED_EDGE ( 'NONE', *, *, #204, .F. ) ;
#99 = VERTEX_POINT ( 'NONE', #63 ) ;
#100 = VERTEX_POINT ( 'NONE', #136 ) ;
#101 = ORIENTED_EDGE ( 'NONE', *, *, #329, .F. ) ;
#102 = AXIS2_PLACEMENT_3D ( 'NONE', #140, #91, #278 ) ;
#103 = AXIS2_PLACEMENT_3D ( 'NONE', #287, #159, #271 ) ;
#104 = ORIENTED_EDGE ( 'NONE', *, *, #6, .F. ) ;
#105 = CARTESIAN_POINT ( 'NONE',  ( 9.426999614876460059E-14, -3.306546357697853733E-15, 27.00000000000000000 ) ) ;
#106 = CARTESIAN_POINT ( 'NONE',  ( 8.286679872392889659E-15, -2.906576033611931014E-16, 2.373399445158883569 ) ) ;
#107 = AXIS2_PLACEMENT_3D ( 'NONE', #320, #51, #231 ) ;
#108 = VECTOR ( 'NONE', #112, 1000.000000000000000 ) ;
#109 = PRODUCT_RELATED_PRODUCT_CATEGORY ( 'detail', '', ( #245 ) ) ;
#110 = CARTESIAN_POINT ( 'NONE',  ( 2.762127895103389218E-13, -3.150000000000010125, 79.00000000000000000 ) ) ;
#111 = DIRECTION ( 'NONE',  ( 0.0000000000000000000, 1.000000000000000000, 0.0000000000000000000 ) ) ;
#112 = DIRECTION ( 'NONE',  ( -3.491481338843133355E-15, 1.224646799147353207E-16, -1.000000000000000000 ) ) ;
#113 = DIRECTION ( 'NONE',  ( -3.491481338843133355E-15, 1.224646799147353207E-16, -1.000000000000000000 ) ) ;
#114 = EDGE_CURVE ( 'NONE', #182, #100, #119, .T. ) ;
#115 = CARTESIAN_POINT ( 'NONE',  ( 2.758270257686075477E-13, -9.674709713264090904E-15, 79.00000000000000000 ) ) ;
#116 = APPLICATION_PROTOCOL_DEFINITION ( 'international standard', 'config_control_design', 1994, #17 ) ;
#117 = DIRECTION ( 'NONE',  ( 3.491481338843133355E-15, -1.224646799147353207E-16, 1.000000000000000000 ) ) ;
#118 =( NAMED_UNIT ( * ) PLANE_ANGLE_UNIT ( ) SI_UNIT ( $, .RADIAN. ) );
#119 = CIRCLE ( 'NONE', #246, 3.949999999999994404 ) ;
#120 = VERTEX_POINT ( 'NONE', #215 ) ;
#121 = AXIS2_PLACEMENT_3D ( 'NONE', #282, #4, #153 ) ;
#122 = CARTESIAN_POINT ( 'NONE',  ( 2.758270257686075477E-13, 2.362121657692412048E-32, 79.00000000000000000 ) ) ;
#123 = PLANE ( 'NONE',  #102 ) ;
#124 = DATE_AND_TIME ( #15, #210 ) ;
#125 = DIRECTION ( 'NONE',  ( 1.798245827342160317E-15, -0.8571673007021098911, 0.5150380749100582634 ) ) ;
#126 = EDGE_LOOP ( 'NONE', ( #31, #319, #81 ) ) ;
#127 = ORIENTED_EDGE ( 'NONE', *, *, #169, .T. ) ;
#128 = VERTEX_POINT ( 'NONE', #12 ) ;
#129 = ORIENTED_EDGE ( 'NONE', *, *, #297, .F. ) ;
#130 = DIRECTION ( 'NONE',  ( -3.491481338843133355E-15, 1.224646799147353207E-16, -1.000000000000000000 ) ) ;
#131 = DIRECTION ( 'NONE',  ( -3.491481338843133355E-15, 1.224646799147353207E-16, -1.000000000000000000 ) ) ;
#132 = VECTOR ( 'NONE', #190, 1000.000000000000000 ) ;
#133 = AXIS2_PLACEMENT_3D ( 'NONE', #115, #172, #16 ) ;
#134 = FACE_OUTER_BOUND ( 'NONE', #126, .T. ) ;
#135 = LINE ( 'NONE', #322, #268 ) ;
#136 = CARTESIAN_POINT ( 'NONE',  ( 5.176207349624191157E-14, -3.949999999999997957, 27.00000000000000000 ) ) ;
#137 = APPROVAL_ROLE ( '' ) ;
#138 = ADVANCED_FACE ( 'NONE', ( #195 ), #158, .T. ) ;
#139 = PERSON_AND_ORGANIZATION_ROLE ( 'creator' ) ;
#140 = CARTESIAN_POINT ( 'NONE',  ( 9.426999614876460059E-14, 2.962025570757159196E-32, 27.00000000000000000 ) ) ;
#141 = ORIENTED_EDGE ( 'NONE', *, *, #167, .F. ) ;
#142 = APPLICATION_PROTOCOL_DEFINITION ( 'international standard', 'config_control_design', 1994, #25 ) ;
#143 = CALENDAR_DATE ( 2021, 3, 9 ) ;
#144 = AXIS2_PLACEMENT_3D ( 'NONE', #32, #131, #216 ) ;
#145 = DIRECTION ( 'NONE',  ( 4.275831445896958607E-31, 1.000000000000000000, 1.224646799147353207E-16 ) ) ;
#146 = PERSON_AND_ORGANIZATION ( #34, #39 ) ;
#147 = ORIENTED_EDGE ( 'NONE', *, *, #114, .T. ) ;
#148 = CC_DESIGN_PERSON_AND_ORGANIZATION_ASSIGNMENT ( #255, #249, ( #49 ) ) ;
#149 = EDGE_LOOP ( 'NONE', ( #337, #256, #211, #5 ) ) ;
#150 = VECTOR ( 'NONE', #27, 1000.000000000000000 ) ;
#151 = APPROVAL_PERSON_ORGANIZATION ( #196, #272, #69 ) ;
#152 = EDGE_LOOP ( 'NONE', ( #101, #186, #313, #280 ) ) ;
#153 = DIRECTION ( 'NONE',  ( 0.0000000000000000000, 1.000000000000000000, 0.0000000000000000000 ) ) ;
#154 = ADVANCED_BREP_SHAPE_REPRESENTATION ( '54635', ( #212, #96, #70 ), #84 ) ;
#155 = DIRECTION ( 'NONE',  ( 3.900617608885549931E-31, 1.000000000000000000, 1.097926250618234861E-16 ) ) ;
#156 = EDGE_LOOP ( 'NONE', ( #187, #258, #314, #234 ) ) ;
#157 = CIRCLE ( 'NONE', #202, 3.949999999999990852 ) ;
#158 = CYLINDRICAL_SURFACE ( 'NONE', #183, 3.949999999999997069 ) ;
#159 = DIRECTION ( 'NONE',  ( -3.491481338843133355E-15, 1.224646799147353207E-16, -1.000000000000000000 ) ) ;
#160 = DIRECTION ( 'NONE',  ( -3.491481338843133355E-15, 1.224646799147353207E-16, -1.000000000000000000 ) ) ;
#161 = CARTESIAN_POINT ( 'NONE',  ( 9.426999614876460059E-14, 3.949999999999990852, 27.00000000000000000 ) ) ;
#162 = DIRECTION ( 'NONE',  ( 3.491481338843133355E-15, -1.224646799147353207E-16, 1.000000000000000000 ) ) ;
#163 = FACE_OUTER_BOUND ( 'NONE', #284, .T. ) ;
#164 = LINE ( 'NONE', #110, #35 ) ;
#165 = APPROVAL_STATUS ( 'not_yet_approved' ) ;
#166 = DIRECTION ( 'NONE',  ( -4.275831445896958607E-31, -1.000000000000000000, -1.224646799147353207E-16 ) ) ;
#167 = EDGE_CURVE ( 'NONE', #99, #120, #82, .T. ) ;
#168 = CIRCLE ( 'NONE', #30, 3.950000000000000178 ) ;
#169 = EDGE_CURVE ( 'NONE', #100, #182, #327, .T. ) ;
#170 = PERSON_AND_ORGANIZATION ( #34, #39 ) ;
#171 = PERSON_AND_ORGANIZATION ( #34, #39 ) ;
#172 = DIRECTION ( 'NONE',  ( -3.491481338843133355E-15, 1.224646799147353207E-16, -1.000000000000000000 ) ) ;
#173 = CALENDAR_DATE ( 2021, 3, 9 ) ;
#174 = EDGE_CURVE ( 'NONE', #80, #128, #87, .T. ) ;
#175 = VECTOR ( 'NONE', #290, 999.9999999999998863 ) ;
#176 = SHAPE_DEFINITION_REPRESENTATION ( #45, #154 ) ;
#177 = PRODUCT_DEFINITION ( 'UNKNOWN', '', #232, #179 ) ;
#178 = ORIENTED_EDGE ( 'NONE', *, *, #286, .T. ) ;
#179 = DESIGN_CONTEXT ( 'detailed design', #25, 'design' ) ;
#180 = ORIENTED_EDGE ( 'NONE', *, *, #14, .T. ) ;
#181 = ADVANCED_FACE ( 'NONE', ( #295 ), #13, .T. ) ;
#182 = VERTEX_POINT ( 'NONE', #161 ) ;
#183 = AXIS2_PLACEMENT_3D ( 'NONE', #242, #270, #219 ) ;
#184 = EDGE_CURVE ( 'NONE', #80, #58, #168, .T. ) ;
#185 = CYLINDRICAL_SURFACE ( 'NONE', #103, 3.949999999999997069 ) ;
#186 = ORIENTED_EDGE ( 'NONE', *, *, #64, .T. ) ;
#187 = ORIENTED_EDGE ( 'NONE', *, *, #213, .F. ) ;
#188 = CARTESIAN_POINT ( 'NONE',  ( 1.688953421129297327E-30, 3.949999999999997069, 4.837354856632041113E-16 ) ) ;
#189 = CC_DESIGN_APPROVAL ( #194, ( #49 ) ) ;
#190 = DIRECTION ( 'NONE',  ( -3.491481338843133355E-15, 1.224646799147353207E-16, -1.000000000000000000 ) ) ;
#191 = CARTESIAN_POINT ( 'NONE',  ( 9.426999614876460059E-14, -3.306546357697853733E-15, 27.00000000000000000 ) ) ;
#192 = CARTESIAN_POINT ( 'NONE',  ( 2.730338406975330915E-13, -9.576737969332302470E-15, 78.20000000000000284 ) ) ;
#193 = CONICAL_SURFACE ( 'NONE', #59, 3.949999999999990852, 1.029744258676649649 ) ;
#194 = APPROVAL ( #165, 'UNSPECIFIED' ) ;
#195 = FACE_OUTER_BOUND ( 'NONE', #260, .T. ) ;
#196 = PERSON_AND_ORGANIZATION ( #34, #39 ) ;
#197 = CONICAL_SURFACE ( 'NONE', #83, 3.949999999999990852, 1.029744258676649649 ) ;
#198 = FACE_OUTER_BOUND ( 'NONE', #203, .T. ) ;
#199 = PERSON_AND_ORGANIZATION ( #34, #39 ) ;
#200 = ADVANCED_FACE ( 'NONE', ( #244 ), #89, .T. ) ;
#201 = COORDINATED_UNIVERSAL_TIME_OFFSET ( 1, 0, .AHEAD. ) ;
#202 = AXIS2_PLACEMENT_3D ( 'NONE', #311, #56, #155 ) ;
#203 = EDGE_LOOP ( 'NONE', ( #261, #279 ) ) ;
#204 = EDGE_CURVE ( 'NONE', #128, #29, #79, .T. ) ;
#205 = LINE ( 'NONE', #23, #301 ) ;
#206 = CARTESIAN_POINT ( 'NONE',  ( 4.837354856632025336E-16, -3.949999999999997069, -4.837354856632057876E-16 ) ) ;
#207 = VERTEX_POINT ( 'NONE', #288 ) ;
#208 = VERTEX_POINT ( 'NONE', #285 ) ;
#209 = AXIS2_PLACEMENT_3D ( 'NONE', #326, #11, #291 ) ;
#210 = LOCAL_TIME ( 9, 53, 53.00000000000000000, #73 ) ;
#211 = ORIENTED_EDGE ( 'NONE', *, *, #184, .F. ) ;
#212 = MANIFOLD_SOLID_BREP ( 'Corps-Déplacer/Copier1[1]', #257 ) ;
#213 = EDGE_CURVE ( 'NONE', #207, #58, #164, .T. ) ;
#214 = DIRECTION ( 'NONE',  ( 0.0000000000000000000, 1.000000000000000000, 0.0000000000000000000 ) ) ;
#215 = CARTESIAN_POINT ( 'NONE',  ( 8.770415358056094757E-15, 3.949999999999990852, 2.373399445158884014 ) ) ;
#216 = DIRECTION ( 'NONE',  ( 0.0000000000000000000, 1.000000000000000000, 0.0000000000000000000 ) ) ;
#217 = EDGE_CURVE ( 'NONE', #207, #208, #88, .T. ) ;
#218 = CARTESIAN_POINT ( 'NONE',  ( 9.426999614876460059E-14, -3.306546357697853733E-15, 27.00000000000000000 ) ) ;
#219 = DIRECTION ( 'NONE',  ( 4.275831445896958607E-31, 1.000000000000000000, 1.224646799147353207E-16 ) ) ;
#220 = SECURITY_CLASSIFICATION_LEVEL ( 'unclassified' ) ;
#221 = DIRECTION ( 'NONE',  ( 3.900617608885549931E-31, 1.000000000000000000, 1.097926250618234861E-16 ) ) ;
#222 = ADVANCED_FACE ( 'NONE', ( #36 ), #193, .T. ) ;
#223 = CARTESIAN_POINT ( 'NONE',  ( 0.0000000000000000000, 0.0000000000000000000, 0.0000000000000000000 ) ) ;
#224 = LINE ( 'NONE', #54, #48 ) ;
#225 = DATE_AND_TIME ( #274, #24 ) ;
#226 = CLOSED_SHELL ( 'NONE', ( #181, #97, #222, #200, #241 ) ) ;
#227 = CARTESIAN_POINT ( 'NONE',  ( 2.758270257686075477E-13, -9.674709713264090904E-15, 79.00000000000000000 ) ) ;
#228 = EDGE_LOOP ( 'NONE', ( #76, #57 ) ) ;
#229 = CC_DESIGN_PERSON_AND_ORGANIZATION_ASSIGNMENT ( #171, #72, ( #245 ) ) ;
#230 = AXIS2_PLACEMENT_3D ( 'NONE', #122, #293, #145 ) ;
#231 = DIRECTION ( 'NONE',  ( 0.0000000000000000000, 1.000000000000000000, 0.0000000000000000000 ) ) ;
#232 = PRODUCT_DEFINITION_FORMATION_WITH_SPECIFIED_SOURCE ( 'ANY', '', #245, .NOT_KNOWN. ) ;
#233 = CC_DESIGN_PERSON_AND_ORGANIZATION_ASSIGNMENT ( #251, #139, ( #232 ) ) ;
#234 = ORIENTED_EDGE ( 'NONE', *, *, #64, .F. ) ;
#235 = ORIENTED_EDGE ( 'NONE', *, *, #239, .F. ) ;
#236 = ORIENTED_EDGE ( 'NONE', *, *, #297, .T. ) ;
#237 = FACE_OUTER_BOUND ( 'NONE', #149, .T. ) ;
#238 = AXIS2_PLACEMENT_3D ( 'NONE', #336, #21, #221 ) ;
#239 = EDGE_CURVE ( 'NONE', #182, #120, #135, .T. ) ;
#240 = EDGE_LOOP ( 'NONE', ( #141, #180, #178 ) ) ;
#241 = ADVANCED_FACE ( 'NONE', ( #47 ), #123, .T. ) ;
#242 = CARTESIAN_POINT ( 'NONE',  ( 0.0000000000000000000, 0.0000000000000000000, 0.0000000000000000000 ) ) ;
#243 = DIRECTION ( 'NONE',  ( -3.900617608885549931E-31, -1.000000000000000000, -1.097926250618234861E-16 ) ) ;
#244 = FACE_OUTER_BOUND ( 'NONE', #3, .T. ) ;
#245 = PRODUCT ( '54635', '54635', '', ( #330 ) ) ;
#246 = AXIS2_PLACEMENT_3D ( 'NONE', #191, #113, #269 ) ;
#247 = CC_DESIGN_SECURITY_CLASSIFICATION ( #49, ( #232 ) ) ;
#248 = DIRECTION ( 'NONE',  ( 1.000000000000000000, 0.0000000000000000000, 0.0000000000000000000 ) ) ;
#249 = PERSON_AND_ORGANIZATION_ROLE ( 'classification_officer' ) ;
#250 = PLANE ( 'NONE',  #292 ) ;
#251 = PERSON_AND_ORGANIZATION ( #34, #39 ) ;
#252 = COORDINATED_UNIVERSAL_TIME_OFFSET ( 1, 0, .AHEAD. ) ;
#253 = AXIS2_PLACEMENT_3D ( 'NONE', #105, #160, #323 ) ;
#254 = CONICAL_SURFACE ( 'NONE', #273, 3.150000000000000355, 0.7853981633974512766 ) ;
#255 = PERSON_AND_ORGANIZATION ( #34, #39 ) ;
#256 = ORIENTED_EDGE ( 'NONE', *, *, #213, .T. ) ;
#257 = CLOSED_SHELL ( 'NONE', ( #305, #138, #263, #335, #321, #289 ) ) ;
#258 = ORIENTED_EDGE ( 'NONE', *, *, #217, .T. ) ;
#259 = LOCAL_TIME ( 9, 53, 53.00000000000000000, #252 ) ;
#260 = EDGE_LOOP ( 'NONE', ( #52, #28, #98, #7 ) ) ;
#261 = ORIENTED_EDGE ( 'NONE', *, *, #204, .T. ) ;
#262 = ORIENTED_EDGE ( 'NONE', *, *, #217, .F. ) ;
#263 = ADVANCED_FACE ( 'NONE', ( #198 ), #250, .F. ) ;
#264 = LOCAL_TIME ( 9, 53, 53.00000000000000000, #46 ) ;
#265 = CARTESIAN_POINT ( 'NONE',  ( 8.770415358056094757E-15, 3.949999999999990852, 2.373399445158884014 ) ) ;
#266 = DIRECTION ( 'NONE',  ( -3.491481338843133355E-15, 1.224646799147353207E-16, -1.000000000000000000 ) ) ;
#267 = DIRECTION ( 'NONE',  ( 4.275831445896958607E-31, 1.000000000000000000, 1.224646799147352961E-16 ) ) ;
#268 = VECTOR ( 'NONE', #60, 1000.000000000000000 ) ;
#269 = DIRECTION ( 'NONE',  ( 0.0000000000000000000, 1.000000000000000000, 0.0000000000000000000 ) ) ;
#270 = DIRECTION ( 'NONE',  ( -3.491481338843133355E-15, 1.224646799147353207E-16, -1.000000000000000000 ) ) ;
#271 = DIRECTION ( 'NONE',  ( 4.275831445896958607E-31, 1.000000000000000000, 1.224646799147353207E-16 ) ) ;
#272 = APPROVAL ( #44, 'UNSPECIFIED' ) ;
#273 = AXIS2_PLACEMENT_3D ( 'NONE', #227, #2, #312 ) ;
#274 = CALENDAR_DATE ( 2021, 3, 9 ) ;
#275 = APPROVAL_DATE_TIME ( #74, #331 ) ;
#276 = CC_DESIGN_DATE_AND_TIME_ASSIGNMENT ( #18, #333, ( #49 ) ) ;
#277 = CIRCLE ( 'NONE', #238, 3.949999999999990852 ) ;
#278 = DIRECTION ( 'NONE',  ( -4.275831445896958607E-31, -1.000000000000000000, -1.224646799147353207E-16 ) ) ;
#279 = ORIENTED_EDGE ( 'NONE', *, *, #300, .T. ) ;
#280 = ORIENTED_EDGE ( 'NONE', *, *, #300, .F. ) ;
#281 = ORIENTED_EDGE ( 'NONE', *, *, #239, .T. ) ;
#282 = CARTESIAN_POINT ( 'NONE',  ( 9.426999614876460059E-14, -3.306546357697853733E-15, 27.00000000000000000 ) ) ;
#283 = EDGE_CURVE ( 'NONE', #208, #80, #224, .T. ) ;
#284 = EDGE_LOOP ( 'NONE', ( #104, #262 ) ) ;
#285 = CARTESIAN_POINT ( 'NONE',  ( 2.758270257686075477E-13, 3.149999999999991029, 79.00000000000000000 ) ) ;
#286 = EDGE_CURVE ( 'NONE', #43, #120, #157, .T. ) ;
#287 = CARTESIAN_POINT ( 'NONE',  ( 0.0000000000000000000, 0.0000000000000000000, 0.0000000000000000000 ) ) ;
#288 = CARTESIAN_POINT ( 'NONE',  ( 2.748651828467675776E-13, -3.150000000000010125, 79.00000000000000000 ) ) ;
#289 = ADVANCED_FACE ( 'NONE', ( #163 ), #71, .F. ) ;
#290 = DIRECTION ( 'NONE',  ( 1.903218546456022717E-15, 0.8571673007021097801, 0.5150380749100585964 ) ) ;
#291 = DIRECTION ( 'NONE',  ( 4.275831445896958607E-31, 1.000000000000000000, 1.224646799147352961E-16 ) ) ;
#292 = AXIS2_PLACEMENT_3D ( 'NONE', #298, #117, #166 ) ;
#293 = DIRECTION ( 'NONE',  ( -3.491481338843133355E-15, 1.224646799147353207E-16, -1.000000000000000000 ) ) ;
#294 = EDGE_CURVE ( 'NONE', #120, #43, #277, .T. ) ;
#295 = FACE_OUTER_BOUND ( 'NONE', #78, .T. ) ;
#296 = APPROVAL_STATUS ( 'not_yet_approved' ) ;
#297 = EDGE_CURVE ( 'NONE', #100, #43, #41, .T. ) ;
#298 = CARTESIAN_POINT ( 'NONE',  ( 9.426999614876460059E-14, 2.962025570757159196E-32, 27.00000000000000000 ) ) ;
#299 = DATE_TIME_ROLE ( 'creation_date' ) ;
#300 = EDGE_CURVE ( 'NONE', #29, #128, #304, .T. ) ;
#301 = VECTOR ( 'NONE', #125, 1000.000000000000000 ) ;
#302 = CARTESIAN_POINT ( 'NONE',  ( 4.837354856632019419E-16, -3.949999999999992628, -4.837354856632052946E-16 ) ) ;
#303 = APPROVAL_PERSON_ORGANIZATION ( #199, #194, #306 ) ;
#304 = CIRCLE ( 'NONE', #121, 3.949999999999994404 ) ;
#305 = ADVANCED_FACE ( 'NONE', ( #237 ), #66, .T. ) ;
#306 = APPROVAL_ROLE ( '' ) ;
#307 = DIRECTION ( 'NONE',  ( 0.0000000000000000000, 0.0000000000000000000, 1.000000000000000000 ) ) ;
#308 = AXIS2_PLACEMENT_3D ( 'NONE', #37, #67, #267 ) ;
#309 = ORIENTED_EDGE ( 'NONE', *, *, #286, .F. ) ;
#310 = UNCERTAINTY_MEASURE_WITH_UNIT (LENGTH_MEASURE( 1.000000000000000082E-05 ), #334, 'distance_accuracy_value', 'NONE');
#311 = CARTESIAN_POINT ( 'NONE',  ( 8.286679872392889659E-15, -2.906576033611931014E-16, 2.373399445158883569 ) ) ;
#312 = DIRECTION ( 'NONE',  ( 0.0000000000000000000, 1.000000000000000000, 0.0000000000000000000 ) ) ;
#313 = ORIENTED_EDGE ( 'NONE', *, *, #174, .T. ) ;
#314 = ORIENTED_EDGE ( 'NONE', *, *, #283, .T. ) ;
#315 = DIRECTION ( 'NONE',  ( -2.468850131082257455E-15, 0.7071067811865497932, -0.7071067811865453523 ) ) ;
#316 = AXIS2_PLACEMENT_3D ( 'NONE', #218, #266, #214 ) ;
#317 = FACE_OUTER_BOUND ( 'NONE', #152, .T. ) ;
#318 = CC_DESIGN_APPROVAL ( #272, ( #232 ) ) ;
#319 = ORIENTED_EDGE ( 'NONE', *, *, #167, .T. ) ;
#320 = CARTESIAN_POINT ( 'NONE',  ( 2.758270257686075477E-13, -9.674709713264090904E-15, 79.00000000000000000 ) ) ;
#321 = ADVANCED_FACE ( 'NONE', ( #92 ), #254, .T. ) ;
#322 = CARTESIAN_POINT ( 'NONE',  ( 1.688953421129295575E-30, 3.949999999999992628, 4.837354856632035197E-16 ) ) ;
#323 = DIRECTION ( 'NONE',  ( 0.0000000000000000000, 1.000000000000000000, 0.0000000000000000000 ) ) ;
#324 = DIRECTION ( 'NONE',  ( 3.491481338843133355E-15, -1.224646799147353207E-16, 1.000000000000000000 ) ) ;
#325 = DIRECTION ( 'NONE',  ( 0.0000000000000000000, 1.000000000000000000, 0.0000000000000000000 ) ) ;
#326 = CARTESIAN_POINT ( 'NONE',  ( 0.0000000000000000000, 0.0000000000000000000, 0.0000000000000000000 ) ) ;
#327 = CIRCLE ( 'NONE', #253, 3.949999999999994404 ) ;
#328 = PERSON_AND_ORGANIZATION_ROLE ( 'design_supplier' ) ;
#329 = EDGE_CURVE ( 'NONE', #58, #29, #22, .T. ) ;
#330 = MECHANICAL_CONTEXT ( 'NONE', #17, 'mechanical' ) ;
#331 = APPROVAL ( #296, 'UNSPECIFIED' ) ;
#332 = LOCAL_TIME ( 9, 53, 53.00000000000000000, #42 ) ;
#333 = DATE_TIME_ROLE ( 'classification_date' ) ;
#334 =( LENGTH_UNIT ( ) NAMED_UNIT ( * ) SI_UNIT ( .MILLI., .METRE. ) );
#335 = ADVANCED_FACE ( 'NONE', ( #317 ), #185, .T. ) ;
#336 = CARTESIAN_POINT ( 'NONE',  ( 8.286679872392889659E-15, -2.906576033611931014E-16, 2.373399445158883569 ) ) ;
#337 = ORIENTED_EDGE ( 'NONE', *, *, #6, .T. ) ;
ENDSEC;
END-ISO-10303-21;
