ISO-10303-21;
HEADER;
FILE_DESCRIPTION (( 'STEP AP203' ),
    '1' );
FILE_NAME ('54634.step',
    '2021-09-03T07:53:48',
    ( '' ),
    ( '' ),
    'SwSTEP 2.0',
    'SolidWorks 2019',
    '' );
FILE_SCHEMA (( 'CONFIG_CONTROL_DESIGN' ));
ENDSEC;

DATA;
#1 = DIRECTION ( 'NONE',  ( -3.491481338843133355E-15, 1.224646799147353207E-16, -1.000000000000000000 ) ) ;
#2 = CARTESIAN_POINT ( 'NONE',  ( 9.426999614876460059E-14, -3.306546357697853733E-15, 27.00000000000000000 ) ) ;
#3 = DIRECTION ( 'NONE',  ( -3.491481338843133355E-15, 1.224646799147353207E-16, -1.000000000000000000 ) ) ;
#4 = APPROVAL_PERSON_ORGANIZATION ( #159, #56, #68 ) ;
#5 = CALENDAR_DATE ( 2021, 3, 9 ) ;
#6 =( NAMED_UNIT ( * ) PLANE_ANGLE_UNIT ( ) SI_UNIT ( $, .RADIAN. ) );
#7 = CC_DESIGN_PERSON_AND_ORGANIZATION_ASSIGNMENT ( #276, #162, ( #190 ) ) ;
#8 = ORIENTED_EDGE ( 'NONE', *, *, #176, .T. ) ;
#9 = APPLICATION_PROTOCOL_DEFINITION ( 'international standard', 'config_control_design', 1994, #235 ) ;
#10 = AXIS2_PLACEMENT_3D ( 'NONE', #2, #77, #104 ) ;
#11 = AXIS2_PLACEMENT_3D ( 'NONE', #316, #55, #157 ) ;
#12 =( NAMED_UNIT ( * ) SI_UNIT ( $, .STERADIAN. ) SOLID_ANGLE_UNIT ( ) );
#13 = ORIENTED_EDGE ( 'NONE', *, *, #41, .F. ) ;
#14 = ORIENTED_EDGE ( 'NONE', *, *, #218, .F. ) ;
#15 = ADVANCED_FACE ( 'NONE', ( #256 ), #115, .T. ) ;
#16 = ORIENTED_EDGE ( 'NONE', *, *, #243, .F. ) ;
#17 = DATE_TIME_ROLE ( 'classification_date' ) ;
#18 = CARTESIAN_POINT ( 'NONE',  ( 8.181785190463864461E-15, -2.869783931920640479E-16, 2.343356414207505178 ) ) ;
#19 = DIRECTION ( 'NONE',  ( 4.275831445896958607E-31, 1.000000000000000000, 1.224646799147353207E-16 ) ) ;
#20 = AXIS2_PLACEMENT_3D ( 'NONE', #57, #265, #248 ) ;
#21 = COORDINATED_UNIVERSAL_TIME_OFFSET ( 1, 0, .AHEAD. ) ;
#22 = CARTESIAN_POINT ( 'NONE',  ( 0.0000000000000000000, 0.0000000000000000000, 0.0000000000000000000 ) ) ;
#23 = DIRECTION ( 'NONE',  ( -3.491481338843133355E-15, 1.224646799147353207E-16, -1.000000000000000000 ) ) ;
#24 = CARTESIAN_POINT ( 'NONE',  ( 4.776122516674650662E-16, -3.899999999999991918, -4.776122516674683203E-16 ) ) ;
#25 = AXIS2_PLACEMENT_3D ( 'NONE', #311, #310, #128 ) ;
#26 = CARTESIAN_POINT ( 'NONE',  ( 2.730338406975330915E-13, 3.899999999999990141, 78.20000000000000284 ) ) ;
#27 = DIRECTION ( 'NONE',  ( 3.491481338843133355E-15, -1.224646799147353207E-16, 1.000000000000000000 ) ) ;
#28 = APPROVAL ( #106, 'UNSPECIFIED' ) ;
#29 = FACE_OUTER_BOUND ( 'NONE', #109, .T. ) ;
#30 = APPROVAL_ROLE ( '' ) ;
#31 = DIRECTION ( 'NONE',  ( -3.491481338843133355E-15, 1.224646799147353207E-16, -1.000000000000000000 ) ) ;
#32 = MECHANICAL_CONTEXT ( 'NONE', #337, 'mechanical' ) ;
#33 = VERTEX_POINT ( 'NONE', #252 ) ;
#34 = AXIS2_PLACEMENT_3D ( 'NONE', #52, #74, #151 ) ;
#35 = DESIGN_CONTEXT ( 'detailed design', #235, 'design' ) ;
#36 = APPLICATION_PROTOCOL_DEFINITION ( 'international standard', 'config_control_design', 1994, #337 ) ;
#37 = ORIENTED_EDGE ( 'NONE', *, *, #269, .F. ) ;
#38 = ORIENTED_EDGE ( 'NONE', *, *, #243, .T. ) ;
#39 = ORIENTED_EDGE ( 'NONE', *, *, #237, .F. ) ;
#40 = LOCAL_TIME ( 9, 53, 48.00000000000000000, #85 ) ;
#41 = EDGE_CURVE ( 'NONE', #89, #240, #87, .T. ) ;
#42 = DIRECTION ( 'NONE',  ( -3.491481338843133355E-15, 1.224646799147353207E-16, -1.000000000000000000 ) ) ;
#43 = PERSON_AND_ORGANIZATION ( #288, #245 ) ;
#44 = CARTESIAN_POINT ( 'NONE',  ( 5.170350292128166269E-14, -3.899999999999997247, 27.00000000000000000 ) ) ;
#45 = VERTEX_POINT ( 'NONE', #279 ) ;
#46 = AXIS2_PLACEMENT_3D ( 'NONE', #289, #23, #96 ) ;
#47 = CARTESIAN_POINT ( 'NONE',  ( 8.181785190463862884E-15, -3.899999999999991029, 2.343356414207504734 ) ) ;
#48 = CARTESIAN_POINT ( 'NONE',  ( 1.667574263899812263E-30, 3.899999999999996803, 4.776122516674673342E-16 ) ) ;
#49 = DIRECTION ( 'NONE',  ( -3.491481338843133355E-15, 1.224646799147353207E-16, -1.000000000000000000 ) ) ;
#50 = VECTOR ( 'NONE', #287, 999.9999999999998863 ) ;
#51 =( GEOMETRIC_REPRESENTATION_CONTEXT ( 3 ) GLOBAL_UNCERTAINTY_ASSIGNED_CONTEXT ( ( #161 ) ) GLOBAL_UNIT_ASSIGNED_CONTEXT ( ( #239, #6, #12 ) ) REPRESENTATION_CONTEXT ( 'NONE', 'WORKASPACE' ) );
#52 = CARTESIAN_POINT ( 'NONE',  ( 0.0000000000000000000, 0.0000000000000000000, 0.0000000000000000000 ) ) ;
#53 = LINE ( 'NONE', #126, #330 ) ;
#54 = PLANE ( 'NONE',  #59 ) ;
#55 = DIRECTION ( 'NONE',  ( -3.491481338843133355E-15, 1.224646799147353207E-16, -1.000000000000000000 ) ) ;
#56 = APPROVAL ( #324, 'UNSPECIFIED' ) ;
#57 = CARTESIAN_POINT ( 'NONE',  ( 0.0000000000000000000, 0.0000000000000000000, 0.0000000000000000000 ) ) ;
#58 = EDGE_LOOP ( 'NONE', ( #273, #281, #257, #14 ) ) ;
#59 = AXIS2_PLACEMENT_3D ( 'NONE', #100, #210, #205 ) ;
#60 = AXIS2_PLACEMENT_3D ( 'NONE', #231, #335, #336 ) ;
#61 = DATE_AND_TIME ( #319, #40 ) ;
#62 = ORIENTED_EDGE ( 'NONE', *, *, #172, .T. ) ;
#63 = EDGE_CURVE ( 'NONE', #307, #83, #72, .T. ) ;
#64 = COORDINATED_UNIVERSAL_TIME_OFFSET ( 1, 0, .AHEAD. ) ;
#65 = DIRECTION ( 'NONE',  ( 1.798245827342160317E-15, -0.8571673007021098911, 0.5150380749100582634 ) ) ;
#66 = VECTOR ( 'NONE', #177, 1000.000000000000000 ) ;
#67 = AXIS2_PLACEMENT_3D ( 'NONE', #173, #27, #259 ) ;
#68 = APPROVAL_ROLE ( '' ) ;
#69 = ORIENTED_EDGE ( 'NONE', *, *, #327, .F. ) ;
#70 = CARTESIAN_POINT ( 'NONE',  ( 2.758270257686075477E-13, 3.099999999999990319, 79.00000000000000000 ) ) ;
#71 = VERTEX_POINT ( 'NONE', #91 ) ;
#72 = CIRCLE ( 'NONE', #208, 3.100000000000000089 ) ;
#73 = DIRECTION ( 'NONE',  ( 3.491481338843133355E-15, -1.224646799147353207E-16, 1.000000000000000000 ) ) ;
#74 = DIRECTION ( 'NONE',  ( -3.491481338843133355E-15, 1.224646799147353207E-16, -1.000000000000000000 ) ) ;
#75 = CARTESIAN_POINT ( 'NONE',  ( 1.667574263899810511E-30, 3.899999999999991918, 4.776122516674667425E-16 ) ) ;
#76 = CIRCLE ( 'NONE', #271, 3.899999999999999911 ) ;
#77 = DIRECTION ( 'NONE',  ( -3.491481338843133355E-15, 1.224646799147353207E-16, -1.000000000000000000 ) ) ;
#78 = DIRECTION ( 'NONE',  ( -3.491481338843133355E-15, 1.224646799147353207E-16, -1.000000000000000000 ) ) ;
#79 = DIRECTION ( 'NONE',  ( -3.491481338843133355E-15, 1.224646799147353207E-16, -1.000000000000000000 ) ) ;
#80 = VERTEX_POINT ( 'NONE', #193 ) ;
#81 = EDGE_LOOP ( 'NONE', ( #242, #304, #317 ) ) ;
#82 = APPROVAL_STATUS ( 'not_yet_approved' ) ;
#83 = VERTEX_POINT ( 'NONE', #70 ) ;
#84 = CARTESIAN_POINT ( 'NONE',  ( 0.0000000000000000000, 0.0000000000000000000, 0.0000000000000000000 ) ) ;
#85 = COORDINATED_UNIVERSAL_TIME_OFFSET ( 1, 0, .AHEAD. ) ;
#86 = EDGE_LOOP ( 'NONE', ( #16, #8, #62, #249 ) ) ;
#87 = CIRCLE ( 'NONE', #214, 3.899999999999993694 ) ;
#88 = DATE_AND_TIME ( #226, #98 ) ;
#89 = VERTEX_POINT ( 'NONE', #44 ) ;
#90 = VERTEX_POINT ( 'NONE', #22 ) ;
#91 = CARTESIAN_POINT ( 'NONE',  ( 1.841295306748161453E-13, -3.900000000000009237, 78.20000000000000284 ) ) ;
#92 = AXIS2_PLACEMENT_3D ( 'NONE', #18, #194, #118 ) ;
#93 = SECURITY_CLASSIFICATION ( '', '', #306 ) ;
#94 = DIRECTION ( 'NONE',  ( 0.0000000000000000000, 1.000000000000000000, 0.0000000000000000000 ) ) ;
#95 = CARTESIAN_POINT ( 'NONE',  ( 9.426999614876460059E-14, -3.306546357697853733E-15, 27.00000000000000000 ) ) ;
#96 = DIRECTION ( 'NONE',  ( 0.0000000000000000000, 1.000000000000000000, 0.0000000000000000000 ) ) ;
#97 = ADVANCED_FACE ( 'NONE', ( #254 ), #244, .T. ) ;
#98 = LOCAL_TIME ( 9, 53, 48.00000000000000000, #64 ) ;
#99 = FACE_OUTER_BOUND ( 'NONE', #224, .T. ) ;
#100 = CARTESIAN_POINT ( 'NONE',  ( 9.426999614876460059E-14, 2.924531576190613030E-32, 27.00000000000000000 ) ) ;
#101 = DIRECTION ( 'NONE',  ( 3.950625526948185720E-31, 1.000000000000000000, 1.112002228190263663E-16 ) ) ;
#102 = CIRCLE ( 'NONE', #25, 3.899999999999999911 ) ;
#103 = CC_DESIGN_APPROVAL ( #294, ( #190 ) ) ;
#104 = DIRECTION ( 'NONE',  ( 0.0000000000000000000, 1.000000000000000000, 0.0000000000000000000 ) ) ;
#105 = CC_DESIGN_PERSON_AND_ORGANIZATION_ASSIGNMENT ( #132, #241, ( #178 ) ) ;
#106 = APPROVAL_STATUS ( 'not_yet_approved' ) ;
#107 = PERSON_AND_ORGANIZATION ( #288, #245 ) ;
#108 = PERSON_AND_ORGANIZATION ( #288, #245 ) ;
#109 = EDGE_LOOP ( 'NONE', ( #247, #142, #37, #120 ) ) ;
#110 = EDGE_CURVE ( 'NONE', #90, #33, #333, .T. ) ;
#111 = DIRECTION ( 'NONE',  ( -2.468850131082257455E-15, 0.7071067811865497932, -0.7071067811865453523 ) ) ;
#112 = VECTOR ( 'NONE', #313, 1000.000000000000114 ) ;
#113 = AXIS2_PLACEMENT_3D ( 'NONE', #272, #130, #296 ) ;
#114 = APPROVAL_DATE_TIME ( #88, #56 ) ;
#115 = CYLINDRICAL_SURFACE ( 'NONE', #250, 3.899999999999991918 ) ;
#116 = PERSON_AND_ORGANIZATION ( #288, #245 ) ;
#117 = EDGE_LOOP ( 'NONE', ( #153, #229, #291, #169 ) ) ;
#118 = DIRECTION ( 'NONE',  ( -3.950625526948185720E-31, -1.000000000000000000, -1.112002228190263663E-16 ) ) ;
#119 = CIRCLE ( 'NONE', #148, 3.899999999999990585 ) ;
#120 = ORIENTED_EDGE ( 'NONE', *, *, #139, .F. ) ;
#121 = PLANE ( 'NONE',  #60 ) ;
#122 = MANIFOLD_SOLID_BREP ( 'Corps-Déplacer/Copier1[1]', #221 ) ;
#123 = EDGE_CURVE ( 'NONE', #80, #45, #137, .T. ) ;
#124 = DIRECTION ( 'NONE',  ( 0.0000000000000000000, 1.000000000000000000, 0.0000000000000000000 ) ) ;
#125 = AXIS2_PLACEMENT_3D ( 'NONE', #308, #73, #290 ) ;
#126 = CARTESIAN_POINT ( 'NONE',  ( 4.776122516674657565E-16, -3.899999999999996803, -4.776122516674689119E-16 ) ) ;
#127 = FACE_OUTER_BOUND ( 'NONE', #230, .T. ) ;
#128 = DIRECTION ( 'NONE',  ( 0.0000000000000000000, 1.000000000000000000, 0.0000000000000000000 ) ) ;
#129 = PRODUCT_DEFINITION_SHAPE ( 'NONE', 'NONE',  #275 ) ;
#130 = DIRECTION ( 'NONE',  ( -3.491481338843133355E-15, 1.224646799147353207E-16, -1.000000000000000000 ) ) ;
#131 = EDGE_LOOP ( 'NONE', ( #69, #201 ) ) ;
#132 = PERSON_AND_ORGANIZATION ( #288, #245 ) ;
#133 = AXIS2_PLACEMENT_3D ( 'NONE', #185, #31, #266 ) ;
#134 = PERSON_AND_ORGANIZATION_ROLE ( 'classification_officer' ) ;
#135 = EDGE_LOOP ( 'NONE', ( #220, #280, #197, #144 ) ) ;
#136 = ORIENTED_EDGE ( 'NONE', *, *, #172, .F. ) ;
#137 = CIRCLE ( 'NONE', #323, 3.899999999999993694 ) ;
#138 = APPROVAL_PERSON_ORGANIZATION ( #219, #28, #246 ) ;
#139 = EDGE_CURVE ( 'NONE', #83, #186, #199, .T. ) ;
#140 = CARTESIAN_POINT ( 'NONE',  ( 2.758270257686075477E-13, -9.674709713264090904E-15, 79.00000000000000000 ) ) ;
#141 = DIRECTION ( 'NONE',  ( -3.491481338843133355E-15, 1.224646799147353207E-16, -1.000000000000000000 ) ) ;
#142 = ORIENTED_EDGE ( 'NONE', *, *, #206, .T. ) ;
#143 = LOCAL_TIME ( 9, 53, 48.00000000000000000, #21 ) ;
#144 = ORIENTED_EDGE ( 'NONE', *, *, #212, .F. ) ;
#145 = LINE ( 'NONE', #75, #66 ) ;
#146 = CARTESIAN_POINT ( 'NONE',  ( 8.659397442131332486E-15, 3.899999999999990141, 2.343356414207505622 ) ) ;
#147 = CIRCLE ( 'NONE', #10, 3.899999999999993694 ) ;
#148 = AXIS2_PLACEMENT_3D ( 'NONE', #150, #1, #182 ) ;
#149 = FACE_OUTER_BOUND ( 'NONE', #328, .T. ) ;
#150 = CARTESIAN_POINT ( 'NONE',  ( 8.181785190463864461E-15, -2.869783931920640479E-16, 2.343356414207505178 ) ) ;
#151 = DIRECTION ( 'NONE',  ( 4.275831445896958607E-31, 1.000000000000000000, 1.224646799147353207E-16 ) ) ;
#152 = FACE_OUTER_BOUND ( 'NONE', #86, .T. ) ;
#153 = ORIENTED_EDGE ( 'NONE', *, *, #206, .F. ) ;
#154 = ADVANCED_FACE ( 'NONE', ( #222 ), #318, .T. ) ;
#155 = CYLINDRICAL_SURFACE ( 'NONE', #297, 3.899999999999996803 ) ;
#156 = DIRECTION ( 'NONE',  ( 4.275831445896957731E-31, 1.000000000000000000, 1.224646799147353207E-16 ) ) ;
#157 = DIRECTION ( 'NONE',  ( 4.275831445896957731E-31, 1.000000000000000000, 1.224646799147353207E-16 ) ) ;
#158 = VECTOR ( 'NONE', #236, 1000.000000000000000 ) ;
#159 = PERSON_AND_ORGANIZATION ( #288, #245 ) ;
#160 = ORIENTED_EDGE ( 'NONE', *, *, #213, .F. ) ;
#161 = UNCERTAINTY_MEASURE_WITH_UNIT (LENGTH_MEASURE( 1.000000000000000082E-05 ), #239, 'distance_accuracy_value', 'NONE');
#162 = PERSON_AND_ORGANIZATION_ROLE ( 'creator' ) ;
#163 = DIRECTION ( 'NONE',  ( 0.0000000000000000000, 1.000000000000000000, 0.0000000000000000000 ) ) ;
#164 = ADVANCED_FACE ( 'NONE', ( #149 ), #54, .F. ) ;
#165 = CARTESIAN_POINT ( 'NONE',  ( 0.0000000000000000000, 0.0000000000000000000, 0.0000000000000000000 ) ) ;
#166 = VECTOR ( 'NONE', #111, 1000.000000000000114 ) ;
#167 = CONICAL_SURFACE ( 'NONE', #46, 3.100000000000000089, 0.7853981633974512766 ) ;
#168 = DIRECTION ( 'NONE',  ( 0.0000000000000000000, 1.000000000000000000, 0.0000000000000000000 ) ) ;
#169 = ORIENTED_EDGE ( 'NONE', *, *, #176, .F. ) ;
#170 = CARTESIAN_POINT ( 'NONE',  ( 9.426999614876460059E-14, -3.306546357697853733E-15, 27.00000000000000000 ) ) ;
#171 = AXIS2_PLACEMENT_3D ( 'NONE', #325, #300, #163 ) ;
#172 = EDGE_CURVE ( 'NONE', #186, #80, #262, .T. ) ;
#173 = CARTESIAN_POINT ( 'NONE',  ( 8.181785190463864461E-15, -2.869783931920640479E-16, 2.343356414207505178 ) ) ;
#174 = CC_DESIGN_DATE_AND_TIME_ASSIGNMENT ( #61, #264, ( #275 ) ) ;
#175 = CARTESIAN_POINT ( 'NONE',  ( 2.730338406975330915E-13, -9.576737969332302470E-15, 78.20000000000000284 ) ) ;
#176 = EDGE_CURVE ( 'NONE', #71, #186, #102, .T. ) ;
#177 = DIRECTION ( 'NONE',  ( -3.491481338843133355E-15, 1.224646799147353207E-16, -1.000000000000000000 ) ) ;
#178 = PRODUCT ( '54634', '54634', '', ( #32 ) ) ;
#179 = LOCAL_TIME ( 9, 53, 48.00000000000000000, #187 ) ;
#180 = ADVANCED_BREP_SHAPE_REPRESENTATION ( '54634', ( #122, #238, #20 ), #51 ) ;
#181 = FACE_OUTER_BOUND ( 'NONE', #135, .T. ) ;
#182 = DIRECTION ( 'NONE',  ( 3.950625526948185720E-31, 1.000000000000000000, 1.112002228190263663E-16 ) ) ;
#183 = ORIENTED_EDGE ( 'NONE', *, *, #269, .T. ) ;
#184 = CC_DESIGN_PERSON_AND_ORGANIZATION_ASSIGNMENT ( #107, #217, ( #275 ) ) ;
#185 = CARTESIAN_POINT ( 'NONE',  ( 9.426999614876460059E-14, -3.306546357697853733E-15, 27.00000000000000000 ) ) ;
#186 = VERTEX_POINT ( 'NONE', #26 ) ;
#187 = COORDINATED_UNIVERSAL_TIME_OFFSET ( 1, 0, .AHEAD. ) ;
#188 = CLOSED_SHELL ( 'NONE', ( #204, #97, #200, #15, #315 ) ) ;
#189 = FACE_OUTER_BOUND ( 'NONE', #302, .T. ) ;
#190 = PRODUCT_DEFINITION_FORMATION_WITH_SPECIFIED_SOURCE ( 'ANY', '', #178, .NOT_KNOWN. ) ;
#191 = CC_DESIGN_PERSON_AND_ORGANIZATION_ASSIGNMENT ( #116, #134, ( #93 ) ) ;
#192 = SHAPE_DEFINITION_REPRESENTATION ( #129, #180 ) ;
#193 = CARTESIAN_POINT ( 'NONE',  ( 9.426999614876460059E-14, 3.899999999999990141, 27.00000000000000000 ) ) ;
#194 = DIRECTION ( 'NONE',  ( 3.491481338843133355E-15, -1.224646799147353207E-16, 1.000000000000000000 ) ) ;
#195 = CC_DESIGN_DATE_AND_TIME_ASSIGNMENT ( #278, #17, ( #93 ) ) ;
#196 = CIRCLE ( 'NONE', #228, 3.899999999999990585 ) ;
#197 = ORIENTED_EDGE ( 'NONE', *, *, #292, .F. ) ;
#198 = CIRCLE ( 'NONE', #113, 3.100000000000000089 ) ;
#199 = LINE ( 'NONE', #305, #166 ) ;
#200 = ADVANCED_FACE ( 'NONE', ( #127 ), #215, .T. ) ;
#201 = ORIENTED_EDGE ( 'NONE', *, *, #63, .F. ) ;
#202 = CARTESIAN_POINT ( 'NONE',  ( 2.748590596127718295E-13, -3.100000000000009415, 79.00000000000000000 ) ) ;
#203 = PLANE ( 'NONE',  #125 ) ;
#204 = ADVANCED_FACE ( 'NONE', ( #181 ), #284, .T. ) ;
#205 = DIRECTION ( 'NONE',  ( -4.275831445896958607E-31, -1.000000000000000000, -1.224646799147353207E-16 ) ) ;
#206 = EDGE_CURVE ( 'NONE', #307, #71, #234, .T. ) ;
#207 = LINE ( 'NONE', #146, #50 ) ;
#208 = AXIS2_PLACEMENT_3D ( 'NONE', #140, #141, #253 ) ;
#209 = CC_DESIGN_APPROVAL ( #28, ( #275 ) ) ;
#210 = DIRECTION ( 'NONE',  ( 3.491481338843133355E-15, -1.224646799147353207E-16, 1.000000000000000000 ) ) ;
#211 = COORDINATED_UNIVERSAL_TIME_OFFSET ( 1, 0, .AHEAD. ) ;
#212 = EDGE_CURVE ( 'NONE', #240, #293, #145, .T. ) ;
#213 = EDGE_CURVE ( 'NONE', #240, #89, #147, .T. ) ;
#214 = AXIS2_PLACEMENT_3D ( 'NONE', #170, #42, #168 ) ;
#215 = CONICAL_SURFACE ( 'NONE', #67, 3.899999999999990585, 1.029744258676649649 ) ;
#216 = CC_DESIGN_SECURITY_CLASSIFICATION ( #93, ( #190 ) ) ;
#217 = PERSON_AND_ORGANIZATION_ROLE ( 'creator' ) ;
#218 = EDGE_CURVE ( 'NONE', #33, #293, #196, .T. ) ;
#219 = PERSON_AND_ORGANIZATION ( #288, #245 ) ;
#220 = ORIENTED_EDGE ( 'NONE', *, *, #213, .T. ) ;
#221 = CLOSED_SHELL ( 'NONE', ( #301, #329, #164, #321, #154, #303 ) ) ;
#222 = FACE_OUTER_BOUND ( 'NONE', #117, .T. ) ;
#223 = CALENDAR_DATE ( 2021, 3, 9 ) ;
#224 = EDGE_LOOP ( 'NONE', ( #160, #13 ) ) ;
#225 = PRODUCT_RELATED_PRODUCT_CATEGORY ( 'detail', '', ( #178 ) ) ;
#226 = CALENDAR_DATE ( 2021, 3, 9 ) ;
#227 = ORIENTED_EDGE ( 'NONE', *, *, #218, .T. ) ;
#228 = AXIS2_PLACEMENT_3D ( 'NONE', #285, #3, #101 ) ;
#229 = ORIENTED_EDGE ( 'NONE', *, *, #63, .T. ) ;
#230 = EDGE_LOOP ( 'NONE', ( #39, #277, #227 ) ) ;
#231 = CARTESIAN_POINT ( 'NONE',  ( 2.758270257686075477E-13, 2.324627663125864787E-32, 79.00000000000000000 ) ) ;
#232 = FACE_OUTER_BOUND ( 'NONE', #131, .T. ) ;
#233 = CARTESIAN_POINT ( 'NONE',  ( 8.659397442131332486E-15, 3.899999999999990141, 2.343356414207505622 ) ) ;
#234 = LINE ( 'NONE', #312, #112 ) ;
#235 = APPLICATION_CONTEXT ( 'configuration controlled 3d designs of mechanical parts and assemblies' ) ;
#236 = DIRECTION ( 'NONE',  ( -3.491481338843133355E-15, 1.224646799147353207E-16, -1.000000000000000000 ) ) ;
#237 = EDGE_CURVE ( 'NONE', #90, #293, #207, .T. ) ;
#238 = MANIFOLD_SOLID_BREP ( 'Corps-Déplacer/Copier1[2]', #188 ) ;
#239 =( LENGTH_UNIT ( ) NAMED_UNIT ( * ) SI_UNIT ( .MILLI., .METRE. ) );
#240 = VERTEX_POINT ( 'NONE', #282 ) ;
#241 = PERSON_AND_ORGANIZATION_ROLE ( 'design_owner' ) ;
#242 = ORIENTED_EDGE ( 'NONE', *, *, #110, .F. ) ;
#243 = EDGE_CURVE ( 'NONE', #71, #45, #53, .T. ) ;
#244 = CONICAL_SURFACE ( 'NONE', #92, 3.899999999999990585, 1.029744258676649649 ) ;
#245 = ORGANIZATION ( 'UNSPECIFIED', 'UNSPECIFIED', '' ) ;
#246 = APPROVAL_ROLE ( '' ) ;
#247 = ORIENTED_EDGE ( 'NONE', *, *, #327, .T. ) ;
#248 = DIRECTION ( 'NONE',  ( 1.000000000000000000, 0.0000000000000000000, 0.0000000000000000000 ) ) ;
#249 = ORIENTED_EDGE ( 'NONE', *, *, #334, .F. ) ;
#250 = AXIS2_PLACEMENT_3D ( 'NONE', #165, #274, #19 ) ;
#251 = PERSON_AND_ORGANIZATION_ROLE ( 'design_supplier' ) ;
#252 = CARTESIAN_POINT ( 'NONE',  ( 8.181785190463862884E-15, -3.899999999999991029, 2.343356414207504734 ) ) ;
#253 = DIRECTION ( 'NONE',  ( 0.0000000000000000000, 1.000000000000000000, 0.0000000000000000000 ) ) ;
#254 = FACE_OUTER_BOUND ( 'NONE', #81, .T. ) ;
#255 = VECTOR ( 'NONE', #49, 1000.000000000000000 ) ;
#256 = FACE_OUTER_BOUND ( 'NONE', #58, .T. ) ;
#257 = ORIENTED_EDGE ( 'NONE', *, *, #212, .T. ) ;
#258 = DIRECTION ( 'NONE',  ( -3.491481338843133355E-15, 1.224646799147353207E-16, -1.000000000000000000 ) ) ;
#259 = DIRECTION ( 'NONE',  ( -3.950625526948185720E-31, -1.000000000000000000, -1.112002228190263663E-16 ) ) ;
#260 = VECTOR ( 'NONE', #65, 1000.000000000000000 ) ;
#261 = APPROVAL_PERSON_ORGANIZATION ( #108, #294, #30 ) ;
#262 = LINE ( 'NONE', #48, #255 ) ;
#263 = LINE ( 'NONE', #24, #158 ) ;
#264 = DATE_TIME_ROLE ( 'creation_date' ) ;
#265 = DIRECTION ( 'NONE',  ( 0.0000000000000000000, 0.0000000000000000000, 1.000000000000000000 ) ) ;
#266 = DIRECTION ( 'NONE',  ( 0.0000000000000000000, 1.000000000000000000, 0.0000000000000000000 ) ) ;
#267 = ORIENTED_EDGE ( 'NONE', *, *, #123, .T. ) ;
#268 = CYLINDRICAL_SURFACE ( 'NONE', #11, 3.899999999999996803 ) ;
#269 = EDGE_CURVE ( 'NONE', #186, #71, #76, .T. ) ;
#270 = ORIENTED_EDGE ( 'NONE', *, *, #334, .T. ) ;
#271 = AXIS2_PLACEMENT_3D ( 'NONE', #175, #78, #124 ) ;
#272 = CARTESIAN_POINT ( 'NONE',  ( 2.758270257686075477E-13, -9.674709713264090904E-15, 79.00000000000000000 ) ) ;
#273 = ORIENTED_EDGE ( 'NONE', *, *, #299, .F. ) ;
#274 = DIRECTION ( 'NONE',  ( -3.491481338843133355E-15, 1.224646799147353207E-16, -1.000000000000000000 ) ) ;
#275 = PRODUCT_DEFINITION ( 'UNKNOWN', '', #190, #35 ) ;
#276 = PERSON_AND_ORGANIZATION ( #288, #245 ) ;
#277 = ORIENTED_EDGE ( 'NONE', *, *, #110, .T. ) ;
#278 = DATE_AND_TIME ( #223, #143 ) ;
#279 = CARTESIAN_POINT ( 'NONE',  ( 1.841295306748162462E-13, -3.899999999999997247, 27.00000000000000000 ) ) ;
#280 = ORIENTED_EDGE ( 'NONE', *, *, #299, .T. ) ;
#281 = ORIENTED_EDGE ( 'NONE', *, *, #41, .T. ) ;
#282 = CARTESIAN_POINT ( 'NONE',  ( 9.426999614876460059E-14, 3.899999999999990141, 27.00000000000000000 ) ) ;
#283 = CC_DESIGN_PERSON_AND_ORGANIZATION_ASSIGNMENT ( #43, #251, ( #190 ) ) ;
#284 = CYLINDRICAL_SURFACE ( 'NONE', #34, 3.899999999999991918 ) ;
#285 = CARTESIAN_POINT ( 'NONE',  ( 8.181785190463864461E-15, -2.869783931920640479E-16, 2.343356414207505178 ) ) ;
#286 = CIRCLE ( 'NONE', #133, 3.899999999999993694 ) ;
#287 = DIRECTION ( 'NONE',  ( 1.903218546456022717E-15, 0.8571673007021097801, 0.5150380749100585964 ) ) ;
#288 = PERSON ( 'UNSPECIFIED', 'UNSPECIFIED', 'UNSPECIFIED', ('UNSPECIFIED'), ('UNSPECIFIED'), ('UNSPECIFIED') ) ;
#289 = CARTESIAN_POINT ( 'NONE',  ( 2.758270257686075477E-13, -9.674709713264090904E-15, 79.00000000000000000 ) ) ;
#290 = DIRECTION ( 'NONE',  ( -4.275831445896958607E-31, -1.000000000000000000, -1.224646799147353207E-16 ) ) ;
#291 = ORIENTED_EDGE ( 'NONE', *, *, #139, .T. ) ;
#292 = EDGE_CURVE ( 'NONE', #293, #33, #119, .T. ) ;
#293 = VERTEX_POINT ( 'NONE', #233 ) ;
#294 = APPROVAL ( #82, 'UNSPECIFIED' ) ;
#295 = DATE_AND_TIME ( #5, #179 ) ;
#296 = DIRECTION ( 'NONE',  ( 0.0000000000000000000, 1.000000000000000000, 0.0000000000000000000 ) ) ;
#297 = AXIS2_PLACEMENT_3D ( 'NONE', #84, #79, #156 ) ;
#298 = APPROVAL_DATE_TIME ( #322, #28 ) ;
#299 = EDGE_CURVE ( 'NONE', #89, #33, #263, .T. ) ;
#300 = DIRECTION ( 'NONE',  ( -3.491481338843133355E-15, 1.224646799147353207E-16, -1.000000000000000000 ) ) ;
#301 = ADVANCED_FACE ( 'NONE', ( #29 ), #167, .T. ) ;
#302 = EDGE_LOOP ( 'NONE', ( #183, #38, #326, #136 ) ) ;
#303 = ADVANCED_FACE ( 'NONE', ( #232 ), #121, .F. ) ;
#304 = ORIENTED_EDGE ( 'NONE', *, *, #237, .T. ) ;
#305 = CARTESIAN_POINT ( 'NONE',  ( 2.758270257686075477E-13, 3.099999999999990319, 79.00000000000000000 ) ) ;
#306 = SECURITY_CLASSIFICATION_LEVEL ( 'unclassified' ) ;
#307 = VERTEX_POINT ( 'NONE', #202 ) ;
#308 = CARTESIAN_POINT ( 'NONE',  ( 9.426999614876460059E-14, 2.924531576190613030E-32, 27.00000000000000000 ) ) ;
#309 = CC_DESIGN_APPROVAL ( #56, ( #93 ) ) ;
#310 = DIRECTION ( 'NONE',  ( -3.491481338843133355E-15, 1.224646799147353207E-16, -1.000000000000000000 ) ) ;
#311 = CARTESIAN_POINT ( 'NONE',  ( 2.730338406975330915E-13, -9.576737969332302470E-15, 78.20000000000000284 ) ) ;
#312 = CARTESIAN_POINT ( 'NONE',  ( 2.762066662763431736E-13, -3.100000000000009415, 79.00000000000000000 ) ) ;
#313 = DIRECTION ( 'NONE',  ( -2.382254525458708792E-15, -0.7071067811865495711, -0.7071067811865455743 ) ) ;
#314 = APPROVAL_DATE_TIME ( #295, #294 ) ;
#315 = ADVANCED_FACE ( 'NONE', ( #99 ), #203, .T. ) ;
#316 = CARTESIAN_POINT ( 'NONE',  ( 0.0000000000000000000, 0.0000000000000000000, 0.0000000000000000000 ) ) ;
#317 = ORIENTED_EDGE ( 'NONE', *, *, #292, .T. ) ;
#318 = CONICAL_SURFACE ( 'NONE', #171, 3.100000000000000089, 0.7853981633974512766 ) ;
#319 = CALENDAR_DATE ( 2021, 3, 9 ) ;
#320 = CALENDAR_DATE ( 2021, 3, 9 ) ;
#321 = ADVANCED_FACE ( 'NONE', ( #152 ), #155, .T. ) ;
#322 = DATE_AND_TIME ( #320, #331 ) ;
#323 = AXIS2_PLACEMENT_3D ( 'NONE', #95, #332, #94 ) ;
#324 = APPROVAL_STATUS ( 'not_yet_approved' ) ;
#325 = CARTESIAN_POINT ( 'NONE',  ( 2.758270257686075477E-13, -9.674709713264090904E-15, 79.00000000000000000 ) ) ;
#326 = ORIENTED_EDGE ( 'NONE', *, *, #123, .F. ) ;
#327 = EDGE_CURVE ( 'NONE', #83, #307, #198, .T. ) ;
#328 = EDGE_LOOP ( 'NONE', ( #267, #270 ) ) ;
#329 = ADVANCED_FACE ( 'NONE', ( #189 ), #268, .T. ) ;
#330 = VECTOR ( 'NONE', #258, 1000.000000000000000 ) ;
#331 = LOCAL_TIME ( 9, 53, 48.00000000000000000, #211 ) ;
#332 = DIRECTION ( 'NONE',  ( -3.491481338843133355E-15, 1.224646799147353207E-16, -1.000000000000000000 ) ) ;
#333 = LINE ( 'NONE', #47, #260 ) ;
#334 = EDGE_CURVE ( 'NONE', #45, #80, #286, .T. ) ;
#335 = DIRECTION ( 'NONE',  ( -3.491481338843133355E-15, 1.224646799147353207E-16, -1.000000000000000000 ) ) ;
#336 = DIRECTION ( 'NONE',  ( 4.275831445896958607E-31, 1.000000000000000000, 1.224646799147353207E-16 ) ) ;
#337 = APPLICATION_CONTEXT ( 'configuration controlled 3d designs of mechanical parts and assemblies' ) ;
ENDSEC;
END-ISO-10303-21;
