ISO-10303-21;
HEADER;
FILE_DESCRIPTION (( 'STEP AP203' ),
    '1' );
FILE_NAME ('54633.step',
    '2021-09-03T07:53:43',
    ( '' ),
    ( '' ),
    'SwSTEP 2.0',
    'SolidWorks 2019',
    '' );
FILE_SCHEMA (( 'CONFIG_CONTROL_DESIGN' ));
ENDSEC;

DATA;
#1 = EDGE_LOOP ( 'NONE', ( #96, #122 ) ) ;
#2 = PERSON_AND_ORGANIZATION ( #190, #326 ) ;
#3 = ORIENTED_EDGE ( 'NONE', *, *, #18, .F. ) ;
#4 = CC_DESIGN_DATE_AND_TIME_ASSIGNMENT ( #70, #194, ( #289 ) ) ;
#5 = DATE_AND_TIME ( #248, #335 ) ;
#6 = CIRCLE ( 'NONE', #87, 3.849999999999993872 ) ;
#7 = ORIENTED_EDGE ( 'NONE', *, *, #170, .T. ) ;
#8 = ORIENTED_EDGE ( 'NONE', *, *, #57, .T. ) ;
#9 = CC_DESIGN_PERSON_AND_ORGANIZATION_ASSIGNMENT ( #146, #119, ( #308 ) ) ;
#10 = DIRECTION ( 'NONE',  ( -3.491481338843133355E-15, 1.224646799147353207E-16, -1.000000000000000000 ) ) ;
#11 = DIRECTION ( 'NONE',  ( 4.275831445896958607E-31, 1.000000000000000000, 1.224646799147353207E-16 ) ) ;
#12 = CONICAL_SURFACE ( 'NONE', #278, 3.050000000000000266, 0.7853981633974512766 ) ;
#13 = LOCAL_TIME ( 9, 53, 43.00000000000000000, #225 ) ;
#14 = DIRECTION ( 'NONE',  ( 0.0000000000000000000, 1.000000000000000000, 0.0000000000000000000 ) ) ;
#15 = DIRECTION ( 'NONE',  ( -2.468850131082257455E-15, 0.7071067811865497932, -0.7071067811865453523 ) ) ;
#16 = CARTESIAN_POINT ( 'NONE',  ( 5.164493234632140749E-14, -3.849999999999997424, 27.00000000000000000 ) ) ;
#17 = VECTOR ( 'NONE', #15, 1000.000000000000114 ) ;
#18 = EDGE_CURVE ( 'NONE', #69, #123, #143, .T. ) ;
#19 = CARTESIAN_POINT ( 'NONE',  ( 4.714890176717290779E-16, -3.849999999999996980, -4.714890176717322334E-16 ) ) ;
#20 = DIRECTION ( 'NONE',  ( 0.0000000000000000000, 1.000000000000000000, 0.0000000000000000000 ) ) ;
#21 = DIRECTION ( 'NONE',  ( -3.491481338843133355E-15, 1.224646799147353207E-16, -1.000000000000000000 ) ) ;
#22 = CONICAL_SURFACE ( 'NONE', #243, 3.849999999999991207, 1.029744258676649649 ) ;
#23 = PLANE ( 'NONE',  #182 ) ;
#24 = APPROVAL_ROLE ( '' ) ;
#25 = ORIENTED_EDGE ( 'NONE', *, *, #275, .F. ) ;
#26 = CIRCLE ( 'NONE', #331, 3.850000000000000089 ) ;
#27 = CALENDAR_DATE ( 2021, 3, 9 ) ;
#28 = ORIENTED_EDGE ( 'NONE', *, *, #191, .T. ) ;
#29 = PERSON_AND_ORGANIZATION_ROLE ( 'design_supplier' ) ;
#30 = CC_DESIGN_PERSON_AND_ORGANIZATION_ASSIGNMENT ( #142, #29, ( #211 ) ) ;
#31 = VERTEX_POINT ( 'NONE', #291 ) ;
#32 = PERSON_AND_ORGANIZATION ( #190, #326 ) ;
#33 = ORIENTED_EDGE ( 'NONE', *, *, #251, .F. ) ;
#34 = VERTEX_POINT ( 'NONE', #186 ) ;
#35 = CARTESIAN_POINT ( 'NONE',  ( 9.426999614876460059E-14, 2.887037581624066316E-32, 27.00000000000000000 ) ) ;
#36 = CARTESIAN_POINT ( 'NONE',  ( 9.426999614876460059E-14, -3.306546357697853733E-15, 27.00000000000000000 ) ) ;
#37 = FACE_OUTER_BOUND ( 'NONE', #254, .T. ) ;
#38 = CIRCLE ( 'NONE', #53, 3.849999999999993872 ) ;
#39 = DESIGN_CONTEXT ( 'detailed design', #200, 'design' ) ;
#40 = DIRECTION ( 'NONE',  ( -3.491481338843133355E-15, 1.224646799147353207E-16, -1.000000000000000000 ) ) ;
#41 = LINE ( 'NONE', #131, #262 ) ;
#42 = DIRECTION ( 'NONE',  ( -3.491481338843133355E-15, 1.224646799147353207E-16, -1.000000000000000000 ) ) ;
#43 = EDGE_CURVE ( 'NONE', #34, #285, #128, .T. ) ;
#44 = DIRECTION ( 'NONE',  ( -3.491481338843133355E-15, 1.224646799147353207E-16, -1.000000000000000000 ) ) ;
#45 = LINE ( 'NONE', #109, #312 ) ;
#46 = DIRECTION ( 'NONE',  ( 0.0000000000000000000, 1.000000000000000000, 0.0000000000000000000 ) ) ;
#47 = ORIENTED_EDGE ( 'NONE', *, *, #107, .T. ) ;
#48 = APPROVAL_DATE_TIME ( #5, #180 ) ;
#49 = ORIENTED_EDGE ( 'NONE', *, *, #207, .F. ) ;
#50 = COORDINATED_UNIVERSAL_TIME_OFFSET ( 1, 0, .AHEAD. ) ;
#51 = APPROVAL_STATUS ( 'not_yet_approved' ) ;
#52 = ORIENTED_EDGE ( 'NONE', *, *, #297, .F. ) ;
#53 = AXIS2_PLACEMENT_3D ( 'NONE', #130, #324, #126 ) ;
#54 = CARTESIAN_POINT ( 'NONE',  ( 0.0000000000000000000, 0.0000000000000000000, 0.0000000000000000000 ) ) ;
#55 = CARTESIAN_POINT ( 'NONE',  ( 8.076890508534839264E-15, -2.832991830229350438E-16, 2.313313383256126787 ) ) ;
#56 = DIRECTION ( 'NONE',  ( -3.491481338843133355E-15, 1.224646799147353207E-16, -1.000000000000000000 ) ) ;
#57 = EDGE_CURVE ( 'NONE', #172, #310, #38, .T. ) ;
#58 = CIRCLE ( 'NONE', #319, 3.849999999999993872 ) ;
#59 = CARTESIAN_POINT ( 'NONE',  ( 2.730338406975330915E-13, -9.576737969332302470E-15, 78.20000000000000284 ) ) ;
#60 = AXIS2_PLACEMENT_3D ( 'NONE', #266, #42, #136 ) ;
#61 = FACE_OUTER_BOUND ( 'NONE', #168, .T. ) ;
#62 = DIRECTION ( 'NONE',  ( 4.275831445896958607E-31, 1.000000000000000000, 1.224646799147353207E-16 ) ) ;
#63 = AXIS2_PLACEMENT_3D ( 'NONE', #55, #153, #258 ) ;
#64 = DIRECTION ( 'NONE',  ( 3.491481338843133355E-15, -1.224646799147353207E-16, 1.000000000000000000 ) ) ;
#65 = FACE_OUTER_BOUND ( 'NONE', #255, .T. ) ;
#66 = DIRECTION ( 'NONE',  ( -3.491481338843133355E-15, 1.224646799147353207E-16, -1.000000000000000000 ) ) ;
#67 = ORIENTED_EDGE ( 'NONE', *, *, #275, .T. ) ;
#68 = DATE_AND_TIME ( #283, #304 ) ;
#69 = VERTEX_POINT ( 'NONE', #104 ) ;
#70 = DATE_AND_TIME ( #171, #13 ) ;
#71 = EDGE_LOOP ( 'NONE', ( #151, #282, #315, #3 ) ) ;
#72 = CLOSED_SHELL ( 'NONE', ( #329, #232, #263, #135, #236, #287 ) ) ;
#73 = CIRCLE ( 'NONE', #156, 3.849999999999991207 ) ;
#74 = DATE_AND_TIME ( #197, #231 ) ;
#75 = ORIENTED_EDGE ( 'NONE', *, *, #43, .T. ) ;
#76 = PERSON_AND_ORGANIZATION_ROLE ( 'creator' ) ;
#77 = ORIENTED_EDGE ( 'NONE', *, *, #91, .T. ) ;
#78 = DIRECTION ( 'NONE',  ( -2.382254525458708792E-15, -0.7071067811865495711, -0.7071067811865455743 ) ) ;
#79 = DIRECTION ( 'NONE',  ( -3.491481338843133355E-15, 1.224646799147353207E-16, -1.000000000000000000 ) ) ;
#80 = CYLINDRICAL_SURFACE ( 'NONE', #299, 3.849999999999996980 ) ;
#81 = CARTESIAN_POINT ( 'NONE',  ( 0.0000000000000000000, 0.0000000000000000000, 0.0000000000000000000 ) ) ;
#82 = CYLINDRICAL_SURFACE ( 'NONE', #166, 3.849999999999996980 ) ;
#83 = CARTESIAN_POINT ( 'NONE',  ( 8.076890508534839264E-15, -2.832991830229350438E-16, 2.313313383256126787 ) ) ;
#84 = CARTESIAN_POINT ( 'NONE',  ( 1.841234074408204981E-13, -3.849999999999997424, 27.00000000000000000 ) ) ;
#85 = CYLINDRICAL_SURFACE ( 'NONE', #268, 3.849999999999992539 ) ;
#86 = CLOSED_SHELL ( 'NONE', ( #298, #160, #323, #167, #196 ) ) ;
#87 = AXIS2_PLACEMENT_3D ( 'NONE', #273, #187, #46 ) ;
#88 = EDGE_CURVE ( 'NONE', #34, #337, #155, .T. ) ;
#89 = CARTESIAN_POINT ( 'NONE',  ( 2.758270257686075477E-13, 2.287133668559318894E-32, 79.00000000000000000 ) ) ;
#90 = PERSON_AND_ORGANIZATION ( #190, #326 ) ;
#91 = EDGE_CURVE ( 'NONE', #310, #172, #303, .T. ) ;
#92 = APPROVAL_PERSON_ORGANIZATION ( #90, #180, #150 ) ;
#93 = MECHANICAL_CONTEXT ( 'NONE', #97, 'mechanical' ) ;
#94 = ORIENTED_EDGE ( 'NONE', *, *, #191, .F. ) ;
#95 = APPROVAL_DATE_TIME ( #201, #163 ) ;
#96 = ORIENTED_EDGE ( 'NONE', *, *, #91, .F. ) ;
#97 = APPLICATION_CONTEXT ( 'configuration controlled 3d designs of mechanical parts and assemblies' ) ;
#98 = ORIENTED_EDGE ( 'NONE', *, *, #43, .F. ) ;
#99 = APPROVAL_PERSON_ORGANIZATION ( #222, #163, #24 ) ;
#100 = APPLICATION_PROTOCOL_DEFINITION ( 'international standard', 'config_control_design', 1994, #97 ) ;
#101 = APPROVAL ( #177, 'UNSPECIFIED' ) ;
#102 = ORIENTED_EDGE ( 'NONE', *, *, #107, .F. ) ;
#103 = DIRECTION ( 'NONE',  ( -3.491481338843133355E-15, 1.224646799147353207E-16, -1.000000000000000000 ) ) ;
#104 = CARTESIAN_POINT ( 'NONE',  ( 2.730338406975330915E-13, 3.849999999999990763, 78.20000000000000284 ) ) ;
#105 = CARTESIAN_POINT ( 'NONE',  ( 8.076890508534839264E-15, -2.832991830229350438E-16, 2.313313383256126787 ) ) ;
#106 = CARTESIAN_POINT ( 'NONE',  ( 9.426999614876460059E-14, 3.849999999999990763, 27.00000000000000000 ) ) ;
#107 = EDGE_CURVE ( 'NONE', #337, #69, #240, .T. ) ;
#108 = AXIS2_PLACEMENT_3D ( 'NONE', #184, #10, #290 ) ;
#109 = CARTESIAN_POINT ( 'NONE',  ( 8.548379526206570215E-15, 3.849999999999990763, 2.313313383256127231 ) ) ;
#110 = FACE_OUTER_BOUND ( 'NONE', #247, .T. ) ;
#111 = CARTESIAN_POINT ( 'NONE',  ( 8.076890508534839264E-15, -2.832991830229350438E-16, 2.313313383256126787 ) ) ;
#112 = VECTOR ( 'NONE', #179, 1000.000000000000000 ) ;
#113 = CIRCLE ( 'NONE', #237, 3.050000000000000266 ) ;
#114 = DIRECTION ( 'NONE',  ( -3.491481338843133355E-15, 1.224646799147353207E-16, -1.000000000000000000 ) ) ;
#115 = PERSON_AND_ORGANIZATION_ROLE ( 'creator' ) ;
#116 = DIRECTION ( 'NONE',  ( 0.0000000000000000000, 0.0000000000000000000, 1.000000000000000000 ) ) ;
#117 = ORIENTED_EDGE ( 'NONE', *, *, #174, .F. ) ;
#118 = CONICAL_SURFACE ( 'NONE', #60, 3.050000000000000266, 0.7853981633974512766 ) ;
#119 = PERSON_AND_ORGANIZATION_ROLE ( 'design_owner' ) ;
#120 = ORIENTED_EDGE ( 'NONE', *, *, #213, .T. ) ;
#121 = PERSON_AND_ORGANIZATION_ROLE ( 'classification_officer' ) ;
#122 = ORIENTED_EDGE ( 'NONE', *, *, #57, .F. ) ;
#123 = VERTEX_POINT ( 'NONE', #106 ) ;
#124 = VECTOR ( 'NONE', #286, 1000.000000000000000 ) ;
#125 = LINE ( 'NONE', #183, #112 ) ;
#126 = DIRECTION ( 'NONE',  ( 0.0000000000000000000, 1.000000000000000000, 0.0000000000000000000 ) ) ;
#127 =( GEOMETRIC_REPRESENTATION_CONTEXT ( 3 ) GLOBAL_UNCERTAINTY_ASSIGNED_CONTEXT ( ( #295 ) ) GLOBAL_UNIT_ASSIGNED_CONTEXT ( ( #330, #242, #219 ) ) REPRESENTATION_CONTEXT ( 'NONE', 'WORKASPACE' ) );
#128 = LINE ( 'NONE', #316, #230 ) ;
#129 = ADVANCED_BREP_SHAPE_REPRESENTATION ( '54633', ( #224, #228, #204 ), #127 ) ;
#130 = CARTESIAN_POINT ( 'NONE',  ( 9.426999614876460059E-14, -3.306546357697853733E-15, 27.00000000000000000 ) ) ;
#131 = CARTESIAN_POINT ( 'NONE',  ( 8.076890508534837686E-15, -3.849999999999991651, 2.313313383256126343 ) ) ;
#132 = EDGE_CURVE ( 'NONE', #69, #285, #26, .T. ) ;
#133 = LINE ( 'NONE', #19, #320 ) ;
#134 = AXIS2_PLACEMENT_3D ( 'NONE', #89, #44, #62 ) ;
#135 = ADVANCED_FACE ( 'NONE', ( #265 ), #82, .T. ) ;
#136 = DIRECTION ( 'NONE',  ( 0.0000000000000000000, 1.000000000000000000, 0.0000000000000000000 ) ) ;
#137 = DIRECTION ( 'NONE',  ( -3.491481338843133355E-15, 1.224646799147353207E-16, -1.000000000000000000 ) ) ;
#138 = LINE ( 'NONE', #270, #144 ) ;
#139 = CC_DESIGN_APPROVAL ( #101, ( #173 ) ) ;
#140 = DIRECTION ( 'NONE',  ( 4.275831445896958607E-31, 1.000000000000000000, 1.224646799147352961E-16 ) ) ;
#141 = ORIENTED_EDGE ( 'NONE', *, *, #132, .F. ) ;
#142 = PERSON_AND_ORGANIZATION ( #190, #326 ) ;
#143 = LINE ( 'NONE', #249, #124 ) ;
#144 = VECTOR ( 'NONE', #66, 1000.000000000000000 ) ;
#145 = LOCAL_TIME ( 9, 53, 43.00000000000000000, #50 ) ;
#146 = PERSON_AND_ORGANIZATION ( #190, #326 ) ;
#147 = EDGE_LOOP ( 'NONE', ( #25, #7, #206 ) ) ;
#148 = CARTESIAN_POINT ( 'NONE',  ( 0.0000000000000000000, 0.0000000000000000000, 0.0000000000000000000 ) ) ;
#149 = ORIENTED_EDGE ( 'NONE', *, *, #174, .T. ) ;
#150 = APPROVAL_ROLE ( '' ) ;
#151 = ORIENTED_EDGE ( 'NONE', *, *, #132, .T. ) ;
#152 = DIRECTION ( 'NONE',  ( -4.001932351973486367E-31, -1.000000000000000000, -1.126443815569357865E-16 ) ) ;
#153 = DIRECTION ( 'NONE',  ( -3.491481338843133355E-15, 1.224646799147353207E-16, -1.000000000000000000 ) ) ;
#154 = CARTESIAN_POINT ( 'NONE',  ( 2.730338406975330915E-13, -9.576737969332302470E-15, 78.20000000000000284 ) ) ;
#155 = CIRCLE ( 'NONE', #108, 3.050000000000000266 ) ;
#156 = AXIS2_PLACEMENT_3D ( 'NONE', #111, #164, #328 ) ;
#157 = DIRECTION ( 'NONE',  ( 4.275831445896958607E-31, 1.000000000000000000, 1.224646799147352961E-16 ) ) ;
#158 = CYLINDRICAL_SURFACE ( 'NONE', #181, 3.849999999999992539 ) ;
#159 = FACE_OUTER_BOUND ( 'NONE', #229, .T. ) ;
#160 = ADVANCED_FACE ( 'NONE', ( #37 ), #193, .T. ) ;
#161 = AXIS2_PLACEMENT_3D ( 'NONE', #105, #293, #152 ) ;
#162 = APPROVAL_PERSON_ORGANIZATION ( #32, #101, #253 ) ;
#163 = APPROVAL ( #205, 'UNSPECIFIED' ) ;
#164 = DIRECTION ( 'NONE',  ( -3.491481338843133355E-15, 1.224646799147353207E-16, -1.000000000000000000 ) ) ;
#165 = FACE_OUTER_BOUND ( 'NONE', #276, .T. ) ;
#166 = AXIS2_PLACEMENT_3D ( 'NONE', #54, #208, #11 ) ;
#167 = ADVANCED_FACE ( 'NONE', ( #61 ), #158, .T. ) ;
#168 = EDGE_LOOP ( 'NONE', ( #33, #8, #28, #52 ) ) ;
#169 = ORIENTED_EDGE ( 'NONE', *, *, #207, .T. ) ;
#170 = EDGE_CURVE ( 'NONE', #31, #233, #41, .T. ) ;
#171 = CALENDAR_DATE ( 2021, 3, 9 ) ;
#172 = VERTEX_POINT ( 'NONE', #16 ) ;
#173 = SECURITY_CLASSIFICATION ( '', '', #336 ) ;
#174 = EDGE_CURVE ( 'NONE', #285, #69, #203, .T. ) ;
#175 = COORDINATED_UNIVERSAL_TIME_OFFSET ( 1, 0, .AHEAD. ) ;
#176 = EDGE_LOOP ( 'NONE', ( #313, #178 ) ) ;
#177 = APPROVAL_STATUS ( 'not_yet_approved' ) ;
#178 = ORIENTED_EDGE ( 'NONE', *, *, #88, .F. ) ;
#179 = DIRECTION ( 'NONE',  ( -3.491481338843133355E-15, 1.224646799147353207E-16, -1.000000000000000000 ) ) ;
#180 = APPROVAL ( #51, 'UNSPECIFIED' ) ;
#181 = AXIS2_PLACEMENT_3D ( 'NONE', #260, #235, #157 ) ;
#182 = AXIS2_PLACEMENT_3D ( 'NONE', #296, #64, #244 ) ;
#183 = CARTESIAN_POINT ( 'NONE',  ( 1.646195106670325797E-30, 3.849999999999992539, 4.714890176717299654E-16 ) ) ;
#184 = CARTESIAN_POINT ( 'NONE',  ( 2.758270257686075477E-13, -9.674709713264090904E-15, 79.00000000000000000 ) ) ;
#185 = DIRECTION ( 'NONE',  ( 4.275831445896958607E-31, 1.000000000000000000, 1.224646799147353207E-16 ) ) ;
#186 = CARTESIAN_POINT ( 'NONE',  ( 2.748529363787760814E-13, -3.050000000000009592, 79.00000000000000000 ) ) ;
#187 = DIRECTION ( 'NONE',  ( -3.491481338843133355E-15, 1.224646799147353207E-16, -1.000000000000000000 ) ) ;
#188 = CARTESIAN_POINT ( 'NONE',  ( 2.758270257686075477E-13, 3.049999999999990496, 79.00000000000000000 ) ) ;
#189 = DIRECTION ( 'NONE',  ( 3.491481338843133355E-15, -1.224646799147353207E-16, 1.000000000000000000 ) ) ;
#190 = PERSON ( 'UNSPECIFIED', 'UNSPECIFIED', 'UNSPECIFIED', ('UNSPECIFIED'), ('UNSPECIFIED'), ('UNSPECIFIED') ) ;
#191 = EDGE_CURVE ( 'NONE', #310, #227, #125, .T. ) ;
#192 = PLANE ( 'NONE',  #134 ) ;
#193 = CONICAL_SURFACE ( 'NONE', #161, 3.849999999999991207, 1.029744258676649649 ) ;
#194 = DATE_TIME_ROLE ( 'creation_date' ) ;
#195 = ORIENTED_EDGE ( 'NONE', *, *, #213, .F. ) ;
#196 = ADVANCED_FACE ( 'NONE', ( #257 ), #322, .T. ) ;
#197 = CALENDAR_DATE ( 2021, 3, 9 ) ;
#198 = ORIENTED_EDGE ( 'NONE', *, *, #294, .T. ) ;
#199 = PRODUCT_RELATED_PRODUCT_CATEGORY ( 'detail', '', ( #308 ) ) ;
#200 = APPLICATION_CONTEXT ( 'configuration controlled 3d designs of mechanical parts and assemblies' ) ;
#201 = DATE_AND_TIME ( #27, #145 ) ;
#202 = ORIENTED_EDGE ( 'NONE', *, *, #18, .T. ) ;
#203 = CIRCLE ( 'NONE', #267, 3.850000000000000089 ) ;
#204 = AXIS2_PLACEMENT_3D ( 'NONE', #148, #116, #221 ) ;
#205 = APPROVAL_STATUS ( 'not_yet_approved' ) ;
#206 = ORIENTED_EDGE ( 'NONE', *, *, #297, .T. ) ;
#207 = EDGE_CURVE ( 'NONE', #307, #123, #58, .T. ) ;
#208 = DIRECTION ( 'NONE',  ( -3.491481338843133355E-15, 1.224646799147353207E-16, -1.000000000000000000 ) ) ;
#209 = DIRECTION ( 'NONE',  ( -4.275831445896958607E-31, -1.000000000000000000, -1.224646799147353207E-16 ) ) ;
#210 = CIRCLE ( 'NONE', #63, 3.849999999999991207 ) ;
#211 = PRODUCT_DEFINITION_FORMATION_WITH_SPECIFIED_SOURCE ( 'ANY', '', #308, .NOT_KNOWN. ) ;
#212 = CARTESIAN_POINT ( 'NONE',  ( 8.548379526206570215E-15, 3.849999999999990763, 2.313313383256127231 ) ) ;
#213 = EDGE_CURVE ( 'NONE', #227, #233, #210, .T. ) ;
#214 = DIRECTION ( 'NONE',  ( 0.0000000000000000000, 1.000000000000000000, 0.0000000000000000000 ) ) ;
#215 = CARTESIAN_POINT ( 'NONE',  ( 2.758270257686075477E-13, 3.049999999999990496, 79.00000000000000000 ) ) ;
#216 = CARTESIAN_POINT ( 'NONE',  ( 9.426999614876460059E-14, 3.849999999999990763, 27.00000000000000000 ) ) ;
#217 = CARTESIAN_POINT ( 'NONE',  ( 8.076890508534837686E-15, -3.849999999999991651, 2.313313383256126343 ) ) ;
#218 = CARTESIAN_POINT ( 'NONE',  ( 0.0000000000000000000, 0.0000000000000000000, 0.0000000000000000000 ) ) ;
#219 =( NAMED_UNIT ( * ) SI_UNIT ( $, .STERADIAN. ) SOLID_ANGLE_UNIT ( ) );
#220 = CC_DESIGN_PERSON_AND_ORGANIZATION_ASSIGNMENT ( #2, #121, ( #173 ) ) ;
#221 = DIRECTION ( 'NONE',  ( 1.000000000000000000, 0.0000000000000000000, 0.0000000000000000000 ) ) ;
#222 = PERSON_AND_ORGANIZATION ( #190, #326 ) ;
#223 = EDGE_LOOP ( 'NONE', ( #226, #149, #202, #49 ) ) ;
#224 = MANIFOLD_SOLID_BREP ( 'Corps-Déplacer/Copier1[1]', #72 ) ;
#225 = COORDINATED_UNIVERSAL_TIME_OFFSET ( 1, 0, .AHEAD. ) ;
#226 = ORIENTED_EDGE ( 'NONE', *, *, #333, .F. ) ;
#227 = VERTEX_POINT ( 'NONE', #212 ) ;
#228 = MANIFOLD_SOLID_BREP ( 'Corps-Déplacer/Copier1[2]', #86 ) ;
#229 = EDGE_LOOP ( 'NONE', ( #198, #75, #141, #102 ) ) ;
#230 = VECTOR ( 'NONE', #78, 1000.000000000000114 ) ;
#231 = LOCAL_TIME ( 9, 53, 43.00000000000000000, #175 ) ;
#232 = ADVANCED_FACE ( 'NONE', ( #321 ), #80, .T. ) ;
#233 = VERTEX_POINT ( 'NONE', #217 ) ;
#234 = DIRECTION ( 'NONE',  ( 3.491481338843133355E-15, -1.224646799147353207E-16, 1.000000000000000000 ) ) ;
#235 = DIRECTION ( 'NONE',  ( -3.491481338843133355E-15, 1.224646799147353207E-16, -1.000000000000000000 ) ) ;
#236 = ADVANCED_FACE ( 'NONE', ( #65 ), #12, .T. ) ;
#237 = AXIS2_PLACEMENT_3D ( 'NONE', #301, #114, #302 ) ;
#238 = DIRECTION ( 'NONE',  ( -3.491481338843133355E-15, 1.224646799147353207E-16, -1.000000000000000000 ) ) ;
#239 = DIRECTION ( 'NONE',  ( 0.0000000000000000000, 1.000000000000000000, 0.0000000000000000000 ) ) ;
#240 = LINE ( 'NONE', #215, #17 ) ;
#241 = CARTESIAN_POINT ( 'NONE',  ( 1.841234074408203971E-13, -3.850000000000009859, 78.20000000000000284 ) ) ;
#242 =( NAMED_UNIT ( * ) PLANE_ANGLE_UNIT ( ) SI_UNIT ( $, .RADIAN. ) );
#243 = AXIS2_PLACEMENT_3D ( 'NONE', #83, #189, #269 ) ;
#244 = DIRECTION ( 'NONE',  ( -4.275831445896958607E-31, -1.000000000000000000, -1.224646799147353207E-16 ) ) ;
#245 = CARTESIAN_POINT ( 'NONE',  ( 2.758270257686075477E-13, -9.674709713264090904E-15, 79.00000000000000000 ) ) ;
#246 = PRODUCT_DEFINITION_SHAPE ( 'NONE', 'NONE',  #289 ) ;
#247 = EDGE_LOOP ( 'NONE', ( #305, #169 ) ) ;
#248 = CALENDAR_DATE ( 2021, 3, 9 ) ;
#249 = CARTESIAN_POINT ( 'NONE',  ( 1.646195106670327899E-30, 3.849999999999996980, 4.714890176717306557E-16 ) ) ;
#250 = COORDINATED_UNIVERSAL_TIME_OFFSET ( 1, 0, .AHEAD. ) ;
#251 = EDGE_CURVE ( 'NONE', #172, #233, #138, .T. ) ;
#252 = ORIENTED_EDGE ( 'NONE', *, *, #170, .F. ) ;
#253 = APPROVAL_ROLE ( '' ) ;
#254 = EDGE_LOOP ( 'NONE', ( #252, #67, #120 ) ) ;
#255 = EDGE_LOOP ( 'NONE', ( #98, #279, #47, #117 ) ) ;
#256 = CC_DESIGN_APPROVAL ( #180, ( #289 ) ) ;
#257 = FACE_OUTER_BOUND ( 'NONE', #1, .T. ) ;
#258 = DIRECTION ( 'NONE',  ( 4.001932351973486367E-31, 1.000000000000000000, 1.126443815569357865E-16 ) ) ;
#259 = CC_DESIGN_PERSON_AND_ORGANIZATION_ASSIGNMENT ( #311, #115, ( #289 ) ) ;
#260 = CARTESIAN_POINT ( 'NONE',  ( 0.0000000000000000000, 0.0000000000000000000, 0.0000000000000000000 ) ) ;
#261 = AXIS2_PLACEMENT_3D ( 'NONE', #35, #234, #209 ) ;
#262 = VECTOR ( 'NONE', #264, 1000.000000000000000 ) ;
#263 = ADVANCED_FACE ( 'NONE', ( #110 ), #23, .F. ) ;
#264 = DIRECTION ( 'NONE',  ( 1.798245827342160317E-15, -0.8571673007021098911, 0.5150380749100582634 ) ) ;
#265 = FACE_OUTER_BOUND ( 'NONE', #223, .T. ) ;
#266 = CARTESIAN_POINT ( 'NONE',  ( 2.758270257686075477E-13, -9.674709713264090904E-15, 79.00000000000000000 ) ) ;
#267 = AXIS2_PLACEMENT_3D ( 'NONE', #59, #238, #214 ) ;
#268 = AXIS2_PLACEMENT_3D ( 'NONE', #218, #137, #140 ) ;
#269 = DIRECTION ( 'NONE',  ( -4.001932351973486367E-31, -1.000000000000000000, -1.126443815569357865E-16 ) ) ;
#270 = CARTESIAN_POINT ( 'NONE',  ( 4.714890176717284863E-16, -3.849999999999992539, -4.714890176717316417E-16 ) ) ;
#271 = FACE_OUTER_BOUND ( 'NONE', #176, .T. ) ;
#272 = CC_DESIGN_DATE_AND_TIME_ASSIGNMENT ( #74, #277, ( #173 ) ) ;
#273 = CARTESIAN_POINT ( 'NONE',  ( 9.426999614876460059E-14, -3.306546357697853733E-15, 27.00000000000000000 ) ) ;
#274 = ORIENTED_EDGE ( 'NONE', *, *, #251, .T. ) ;
#275 = EDGE_CURVE ( 'NONE', #31, #227, #45, .T. ) ;
#276 = EDGE_LOOP ( 'NONE', ( #77, #274, #195, #94 ) ) ;
#277 = DATE_TIME_ROLE ( 'classification_date' ) ;
#278 = AXIS2_PLACEMENT_3D ( 'NONE', #245, #21, #20 ) ;
#279 = ORIENTED_EDGE ( 'NONE', *, *, #88, .T. ) ;
#280 = CC_DESIGN_SECURITY_CLASSIFICATION ( #173, ( #211 ) ) ;
#281 = COORDINATED_UNIVERSAL_TIME_OFFSET ( 1, 0, .AHEAD. ) ;
#282 = ORIENTED_EDGE ( 'NONE', *, *, #333, .T. ) ;
#283 = CALENDAR_DATE ( 2021, 3, 9 ) ;
#284 = CC_DESIGN_PERSON_AND_ORGANIZATION_ASSIGNMENT ( #306, #76, ( #211 ) ) ;
#285 = VERTEX_POINT ( 'NONE', #241 ) ;
#286 = DIRECTION ( 'NONE',  ( -3.491481338843133355E-15, 1.224646799147353207E-16, -1.000000000000000000 ) ) ;
#287 = ADVANCED_FACE ( 'NONE', ( #271 ), #192, .F. ) ;
#288 = DIRECTION ( 'NONE',  ( 0.0000000000000000000, 1.000000000000000000, 0.0000000000000000000 ) ) ;
#289 = PRODUCT_DEFINITION ( 'UNKNOWN', '', #211, #39 ) ;
#290 = DIRECTION ( 'NONE',  ( 0.0000000000000000000, 1.000000000000000000, 0.0000000000000000000 ) ) ;
#291 = CARTESIAN_POINT ( 'NONE',  ( 0.0000000000000000000, 0.0000000000000000000, 0.0000000000000000000 ) ) ;
#292 = CC_DESIGN_APPROVAL ( #163, ( #211 ) ) ;
#293 = DIRECTION ( 'NONE',  ( 3.491481338843133355E-15, -1.224646799147353207E-16, 1.000000000000000000 ) ) ;
#294 = EDGE_CURVE ( 'NONE', #337, #34, #113, .T. ) ;
#295 = UNCERTAINTY_MEASURE_WITH_UNIT (LENGTH_MEASURE( 1.000000000000000082E-05 ), #330, 'distance_accuracy_value', 'NONE');
#296 = CARTESIAN_POINT ( 'NONE',  ( 9.426999614876460059E-14, 2.887037581624066316E-32, 27.00000000000000000 ) ) ;
#297 = EDGE_CURVE ( 'NONE', #233, #227, #73, .T. ) ;
#298 = ADVANCED_FACE ( 'NONE', ( #165 ), #85, .T. ) ;
#299 = AXIS2_PLACEMENT_3D ( 'NONE', #81, #40, #185 ) ;
#300 = DIRECTION ( 'NONE',  ( -3.491481338843133355E-15, 1.224646799147353207E-16, -1.000000000000000000 ) ) ;
#301 = CARTESIAN_POINT ( 'NONE',  ( 2.758270257686075477E-13, -9.674709713264090904E-15, 79.00000000000000000 ) ) ;
#302 = DIRECTION ( 'NONE',  ( 0.0000000000000000000, 1.000000000000000000, 0.0000000000000000000 ) ) ;
#303 = CIRCLE ( 'NONE', #325, 3.849999999999993872 ) ;
#304 = LOCAL_TIME ( 9, 53, 43.00000000000000000, #281 ) ;
#305 = ORIENTED_EDGE ( 'NONE', *, *, #317, .T. ) ;
#306 = PERSON_AND_ORGANIZATION ( #190, #326 ) ;
#307 = VERTEX_POINT ( 'NONE', #84 ) ;
#308 = PRODUCT ( '54633', '54633', '', ( #93 ) ) ;
#309 = SHAPE_DEFINITION_REPRESENTATION ( #246, #129 ) ;
#310 = VERTEX_POINT ( 'NONE', #216 ) ;
#311 = PERSON_AND_ORGANIZATION ( #190, #326 ) ;
#312 = VECTOR ( 'NONE', #332, 999.9999999999998863 ) ;
#313 = ORIENTED_EDGE ( 'NONE', *, *, #294, .F. ) ;
#314 = APPLICATION_PROTOCOL_DEFINITION ( 'international standard', 'config_control_design', 1994, #200 ) ;
#315 = ORIENTED_EDGE ( 'NONE', *, *, #317, .F. ) ;
#316 = CARTESIAN_POINT ( 'NONE',  ( 2.762005430423474760E-13, -3.050000000000009592, 79.00000000000000000 ) ) ;
#317 = EDGE_CURVE ( 'NONE', #123, #307, #6, .T. ) ;
#318 = CARTESIAN_POINT ( 'NONE',  ( 9.426999614876460059E-14, -3.306546357697853733E-15, 27.00000000000000000 ) ) ;
#319 = AXIS2_PLACEMENT_3D ( 'NONE', #318, #79, #288 ) ;
#320 = VECTOR ( 'NONE', #300, 1000.000000000000000 ) ;
#321 = FACE_OUTER_BOUND ( 'NONE', #71, .T. ) ;
#322 = PLANE ( 'NONE',  #261 ) ;
#323 = ADVANCED_FACE ( 'NONE', ( #327 ), #22, .T. ) ;
#324 = DIRECTION ( 'NONE',  ( -3.491481338843133355E-15, 1.224646799147353207E-16, -1.000000000000000000 ) ) ;
#325 = AXIS2_PLACEMENT_3D ( 'NONE', #36, #56, #239 ) ;
#326 = ORGANIZATION ( 'UNSPECIFIED', 'UNSPECIFIED', '' ) ;
#327 = FACE_OUTER_BOUND ( 'NONE', #147, .T. ) ;
#328 = DIRECTION ( 'NONE',  ( 4.001932351973486367E-31, 1.000000000000000000, 1.126443815569357865E-16 ) ) ;
#329 = ADVANCED_FACE ( 'NONE', ( #159 ), #118, .T. ) ;
#330 =( LENGTH_UNIT ( ) NAMED_UNIT ( * ) SI_UNIT ( .MILLI., .METRE. ) );
#331 = AXIS2_PLACEMENT_3D ( 'NONE', #154, #103, #14 ) ;
#332 = DIRECTION ( 'NONE',  ( 1.903218546456022717E-15, 0.8571673007021097801, 0.5150380749100585964 ) ) ;
#333 = EDGE_CURVE ( 'NONE', #285, #307, #133, .T. ) ;
#334 = APPROVAL_DATE_TIME ( #68, #101 ) ;
#335 = LOCAL_TIME ( 9, 53, 43.00000000000000000, #250 ) ;
#336 = SECURITY_CLASSIFICATION_LEVEL ( 'unclassified' ) ;
#337 = VERTEX_POINT ( 'NONE', #188 ) ;
ENDSEC;
END-ISO-10303-21;
