ISO-10303-21;
HEADER;
FILE_DESCRIPTION (( 'STEP AP203' ),
    '1' );
FILE_NAME ('54632.STEP',
    '2021-10-05T07:34:02',
    ( '' ),
    ( '' ),
    'SwSTEP 2.0',
    'SolidWorks 2019',
    '' );
FILE_SCHEMA (( 'CONFIG_CONTROL_DESIGN' ));
ENDSEC;

DATA;
#1 = ORIENTED_EDGE ( 'NONE', *, *, #31, .T. ) ;
#2 = ORIENTED_EDGE ( 'NONE', *, *, #62, .T. ) ;
#3 = DIRECTION ( 'NONE',  ( 0.0000000000000000000, 1.000000000000000000, 0.0000000000000000000 ) ) ;
#4 = EDGE_LOOP ( 'NONE', ( #35 ) ) ;
#5 = AXIS2_PLACEMENT_3D ( 'NONE', #92, #89, #19 ) ;
#6 = CYLINDRICAL_SURFACE ( 'NONE', #149, 3.799999999999995381 ) ;
#7 = CC_DESIGN_PERSON_AND_ORGANIZATION_ASSIGNMENT ( #151, #60, ( #130 ) ) ;
#8 =( NAMED_UNIT ( * ) SI_UNIT ( $, .STERADIAN. ) SOLID_ANGLE_UNIT ( ) );
#9 = AXIS2_PLACEMENT_3D ( 'NONE', #96, #181, #161 ) ;
#10 = CARTESIAN_POINT ( 'NONE',  ( 2.758270257686075477E-13, -9.674709713264090904E-15, 79.00000000000000000 ) ) ;
#11 = ADVANCED_FACE ( 'NONE', ( #36 ), #86, .T. ) ;
#12 = COORDINATED_UNIVERSAL_TIME_OFFSET ( 1, 0, .AHEAD. ) ;
#13 = PERSON_AND_ORGANIZATION ( #74, #42 ) ;
#14 = CC_DESIGN_SECURITY_CLASSIFICATION ( #188, ( #130 ) ) ;
#15 = PRODUCT_DEFINITION_SHAPE ( 'NONE', 'NONE',  #63 ) ;
#16 = PERSON_AND_ORGANIZATION ( #74, #42 ) ;
#17 = DIRECTION ( 'NONE',  ( 1.000000000000000000, 0.0000000000000000000, 0.0000000000000000000 ) ) ;
#18 = AXIS2_PLACEMENT_3D ( 'NONE', #67, #190, #162 ) ;
#19 = DIRECTION ( 'NONE',  ( -4.054589356604713697E-31, -1.000000000000000000, -1.141265444721585483E-16 ) ) ;
#20 = DIRECTION ( 'NONE',  ( 4.054589356604713697E-31, 1.000000000000000000, 1.141265444721585483E-16 ) ) ;
#21 = FACE_OUTER_BOUND ( 'NONE', #64, .T. ) ;
#22 = APPROVAL_PERSON_ORGANIZATION ( #44, #58, #167 ) ;
#23 = CARTESIAN_POINT ( 'NONE',  ( 2.730338406975330915E-13, 3.799999999999993605, 78.20000000000000284 ) ) ;
#24 = PLANE ( 'NONE',  #99 ) ;
#25 = VERTEX_POINT ( 'NONE', #49 ) ;
#26 = CALENDAR_DATE ( 2021, 5, 10 ) ;
#27 = APPROVAL_STATUS ( 'not_yet_approved' ) ;
#28 = APPROVAL ( #27, 'UNSPECIFIED' ) ;
#29 = DATE_TIME_ROLE ( 'creation_date' ) ;
#30 = CALENDAR_DATE ( 2021, 5, 10 ) ;
#31 = EDGE_CURVE ( 'NONE', #125, #125, #119, .T. ) ;
#32 = AXIS2_PLACEMENT_3D ( 'NONE', #175, #114, #147 ) ;
#33 = MANIFOLD_SOLID_BREP ( 'Corps-Déplacer/Copier1[1]', #108 ) ;
#34 = ORIENTED_EDGE ( 'NONE', *, *, #201, .F. ) ;
#35 = ORIENTED_EDGE ( 'NONE', *, *, #201, .T. ) ;
#36 = FACE_OUTER_BOUND ( 'NONE', #177, .T. ) ;
#37 = DIRECTION ( 'NONE',  ( 3.491481338843133355E-15, -1.224646799147353207E-16, 1.000000000000000000 ) ) ;
#38 = AXIS2_PLACEMENT_3D ( 'NONE', #69, #80, #20 ) ;
#39 = PLANE ( 'NONE',  #9 ) ;
#40 = CARTESIAN_POINT ( 'NONE',  ( 9.426999614876460059E-14, 2.849543587057522339E-32, 27.00000000000000000 ) ) ;
#41 = APPROVAL_DATE_TIME ( #56, #28 ) ;
#42 = ORGANIZATION ( 'UNSPECIFIED', 'UNSPECIFIED', '' ) ;
#43 = CC_DESIGN_PERSON_AND_ORGANIZATION_ASSIGNMENT ( #185, #165, ( #130 ) ) ;
#44 = PERSON_AND_ORGANIZATION ( #74, #42 ) ;
#45 = CIRCLE ( 'NONE', #103, 3.799999999999997158 ) ;
#46 = ADVANCED_FACE ( 'NONE', ( #21 ), #39, .F. ) ;
#47 = CC_DESIGN_APPROVAL ( #58, ( #63 ) ) ;
#48 = EDGE_CURVE ( 'NONE', #192, #192, #88, .T. ) ;
#49 = CARTESIAN_POINT ( 'NONE',  ( 9.426999614876460059E-14, 3.799999999999993605, 27.00000000000000000 ) ) ;
#50 = LOCAL_TIME ( 9, 34, 2.000000000000000000, #73 ) ;
#51 = DIRECTION ( 'NONE',  ( 0.0000000000000000000, 1.000000000000000000, 0.0000000000000000000 ) ) ;
#52 =( LENGTH_UNIT ( ) NAMED_UNIT ( * ) SI_UNIT ( .MILLI., .METRE. ) );
#53 = EDGE_LOOP ( 'NONE', ( #110 ) ) ;
#54 = CARTESIAN_POINT ( 'NONE',  ( 2.758270257686075477E-13, -9.674709713264090904E-15, 79.00000000000000000 ) ) ;
#55 = FACE_OUTER_BOUND ( 'NONE', #53, .T. ) ;
#56 = DATE_AND_TIME ( #30, #50 ) ;
#57 = CALENDAR_DATE ( 2021, 5, 10 ) ;
#58 = APPROVAL ( #120, 'UNSPECIFIED' ) ;
#59 = DIRECTION ( 'NONE',  ( 0.0000000000000000000, 0.0000000000000000000, 1.000000000000000000 ) ) ;
#60 = PERSON_AND_ORGANIZATION_ROLE ( 'design_supplier' ) ;
#61 = CC_DESIGN_APPROVAL ( #28, ( #188 ) ) ;
#62 = EDGE_CURVE ( 'NONE', #193, #193, #186, .T. ) ;
#63 = PRODUCT_DEFINITION ( 'UNKNOWN', '', #130, #79 ) ;
#64 = EDGE_LOOP ( 'NONE', ( #173 ) ) ;
#65 = CARTESIAN_POINT ( 'NONE',  ( 7.971995826605823532E-15, 3.799999999999993605, 2.283270352304751061 ) ) ;
#66 = DIRECTION ( 'NONE',  ( -4.275831445896958607E-31, -1.000000000000000000, -1.224646799147353207E-16 ) ) ;
#67 = CARTESIAN_POINT ( 'NONE',  ( 9.426999614876460059E-14, -3.306546357697853733E-15, 27.00000000000000000 ) ) ;
#68 = DIRECTION ( 'NONE',  ( -3.491481338843133355E-15, 1.224646799147353207E-16, -1.000000000000000000 ) ) ;
#69 = CARTESIAN_POINT ( 'NONE',  ( 7.971995826605821954E-15, -2.796199728538061876E-16, 2.283270352304750617 ) ) ;
#70 = APPROVAL_PERSON_ORGANIZATION ( #85, #75, #163 ) ;
#71 = PERSON_AND_ORGANIZATION_ROLE ( 'classification_officer' ) ;
#72 = COORDINATED_UNIVERSAL_TIME_OFFSET ( 1, 0, .AHEAD. ) ;
#73 = COORDINATED_UNIVERSAL_TIME_OFFSET ( 1, 0, .AHEAD. ) ;
#74 = PERSON ( 'UNSPECIFIED', 'UNSPECIFIED', 'UNSPECIFIED', ('UNSPECIFIED'), ('UNSPECIFIED'), ('UNSPECIFIED') ) ;
#75 = APPROVAL ( #122, 'UNSPECIFIED' ) ;
#76 = DIRECTION ( 'NONE',  ( -3.491481338843133355E-15, 1.224646799147353207E-16, -1.000000000000000000 ) ) ;
#77 =( NAMED_UNIT ( * ) PLANE_ANGLE_UNIT ( ) SI_UNIT ( $, .RADIAN. ) );
#78 = APPLICATION_CONTEXT ( 'configuration controlled 3d designs of mechanical parts and assemblies' ) ;
#79 = DESIGN_CONTEXT ( 'detailed design', #189, 'design' ) ;
#80 = DIRECTION ( 'NONE',  ( -3.491481338843133355E-15, 1.224646799147353207E-16, -1.000000000000000000 ) ) ;
#81 = FACE_OUTER_BOUND ( 'NONE', #106, .T. ) ;
#82 = LOCAL_TIME ( 9, 34, 2.000000000000000000, #12 ) ;
#83 = SHAPE_DEFINITION_REPRESENTATION ( #15, #123 ) ;
#84 = DATE_TIME_ROLE ( 'classification_date' ) ;
#85 = PERSON_AND_ORGANIZATION ( #74, #42 ) ;
#86 = CONICAL_SURFACE ( 'NONE', #5, 3.799999999999994049, 1.029744258676649649 ) ;
#87 = EDGE_LOOP ( 'NONE', ( #144 ) ) ;
#88 = CIRCLE ( 'NONE', #164, 3.000000000000003553 ) ;
#89 = DIRECTION ( 'NONE',  ( 3.491481338843133355E-15, -1.224646799147353207E-16, 1.000000000000000000 ) ) ;
#90 = EDGE_LOOP ( 'NONE', ( #113 ) ) ;
#91 = CARTESIAN_POINT ( 'NONE',  ( 2.758270257686075477E-13, 2.999999999999993783, 79.00000000000000000 ) ) ;
#92 = CARTESIAN_POINT ( 'NONE',  ( 7.971995826605821954E-15, -2.796199728538061876E-16, 2.283270352304750617 ) ) ;
#93 = CARTESIAN_POINT ( 'NONE',  ( 9.426999614876460059E-14, -3.306546357697853733E-15, 27.00000000000000000 ) ) ;
#94 = APPROVAL_PERSON_ORGANIZATION ( #169, #28, #196 ) ;
#95 = MANIFOLD_SOLID_BREP ( 'Corps-Déplacer/Copier1[2]', #153 ) ;
#96 = CARTESIAN_POINT ( 'NONE',  ( 2.758270257686075477E-13, 2.249639673992774643E-32, 79.00000000000000000 ) ) ;
#97 = DIRECTION ( 'NONE',  ( 4.275831445896958607E-31, 1.000000000000000000, 1.224646799147353454E-16 ) ) ;
#98 = APPLICATION_PROTOCOL_DEFINITION ( 'international standard', 'config_control_design', 1994, #189 ) ;
#99 = AXIS2_PLACEMENT_3D ( 'NONE', #40, #37, #66 ) ;
#100 = SECURITY_CLASSIFICATION_LEVEL ( 'unclassified' ) ;
#101 = PRODUCT ( '54632', '54632', '', ( #197 ) ) ;
#102 = PERSON_AND_ORGANIZATION_ROLE ( 'creator' ) ;
#103 = AXIS2_PLACEMENT_3D ( 'NONE', #93, #68, #127 ) ;
#104 = DATE_AND_TIME ( #57, #82 ) ;
#105 = AXIS2_PLACEMENT_3D ( 'NONE', #157, #142, #51 ) ;
#106 = EDGE_LOOP ( 'NONE', ( #34 ) ) ;
#107 = CARTESIAN_POINT ( 'NONE',  ( 9.426999614876460059E-14, 3.799999999999993605, 27.00000000000000000 ) ) ;
#108 = CLOSED_SHELL ( 'NONE', ( #187, #124, #170, #46 ) ) ;
#109 = DIRECTION ( 'NONE',  ( -3.491481338843133355E-15, 1.224646799147353207E-16, -1.000000000000000000 ) ) ;
#110 = ORIENTED_EDGE ( 'NONE', *, *, #132, .F. ) ;
#111 = DIRECTION ( 'NONE',  ( -3.491481338843133355E-15, 1.224646799147353207E-16, -1.000000000000000000 ) ) ;
#112 = CC_DESIGN_DATE_AND_TIME_ASSIGNMENT ( #138, #29, ( #63 ) ) ;
#113 = ORIENTED_EDGE ( 'NONE', *, *, #132, .T. ) ;
#114 = DIRECTION ( 'NONE',  ( 3.491481338843133355E-15, -1.224646799147353207E-16, 1.000000000000000000 ) ) ;
#115 = DIRECTION ( 'NONE',  ( -3.491481338843133355E-15, 1.224646799147353207E-16, -1.000000000000000000 ) ) ;
#116 = FACE_OUTER_BOUND ( 'NONE', #179, .T. ) ;
#117 = CALENDAR_DATE ( 2021, 5, 10 ) ;
#118 = ADVANCED_FACE ( 'NONE', ( #155, #160 ), #6, .T. ) ;
#119 = CIRCLE ( 'NONE', #105, 3.800000000000002931 ) ;
#120 = APPROVAL_STATUS ( 'not_yet_approved' ) ;
#121 = APPROVAL_DATE_TIME ( #137, #58 ) ;
#122 = APPROVAL_STATUS ( 'not_yet_approved' ) ;
#123 = ADVANCED_BREP_SHAPE_REPRESENTATION ( '54632', ( #33, #95, #198 ), #171 ) ;
#124 = ADVANCED_FACE ( 'NONE', ( #81, #128 ), #195, .T. ) ;
#125 = VERTEX_POINT ( 'NONE', #23 ) ;
#126 = ADVANCED_FACE ( 'NONE', ( #55 ), #129, .T. ) ;
#127 = DIRECTION ( 'NONE',  ( 0.0000000000000000000, 1.000000000000000000, 0.0000000000000000000 ) ) ;
#128 = FACE_OUTER_BOUND ( 'NONE', #154, .T. ) ;
#129 = PLANE ( 'NONE',  #32 ) ;
#130 = PRODUCT_DEFINITION_FORMATION_WITH_SPECIFIED_SOURCE ( 'ANY', '', #101, .NOT_KNOWN. ) ;
#131 = DIRECTION ( 'NONE',  ( 0.0000000000000000000, 1.000000000000000000, 0.0000000000000000000 ) ) ;
#132 = EDGE_CURVE ( 'NONE', #25, #25, #158, .T. ) ;
#133 = DATE_AND_TIME ( #26, #202 ) ;
#134 = CC_DESIGN_APPROVAL ( #75, ( #130 ) ) ;
#135 = LOCAL_TIME ( 9, 34, 2.000000000000000000, #72 ) ;
#136 = CC_DESIGN_DATE_AND_TIME_ASSIGNMENT ( #104, #84, ( #188 ) ) ;
#137 = DATE_AND_TIME ( #117, #135 ) ;
#138 = DATE_AND_TIME ( #150, #139 ) ;
#139 = LOCAL_TIME ( 9, 34, 2.000000000000000000, #168 ) ;
#140 = CC_DESIGN_PERSON_AND_ORGANIZATION_ASSIGNMENT ( #16, #184, ( #101 ) ) ;
#141 = EDGE_LOOP ( 'NONE', ( #152 ) ) ;
#142 = DIRECTION ( 'NONE',  ( -3.491481338843133355E-15, 1.224646799147353207E-16, -1.000000000000000000 ) ) ;
#143 = CARTESIAN_POINT ( 'NONE',  ( 0.0000000000000000000, 0.0000000000000000000, 0.0000000000000000000 ) ) ;
#144 = ORIENTED_EDGE ( 'NONE', *, *, #62, .F. ) ;
#145 = AXIS2_PLACEMENT_3D ( 'NONE', #10, #111, #131 ) ;
#146 = FACE_BOUND ( 'NONE', #141, .T. ) ;
#147 = DIRECTION ( 'NONE',  ( -4.275831445896958607E-31, -1.000000000000000000, -1.224646799147353207E-16 ) ) ;
#148 = CARTESIAN_POINT ( 'NONE',  ( 0.0000000000000000000, 0.0000000000000000000, 0.0000000000000000000 ) ) ;
#149 = AXIS2_PLACEMENT_3D ( 'NONE', #178, #76, #176 ) ;
#150 = CALENDAR_DATE ( 2021, 5, 10 ) ;
#151 = PERSON_AND_ORGANIZATION ( #74, #42 ) ;
#152 = ORIENTED_EDGE ( 'NONE', *, *, #48, .T. ) ;
#153 = CLOSED_SHELL ( 'NONE', ( #11, #118, #126 ) ) ;
#154 = EDGE_LOOP ( 'NONE', ( #1 ) ) ;
#155 = FACE_OUTER_BOUND ( 'NONE', #87, .T. ) ;
#156 = UNCERTAINTY_MEASURE_WITH_UNIT (LENGTH_MEASURE( 1.000000000000000082E-05 ), #52, 'distance_accuracy_value', 'NONE');
#157 = CARTESIAN_POINT ( 'NONE',  ( 2.730338406975330915E-13, -9.576737969332302470E-15, 78.20000000000000284 ) ) ;
#158 = CIRCLE ( 'NONE', #18, 3.799999999999997158 ) ;
#159 = VERTEX_POINT ( 'NONE', #107 ) ;
#160 = FACE_OUTER_BOUND ( 'NONE', #90, .T. ) ;
#161 = DIRECTION ( 'NONE',  ( 4.275831445896958607E-31, 1.000000000000000000, 1.224646799147353207E-16 ) ) ;
#162 = DIRECTION ( 'NONE',  ( 0.0000000000000000000, 1.000000000000000000, 0.0000000000000000000 ) ) ;
#163 = APPROVAL_ROLE ( '' ) ;
#164 = AXIS2_PLACEMENT_3D ( 'NONE', #54, #115, #3 ) ;
#165 = PERSON_AND_ORGANIZATION_ROLE ( 'creator' ) ;
#166 = CC_DESIGN_PERSON_AND_ORGANIZATION_ASSIGNMENT ( #13, #102, ( #63 ) ) ;
#167 = APPROVAL_ROLE ( '' ) ;
#168 = COORDINATED_UNIVERSAL_TIME_OFFSET ( 1, 0, .AHEAD. ) ;
#169 = PERSON_AND_ORGANIZATION ( #74, #42 ) ;
#170 = ADVANCED_FACE ( 'NONE', ( #116, #146 ), #174, .T. ) ;
#171 =( GEOMETRIC_REPRESENTATION_CONTEXT ( 3 ) GLOBAL_UNCERTAINTY_ASSIGNED_CONTEXT ( ( #156 ) ) GLOBAL_UNIT_ASSIGNED_CONTEXT ( ( #52, #77, #8 ) ) REPRESENTATION_CONTEXT ( 'NONE', 'WORKASPACE' ) );
#172 = CC_DESIGN_PERSON_AND_ORGANIZATION_ASSIGNMENT ( #199, #71, ( #188 ) ) ;
#173 = ORIENTED_EDGE ( 'NONE', *, *, #48, .F. ) ;
#174 = CONICAL_SURFACE ( 'NONE', #145, 3.000000000000003553, 0.7853981633974510546 ) ;
#175 = CARTESIAN_POINT ( 'NONE',  ( 9.426999614876460059E-14, 2.849543587057522339E-32, 27.00000000000000000 ) ) ;
#176 = DIRECTION ( 'NONE',  ( 4.275831445896958607E-31, 1.000000000000000000, 1.224646799147353207E-16 ) ) ;
#177 = EDGE_LOOP ( 'NONE', ( #2 ) ) ;
#178 = CARTESIAN_POINT ( 'NONE',  ( 0.0000000000000000000, 0.0000000000000000000, 0.0000000000000000000 ) ) ;
#179 = EDGE_LOOP ( 'NONE', ( #191 ) ) ;
#180 = APPLICATION_PROTOCOL_DEFINITION ( 'international standard', 'config_control_design', 1994, #78 ) ;
#181 = DIRECTION ( 'NONE',  ( -3.491481338843133355E-15, 1.224646799147353207E-16, -1.000000000000000000 ) ) ;
#182 = FACE_OUTER_BOUND ( 'NONE', #4, .T. ) ;
#183 = APPROVAL_DATE_TIME ( #133, #75 ) ;
#184 = PERSON_AND_ORGANIZATION_ROLE ( 'design_owner' ) ;
#185 = PERSON_AND_ORGANIZATION ( #74, #42 ) ;
#186 = CIRCLE ( 'NONE', #38, 3.799999999999994049 ) ;
#187 = ADVANCED_FACE ( 'NONE', ( #182 ), #24, .F. ) ;
#188 = SECURITY_CLASSIFICATION ( '', '', #100 ) ;
#189 = APPLICATION_CONTEXT ( 'configuration controlled 3d designs of mechanical parts and assemblies' ) ;
#190 = DIRECTION ( 'NONE',  ( -3.491481338843133355E-15, 1.224646799147353207E-16, -1.000000000000000000 ) ) ;
#191 = ORIENTED_EDGE ( 'NONE', *, *, #31, .F. ) ;
#192 = VERTEX_POINT ( 'NONE', #91 ) ;
#193 = VERTEX_POINT ( 'NONE', #65 ) ;
#194 = PRODUCT_RELATED_PRODUCT_CATEGORY ( 'detail', '', ( #101 ) ) ;
#195 = CYLINDRICAL_SURFACE ( 'NONE', #203, 3.799999999999999822 ) ;
#196 = APPROVAL_ROLE ( '' ) ;
#197 = MECHANICAL_CONTEXT ( 'NONE', #78, 'mechanical' ) ;
#198 = AXIS2_PLACEMENT_3D ( 'NONE', #148, #59, #17 ) ;
#199 = PERSON_AND_ORGANIZATION ( #74, #42 ) ;
#200 = COORDINATED_UNIVERSAL_TIME_OFFSET ( 1, 0, .AHEAD. ) ;
#201 = EDGE_CURVE ( 'NONE', #159, #159, #45, .T. ) ;
#202 = LOCAL_TIME ( 9, 34, 2.000000000000000000, #200 ) ;
#203 = AXIS2_PLACEMENT_3D ( 'NONE', #143, #109, #97 ) ;
ENDSEC;
END-ISO-10303-21;
