ISO-10303-21;
HEADER;
FILE_DESCRIPTION (( 'STEP AP203' ),
    '1' );
FILE_NAME ('54631.STEP',
    '2021-10-05T07:34:25',
    ( '' ),
    ( '' ),
    'SwSTEP 2.0',
    'SolidWorks 2019',
    '' );
FILE_SCHEMA (( 'CONFIG_CONTROL_DESIGN' ));
ENDSEC;

DATA;
#1 = APPROVAL_DATE_TIME ( #131, #148 ) ;
#2 = COORDINATED_UNIVERSAL_TIME_OFFSET ( 1, 0, .AHEAD. ) ;
#3 = UNCERTAINTY_MEASURE_WITH_UNIT (LENGTH_MEASURE( 1.000000000000000082E-05 ), #121, 'distance_accuracy_value', 'NONE');
#4 = CALENDAR_DATE ( 2021, 5, 10 ) ;
#5 = EDGE_CURVE ( 'NONE', #153, #153, #10, .T. ) ;
#6 = LOCAL_TIME ( 9, 34, 25.00000000000000000, #128 ) ;
#7 = EDGE_LOOP ( 'NONE', ( #58 ) ) ;
#8 = CARTESIAN_POINT ( 'NONE',  ( 8.728703347107833388E-14, 2.812049592490973436E-32, 25.00000000000000000 ) ) ;
#9 = EDGE_CURVE ( 'NONE', #51, #51, #81, .T. ) ;
#10 = CIRCLE ( 'NONE', #20, 3.749999999999999556 ) ;
#11 = DIRECTION ( 'NONE',  ( 3.491481338843133355E-15, -1.224646799147353207E-16, 1.000000000000000000 ) ) ;
#12 = CARTESIAN_POINT ( 'NONE',  ( 7.867101144676792023E-15, -2.759407626846769369E-16, 2.253227321353370005 ) ) ;
#13 = PRODUCT ( '54631', '54631', '', ( #122 ) ) ;
#14 = COORDINATED_UNIVERSAL_TIME_OFFSET ( 1, 0, .AHEAD. ) ;
#15 = CLOSED_SHELL ( 'NONE', ( #67, #47, #70 ) ) ;
#16 = FACE_OUTER_BOUND ( 'NONE', #24, .T. ) ;
#17 = DIRECTION ( 'NONE',  ( 0.0000000000000000000, 1.000000000000000000, 0.0000000000000000000 ) ) ;
#18 = ORIENTED_EDGE ( 'NONE', *, *, #160, .F. ) ;
#19 = APPROVAL_ROLE ( '' ) ;
#20 = AXIS2_PLACEMENT_3D ( 'NONE', #75, #60, #101 ) ;
#21 = DIRECTION ( 'NONE',  ( -3.491481338843133355E-15, 1.224646799147353207E-16, -1.000000000000000000 ) ) ;
#22 = SHAPE_DEFINITION_REPRESENTATION ( #91, #45 ) ;
#23 = CC_DESIGN_PERSON_AND_ORGANIZATION_ASSIGNMENT ( #147, #114, ( #182 ) ) ;
#24 = EDGE_LOOP ( 'NONE', ( #18 ) ) ;
#25 = ORIENTED_EDGE ( 'NONE', *, *, #5, .T. ) ;
#26 = LOCAL_TIME ( 9, 34, 25.00000000000000000, #14 ) ;
#27 = PLANE ( 'NONE',  #165 ) ;
#28 = CARTESIAN_POINT ( 'NONE',  ( 8.728703347107833388E-14, 2.812049592490973436E-32, 25.00000000000000000 ) ) ;
#29 = DIRECTION ( 'NONE',  ( -3.491481338843133355E-15, 1.224646799147353207E-16, -1.000000000000000000 ) ) ;
#30 = CONICAL_SURFACE ( 'NONE', #89, 3.749999999999990674, 1.029744258676649649 ) ;
#31 = APPROVAL_ROLE ( '' ) ;
#32 = ORIENTED_EDGE ( 'NONE', *, *, #113, .F. ) ;
#33 = MANIFOLD_SOLID_BREP ( 'Corps-Déplacer/Copier1[1]', #95 ) ;
#34 = ADVANCED_FACE ( 'NONE', ( #65 ), #178, .F. ) ;
#35 = CC_DESIGN_APPROVAL ( #48, ( #182 ) ) ;
#36 = DIRECTION ( 'NONE',  ( -3.491481338843133355E-15, 1.224646799147353207E-16, -1.000000000000000000 ) ) ;
#37 = CALENDAR_DATE ( 2021, 5, 10 ) ;
#38 = VERTEX_POINT ( 'NONE', #137 ) ;
#39 = COORDINATED_UNIVERSAL_TIME_OFFSET ( 1, 0, .AHEAD. ) ;
#40 = DATE_AND_TIME ( #188, #157 ) ;
#41 = DATE_AND_TIME ( #63, #176 ) ;
#42 = DATE_TIME_ROLE ( 'creation_date' ) ;
#43 = AXIS2_PLACEMENT_3D ( 'NONE', #154, #166, #198 ) ;
#44 = FACE_OUTER_BOUND ( 'NONE', #152, .T. ) ;
#45 = ADVANCED_BREP_SHAPE_REPRESENTATION ( '54631', ( #33, #100, #77 ), #133 ) ;
#46 = FACE_OUTER_BOUND ( 'NONE', #62, .T. ) ;
#47 = ADVANCED_FACE ( 'NONE', ( #136, #46 ), #150, .T. ) ;
#48 = APPROVAL ( #61, 'UNSPECIFIED' ) ;
#49 = FACE_OUTER_BOUND ( 'NONE', #174, .T. ) ;
#50 = APPROVAL_PERSON_ORGANIZATION ( #159, #48, #19 ) ;
#51 = VERTEX_POINT ( 'NONE', #170 ) ;
#52 = CC_DESIGN_DATE_AND_TIME_ASSIGNMENT ( #41, #42, ( #56 ) ) ;
#53 = CARTESIAN_POINT ( 'NONE',  ( 8.728703347107833388E-14, 3.749999999999990230, 25.00000000000000000 ) ) ;
#54 =( NAMED_UNIT ( * ) SI_UNIT ( $, .STERADIAN. ) SOLID_ANGLE_UNIT ( ) );
#55 = CARTESIAN_POINT ( 'NONE',  ( 0.0000000000000000000, 0.0000000000000000000, 0.0000000000000000000 ) ) ;
#56 = PRODUCT_DEFINITION ( 'UNKNOWN', '', #118, #189 ) ;
#57 = CARTESIAN_POINT ( 'NONE',  ( 7.867101144676792023E-15, -2.759407626846769369E-16, 2.253227321353370005 ) ) ;
#58 = ORIENTED_EDGE ( 'NONE', *, *, #191, .F. ) ;
#59 = CC_DESIGN_SECURITY_CLASSIFICATION ( #182, ( #118 ) ) ;
#60 = DIRECTION ( 'NONE',  ( -3.491481338843133355E-15, 1.224646799147353207E-16, -1.000000000000000000 ) ) ;
#61 = APPROVAL_STATUS ( 'not_yet_approved' ) ;
#62 = EDGE_LOOP ( 'NONE', ( #169 ) ) ;
#63 = CALENDAR_DATE ( 2021, 5, 10 ) ;
#64 = CC_DESIGN_APPROVAL ( #148, ( #118 ) ) ;
#65 = FACE_OUTER_BOUND ( 'NONE', #194, .T. ) ;
#66 = CIRCLE ( 'NONE', #88, 2.949999999999999289 ) ;
#67 = ADVANCED_FACE ( 'NONE', ( #162 ), #30, .T. ) ;
#68 = DIRECTION ( 'NONE',  ( 4.275831445896958607E-31, 1.000000000000000000, 1.224646799147353207E-16 ) ) ;
#69 = VERTEX_POINT ( 'NONE', #53 ) ;
#70 = ADVANCED_FACE ( 'NONE', ( #44 ), #161, .T. ) ;
#71 = CC_DESIGN_PERSON_AND_ORGANIZATION_ASSIGNMENT ( #173, #190, ( #118 ) ) ;
#72 = DATE_AND_TIME ( #37, #26 ) ;
#73 = ORIENTED_EDGE ( 'NONE', *, *, #191, .T. ) ;
#74 = APPROVAL_DATE_TIME ( #144, #48 ) ;
#75 = CARTESIAN_POINT ( 'NONE',  ( 2.555764340033173364E-13, -8.964414569758626729E-15, 73.20000000000000284 ) ) ;
#76 = ORIENTED_EDGE ( 'NONE', *, *, #113, .T. ) ;
#77 = AXIS2_PLACEMENT_3D ( 'NONE', #55, #140, #92 ) ;
#78 = DIRECTION ( 'NONE',  ( 0.0000000000000000000, 1.000000000000000000, 0.0000000000000000000 ) ) ;
#79 = DIRECTION ( 'NONE',  ( -4.108650548026113079E-31, -1.000000000000000000, -1.156482317317874190E-16 ) ) ;
#80 = CARTESIAN_POINT ( 'NONE',  ( 2.555764340033173364E-13, 3.749999999999990230, 73.20000000000000284 ) ) ;
#81 = CIRCLE ( 'NONE', #135, 3.749999999999993339 ) ;
#82 = DIRECTION ( 'NONE',  ( -3.491481338843133355E-15, 1.224646799147353207E-16, -1.000000000000000000 ) ) ;
#83 = APPLICATION_CONTEXT ( 'configuration controlled 3d designs of mechanical parts and assemblies' ) ;
#84 = APPLICATION_PROTOCOL_DEFINITION ( 'international standard', 'config_control_design', 1994, #203 ) ;
#85 = AXIS2_PLACEMENT_3D ( 'NONE', #180, #29, #68 ) ;
#86 = SECURITY_CLASSIFICATION_LEVEL ( 'unclassified' ) ;
#87 = PERSON_AND_ORGANIZATION ( #156, #179 ) ;
#88 = AXIS2_PLACEMENT_3D ( 'NONE', #181, #195, #78 ) ;
#89 = AXIS2_PLACEMENT_3D ( 'NONE', #12, #11, #79 ) ;
#90 = DIRECTION ( 'NONE',  ( 4.275831445896958607E-31, 1.000000000000000000, 1.224646799147352961E-16 ) ) ;
#91 = PRODUCT_DEFINITION_SHAPE ( 'NONE', 'NONE',  #56 ) ;
#92 = DIRECTION ( 'NONE',  ( 1.000000000000000000, 0.0000000000000000000, 0.0000000000000000000 ) ) ;
#93 = EDGE_LOOP ( 'NONE', ( #143 ) ) ;
#94 = DIRECTION ( 'NONE',  ( -4.275831445896958607E-31, -1.000000000000000000, -1.224646799147353207E-16 ) ) ;
#95 = CLOSED_SHELL ( 'NONE', ( #119, #183, #167, #34 ) ) ;
#96 = DIRECTION ( 'NONE',  ( 4.108650548026113079E-31, 1.000000000000000000, 1.156482317317874190E-16 ) ) ;
#97 = PERSON_AND_ORGANIZATION ( #156, #179 ) ;
#98 = APPROVAL_PERSON_ORGANIZATION ( #142, #117, #31 ) ;
#99 = PRODUCT_RELATED_PRODUCT_CATEGORY ( 'detail', '', ( #13 ) ) ;
#100 = MANIFOLD_SOLID_BREP ( 'Corps-Déplacer/Copier1[2]', #15 ) ;
#101 = DIRECTION ( 'NONE',  ( 0.0000000000000000000, 1.000000000000000000, 0.0000000000000000000 ) ) ;
#102 = PERSON_AND_ORGANIZATION ( #156, #179 ) ;
#103 = DIRECTION ( 'NONE',  ( 0.0000000000000000000, 1.000000000000000000, 0.0000000000000000000 ) ) ;
#104 = CARTESIAN_POINT ( 'NONE',  ( 0.0000000000000000000, 0.0000000000000000000, 0.0000000000000000000 ) ) ;
#105 = DIRECTION ( 'NONE',  ( 4.275831445896958607E-31, 1.000000000000000000, 1.224646799147353207E-16 ) ) ;
#106 = FACE_BOUND ( 'NONE', #126, .T. ) ;
#107 = CARTESIAN_POINT ( 'NONE',  ( 2.583696190743918430E-13, -9.062386313690413585E-15, 74.00000000000000000 ) ) ;
#108 = CONICAL_SURFACE ( 'NONE', #193, 2.949999999999999289, 0.7853981633974512766 ) ;
#109 = FACE_OUTER_BOUND ( 'NONE', #93, .T. ) ;
#110 = FACE_OUTER_BOUND ( 'NONE', #123, .T. ) ;
#111 = DATE_TIME_ROLE ( 'classification_date' ) ;
#112 = CALENDAR_DATE ( 2021, 5, 10 ) ;
#113 = EDGE_CURVE ( 'NONE', #38, #38, #66, .T. ) ;
#114 = PERSON_AND_ORGANIZATION_ROLE ( 'classification_officer' ) ;
#115 = LOCAL_TIME ( 9, 34, 25.00000000000000000, #39 ) ;
#116 = APPROVAL_ROLE ( '' ) ;
#117 = APPROVAL ( #202, 'UNSPECIFIED' ) ;
#118 = PRODUCT_DEFINITION_FORMATION_WITH_SPECIFIED_SOURCE ( 'ANY', '', #13, .NOT_KNOWN. ) ;
#119 = ADVANCED_FACE ( 'NONE', ( #49 ), #27, .F. ) ;
#120 = DIRECTION ( 'NONE',  ( 3.491481338843133355E-15, -1.224646799147353207E-16, 1.000000000000000000 ) ) ;
#121 =( LENGTH_UNIT ( ) NAMED_UNIT ( * ) SI_UNIT ( .MILLI., .METRE. ) );
#122 = MECHANICAL_CONTEXT ( 'NONE', #83, 'mechanical' ) ;
#123 = EDGE_LOOP ( 'NONE', ( #25 ) ) ;
#124 = APPROVAL_DATE_TIME ( #72, #117 ) ;
#125 = CC_DESIGN_PERSON_AND_ORGANIZATION_ASSIGNMENT ( #155, #145, ( #56 ) ) ;
#126 = EDGE_LOOP ( 'NONE', ( #76 ) ) ;
#127 = CC_DESIGN_PERSON_AND_ORGANIZATION_ASSIGNMENT ( #87, #187, ( #118 ) ) ;
#128 = COORDINATED_UNIVERSAL_TIME_OFFSET ( 1, 0, .AHEAD. ) ;
#129 = APPROVAL_STATUS ( 'not_yet_approved' ) ;
#130 = CC_DESIGN_PERSON_AND_ORGANIZATION_ASSIGNMENT ( #97, #168, ( #13 ) ) ;
#131 = DATE_AND_TIME ( #4, #115 ) ;
#132 = ORIENTED_EDGE ( 'NONE', *, *, #160, .T. ) ;
#133 =( GEOMETRIC_REPRESENTATION_CONTEXT ( 3 ) GLOBAL_UNCERTAINTY_ASSIGNED_CONTEXT ( ( #3 ) ) GLOBAL_UNIT_ASSIGNED_CONTEXT ( ( #121, #196, #54 ) ) REPRESENTATION_CONTEXT ( 'NONE', 'WORKASPACE' ) );
#134 = AXIS2_PLACEMENT_3D ( 'NONE', #104, #149, #90 ) ;
#135 = AXIS2_PLACEMENT_3D ( 'NONE', #171, #21, #103 ) ;
#136 = FACE_OUTER_BOUND ( 'NONE', #7, .T. ) ;
#137 = CARTESIAN_POINT ( 'NONE',  ( 2.583696190743918430E-13, 2.949999999999990408, 74.00000000000000000 ) ) ;
#138 = APPROVAL_PERSON_ORGANIZATION ( #102, #148, #116 ) ;
#139 = DIRECTION ( 'NONE',  ( -3.491481338843133355E-15, 1.224646799147353207E-16, -1.000000000000000000 ) ) ;
#140 = DIRECTION ( 'NONE',  ( 0.0000000000000000000, 0.0000000000000000000, 1.000000000000000000 ) ) ;
#141 = CIRCLE ( 'NONE', #197, 3.749999999999990674 ) ;
#142 = PERSON_AND_ORGANIZATION ( #156, #179 ) ;
#143 = ORIENTED_EDGE ( 'NONE', *, *, #5, .F. ) ;
#144 = DATE_AND_TIME ( #112, #6 ) ;
#145 = PERSON_AND_ORGANIZATION_ROLE ( 'creator' ) ;
#146 = AXIS2_PLACEMENT_3D ( 'NONE', #186, #36, #105 ) ;
#147 = PERSON_AND_ORGANIZATION ( #156, #179 ) ;
#148 = APPROVAL ( #129, 'UNSPECIFIED' ) ;
#149 = DIRECTION ( 'NONE',  ( -3.491481338843133355E-15, 1.224646799147353207E-16, -1.000000000000000000 ) ) ;
#150 = CYLINDRICAL_SURFACE ( 'NONE', #134, 3.749999999999992006 ) ;
#151 = DIRECTION ( 'NONE',  ( 3.491481338843133355E-15, -1.224646799147353207E-16, 1.000000000000000000 ) ) ;
#152 = EDGE_LOOP ( 'NONE', ( #192 ) ) ;
#153 = VERTEX_POINT ( 'NONE', #80 ) ;
#154 = CARTESIAN_POINT ( 'NONE',  ( 8.728703347107833388E-14, -3.061616997868383043E-15, 25.00000000000000000 ) ) ;
#155 = PERSON_AND_ORGANIZATION ( #156, #179 ) ;
#156 = PERSON ( 'UNSPECIFIED', 'UNSPECIFIED', 'UNSPECIFIED', ('UNSPECIFIED'), ('UNSPECIFIED'), ('UNSPECIFIED') ) ;
#157 = LOCAL_TIME ( 9, 34, 25.00000000000000000, #175 ) ;
#158 = EDGE_LOOP ( 'NONE', ( #73 ) ) ;
#159 = PERSON_AND_ORGANIZATION ( #156, #179 ) ;
#160 = EDGE_CURVE ( 'NONE', #69, #69, #172, .T. ) ;
#161 = PLANE ( 'NONE',  #201 ) ;
#162 = FACE_OUTER_BOUND ( 'NONE', #158, .T. ) ;
#163 = CARTESIAN_POINT ( 'NONE',  ( 7.867101144676793601E-15, 3.749999999999990230, 2.253227321353370449 ) ) ;
#164 = VERTEX_POINT ( 'NONE', #163 ) ;
#165 = AXIS2_PLACEMENT_3D ( 'NONE', #8, #151, #94 ) ;
#166 = DIRECTION ( 'NONE',  ( -3.491481338843133355E-15, 1.224646799147353207E-16, -1.000000000000000000 ) ) ;
#167 = ADVANCED_FACE ( 'NONE', ( #109, #106 ), #108, .T. ) ;
#168 = PERSON_AND_ORGANIZATION_ROLE ( 'design_owner' ) ;
#169 = ORIENTED_EDGE ( 'NONE', *, *, #9, .T. ) ;
#170 = CARTESIAN_POINT ( 'NONE',  ( 8.728703347107833388E-14, 3.749999999999990230, 25.00000000000000000 ) ) ;
#171 = CARTESIAN_POINT ( 'NONE',  ( 8.728703347107833388E-14, -3.061616997868383043E-15, 25.00000000000000000 ) ) ;
#172 = CIRCLE ( 'NONE', #43, 3.749999999999993339 ) ;
#173 = PERSON_AND_ORGANIZATION ( #156, #179 ) ;
#174 = EDGE_LOOP ( 'NONE', ( #132 ) ) ;
#175 = COORDINATED_UNIVERSAL_TIME_OFFSET ( 1, 0, .AHEAD. ) ;
#176 = LOCAL_TIME ( 9, 34, 25.00000000000000000, #2 ) ;
#177 = DIRECTION ( 'NONE',  ( -4.275831445896958607E-31, -1.000000000000000000, -1.224646799147353207E-16 ) ) ;
#178 = PLANE ( 'NONE',  #85 ) ;
#179 = ORGANIZATION ( 'UNSPECIFIED', 'UNSPECIFIED', '' ) ;
#180 = CARTESIAN_POINT ( 'NONE',  ( 2.583696190743918430E-13, 2.212145679426226013E-32, 74.00000000000000000 ) ) ;
#181 = CARTESIAN_POINT ( 'NONE',  ( 2.583696190743918430E-13, -9.062386313690413585E-15, 74.00000000000000000 ) ) ;
#182 = SECURITY_CLASSIFICATION ( '', '', #86 ) ;
#183 = ADVANCED_FACE ( 'NONE', ( #16, #110 ), #184, .T. ) ;
#184 = CYLINDRICAL_SURFACE ( 'NONE', #146, 3.749999999999996447 ) ;
#185 = CC_DESIGN_APPROVAL ( #117, ( #56 ) ) ;
#186 = CARTESIAN_POINT ( 'NONE',  ( 0.0000000000000000000, 0.0000000000000000000, 0.0000000000000000000 ) ) ;
#187 = PERSON_AND_ORGANIZATION_ROLE ( 'creator' ) ;
#188 = CALENDAR_DATE ( 2021, 5, 10 ) ;
#189 = DESIGN_CONTEXT ( 'detailed design', #203, 'design' ) ;
#190 = PERSON_AND_ORGANIZATION_ROLE ( 'design_supplier' ) ;
#191 = EDGE_CURVE ( 'NONE', #164, #164, #141, .T. ) ;
#192 = ORIENTED_EDGE ( 'NONE', *, *, #9, .F. ) ;
#193 = AXIS2_PLACEMENT_3D ( 'NONE', #107, #139, #17 ) ;
#194 = EDGE_LOOP ( 'NONE', ( #32 ) ) ;
#195 = DIRECTION ( 'NONE',  ( -3.491481338843133355E-15, 1.224646799147353207E-16, -1.000000000000000000 ) ) ;
#196 =( NAMED_UNIT ( * ) PLANE_ANGLE_UNIT ( ) SI_UNIT ( $, .RADIAN. ) );
#197 = AXIS2_PLACEMENT_3D ( 'NONE', #57, #82, #96 ) ;
#198 = DIRECTION ( 'NONE',  ( 0.0000000000000000000, 1.000000000000000000, 0.0000000000000000000 ) ) ;
#199 = APPLICATION_PROTOCOL_DEFINITION ( 'international standard', 'config_control_design', 1994, #83 ) ;
#200 = CC_DESIGN_DATE_AND_TIME_ASSIGNMENT ( #40, #111, ( #182 ) ) ;
#201 = AXIS2_PLACEMENT_3D ( 'NONE', #28, #120, #177 ) ;
#202 = APPROVAL_STATUS ( 'not_yet_approved' ) ;
#203 = APPLICATION_CONTEXT ( 'configuration controlled 3d designs of mechanical parts and assemblies' ) ;
ENDSEC;
END-ISO-10303-21;
