ISO-10303-21;
HEADER;
FILE_DESCRIPTION (( 'STEP AP203' ),
    '1' );
FILE_NAME ('54629.step',
    '2021-09-03T07:53:28',
    ( '' ),
    ( '' ),
    'SwSTEP 2.0',
    'SolidWorks 2019',
    '' );
FILE_SCHEMA (( 'CONFIG_CONTROL_DESIGN' ));
ENDSEC;

DATA;
#1 = CIRCLE ( 'NONE', #98, 3.649999999999995026 ) ;
#2 = PLANE ( 'NONE',  #23 ) ;
#3 = FACE_OUTER_BOUND ( 'NONE', #291, .T. ) ;
#4 = DIRECTION ( 'NONE',  ( 4.275831445896958607E-31, 1.000000000000000000, 1.224646799147352961E-16 ) ) ;
#5 = CLOSED_SHELL ( 'NONE', ( #116, #84, #188, #261, #335, #333 ) ) ;
#6 = CONICAL_SURFACE ( 'NONE', #110, 2.849999999999994760, 0.7853981633974512766 ) ;
#7 = CARTESIAN_POINT ( 'NONE',  ( 7.657311780818733739E-15, -2.685823423464185342E-16, 2.193141259450610558 ) ) ;
#8 = CARTESIAN_POINT ( 'NONE',  ( 2.583696190743918430E-13, -9.062386313690413585E-15, 74.00000000000000000 ) ) ;
#9 = ORIENTED_EDGE ( 'NONE', *, *, #212, .T. ) ;
#10 = APPROVAL_DATE_TIME ( #211, #62 ) ;
#11 = CARTESIAN_POINT ( 'NONE',  ( 4.469960816887808847E-16, -3.649999999999987477, -4.469960816887839416E-16 ) ) ;
#12 = VECTOR ( 'NONE', #109, 1000.000000000000114 ) ;
#13 = CC_DESIGN_SECURITY_CLASSIFICATION ( #297, ( #148 ) ) ;
#14 = VERTEX_POINT ( 'NONE', #336 ) ;
#15 = DIRECTION ( 'NONE',  ( -3.491481338843133355E-15, 1.224646799147353207E-16, -1.000000000000000000 ) ) ;
#16 = ORIENTED_EDGE ( 'NONE', *, *, #230, .T. ) ;
#17 = PLANE ( 'NONE',  #134 ) ;
#18 = CYLINDRICAL_SURFACE ( 'NONE', #304, 3.649999999999991918 ) ;
#19 = ORIENTED_EDGE ( 'NONE', *, *, #199, .T. ) ;
#20 = AXIS2_PLACEMENT_3D ( 'NONE', #208, #316, #277 ) ;
#21 = APPROVAL_STATUS ( 'not_yet_approved' ) ;
#22 = PERSON_AND_ORGANIZATION ( #192, #137 ) ;
#23 = AXIS2_PLACEMENT_3D ( 'NONE', #132, #255, #108 ) ;
#24 = APPROVAL_DATE_TIME ( #272, #303 ) ;
#25 = DIRECTION ( 'NONE',  ( -3.491481338843133355E-15, 1.224646799147353207E-16, -1.000000000000000000 ) ) ;
#26 = DIRECTION ( 'NONE',  ( 0.0000000000000000000, 1.000000000000000000, 0.0000000000000000000 ) ) ;
#27 = CARTESIAN_POINT ( 'NONE',  ( 8.728703347107833388E-14, -3.061616997868383043E-15, 25.00000000000000000 ) ) ;
#28 = APPLICATION_CONTEXT ( 'configuration controlled 3d designs of mechanical parts and assemblies' ) ;
#29 = CC_DESIGN_DATE_AND_TIME_ASSIGNMENT ( #37, #247, ( #287 ) ) ;
#30 = CONICAL_SURFACE ( 'NONE', #20, 3.649999999999986144, 1.029744258676649649 ) ;
#31 = DIRECTION ( 'NONE',  ( -4.275831445896958607E-31, -1.000000000000000000, -1.224646799147353207E-16 ) ) ;
#32 = CARTESIAN_POINT ( 'NONE',  ( 7.657311780818733739E-15, -2.685823423464185342E-16, 2.193141259450610558 ) ) ;
#33 = ORIENTED_EDGE ( 'NONE', *, *, #140, .F. ) ;
#34 = CARTESIAN_POINT ( 'NONE',  ( 2.587186434121488799E-13, -2.850000000000004086, 74.00000000000000000 ) ) ;
#35 = VECTOR ( 'NONE', #65, 1000.000000000000000 ) ;
#36 = APPROVAL_STATUS ( 'not_yet_approved' ) ;
#37 = DATE_AND_TIME ( #262, #181 ) ;
#38 = CC_DESIGN_PERSON_AND_ORGANIZATION_ASSIGNMENT ( #120, #246, ( #297 ) ) ;
#39 = VECTOR ( 'NONE', #133, 999.9999999999998863 ) ;
#40 = LINE ( 'NONE', #141, #106 ) ;
#41 =( NAMED_UNIT ( * ) SI_UNIT ( $, .STERADIAN. ) SOLID_ANGLE_UNIT ( ) );
#42 = EDGE_LOOP ( 'NONE', ( #33, #240, #19, #117 ) ) ;
#43 = ORIENTED_EDGE ( 'NONE', *, *, #234, .F. ) ;
#44 = DATE_AND_TIME ( #100, #270 ) ;
#45 = AXIS2_PLACEMENT_3D ( 'NONE', #7, #178, #205 ) ;
#46 = LOCAL_TIME ( 9, 53, 28.00000000000000000, #167 ) ;
#47 = APPROVAL_ROLE ( '' ) ;
#48 = PRODUCT_DEFINITION_SHAPE ( 'NONE', 'NONE',  #287 ) ;
#49 = EDGE_CURVE ( 'NONE', #275, #273, #244, .T. ) ;
#50 = ORIENTED_EDGE ( 'NONE', *, *, #300, .F. ) ;
#51 = CIRCLE ( 'NONE', #227, 3.649999999999988809 ) ;
#52 = ORIENTED_EDGE ( 'NONE', *, *, #234, .T. ) ;
#53 = DIRECTION ( 'NONE',  ( 0.0000000000000000000, 1.000000000000000000, 0.0000000000000000000 ) ) ;
#54 = DIRECTION ( 'NONE',  ( -3.491481338843133355E-15, 1.224646799147353207E-16, -1.000000000000000000 ) ) ;
#55 = DIRECTION ( 'NONE',  ( -4.221216316465190249E-31, -1.000000000000000000, -1.188166764367680533E-16 ) ) ;
#56 = CARTESIAN_POINT ( 'NONE',  ( 8.728703347107833388E-14, -3.061616997868383043E-15, 25.00000000000000000 ) ) ;
#57 = CARTESIAN_POINT ( 'NONE',  ( 0.0000000000000000000, 0.0000000000000000000, 0.0000000000000000000 ) ) ;
#58 = ORIENTED_EDGE ( 'NONE', *, *, #322, .T. ) ;
#59 = CONICAL_SURFACE ( 'NONE', #185, 2.849999999999994760, 0.7853981633974512766 ) ;
#60 = PERSON_AND_ORGANIZATION_ROLE ( 'design_owner' ) ;
#61 = COORDINATED_UNIVERSAL_TIME_OFFSET ( 1, 0, .AHEAD. ) ;
#62 = APPROVAL ( #36, 'UNSPECIFIED' ) ;
#63 = DIRECTION ( 'NONE',  ( -3.491481338843133355E-15, 1.224646799147353207E-16, -1.000000000000000000 ) ) ;
#64 = ORIENTED_EDGE ( 'NONE', *, *, #165, .T. ) ;
#65 = DIRECTION ( 'NONE',  ( -3.491481338843133355E-15, 1.224646799147353207E-16, -1.000000000000000000 ) ) ;
#66 = APPROVAL_PERSON_ORGANIZATION ( #260, #62, #92 ) ;
#67 = DIRECTION ( 'NONE',  ( 4.275831445896958607E-31, 1.000000000000000000, 1.224646799147353207E-16 ) ) ;
#68 = PERSON_AND_ORGANIZATION_ROLE ( 'design_supplier' ) ;
#69 = APPROVAL ( #21, 'UNSPECIFIED' ) ;
#70 = DIRECTION ( 'NONE',  ( -3.491481338843133355E-15, 1.224646799147353207E-16, -1.000000000000000000 ) ) ;
#71 = DATE_TIME_ROLE ( 'classification_date' ) ;
#72 = VECTOR ( 'NONE', #283, 1000.000000000000114 ) ;
#73 = PERSON_AND_ORGANIZATION_ROLE ( 'creator' ) ;
#74 = CARTESIAN_POINT ( 'NONE',  ( 2.583696190743918430E-13, -9.062386313690413585E-15, 74.00000000000000000 ) ) ;
#75 = ORIENTED_EDGE ( 'NONE', *, *, #315, .T. ) ;
#76 = CARTESIAN_POINT ( 'NONE',  ( 2.555764340033173364E-13, -8.964414569758626729E-15, 73.20000000000000284 ) ) ;
#77 = EDGE_CURVE ( 'NONE', #210, #323, #305, .T. ) ;
#78 = PRODUCT ( '54629', '54629', '', ( #293 ) ) ;
#79 = CARTESIAN_POINT ( 'NONE',  ( 1.718787298188864821E-13, -3.650000000000003464, 73.20000000000000284 ) ) ;
#80 = LINE ( 'NONE', #111, #12 ) ;
#81 = APPROVAL_PERSON_ORGANIZATION ( #302, #303, #269 ) ;
#82 = CYLINDRICAL_SURFACE ( 'NONE', #296, 3.649999999999991918 ) ;
#83 = ORIENTED_EDGE ( 'NONE', *, *, #177, .F. ) ;
#84 = ADVANCED_FACE ( 'NONE', ( #166 ), #18, .T. ) ;
#85 = CARTESIAN_POINT ( 'NONE',  ( 2.583696190743918430E-13, 2.849999999999985878, 74.00000000000000000 ) ) ;
#86 = VERTEX_POINT ( 'NONE', #215 ) ;
#87 = VERTEX_POINT ( 'NONE', #301 ) ;
#88 = CIRCLE ( 'NONE', #114, 3.649999999999988809 ) ;
#89 = CARTESIAN_POINT ( 'NONE',  ( 7.657311780818732161E-15, -3.649999999999986589, 2.193141259450610114 ) ) ;
#90 = CC_DESIGN_APPROVAL ( #69, ( #297 ) ) ;
#91 = EDGE_LOOP ( 'NONE', ( #281, #268 ) ) ;
#92 = APPROVAL_ROLE ( '' ) ;
#93 = CARTESIAN_POINT ( 'NONE',  ( 2.583696190743918430E-13, -9.062386313690413585E-15, 74.00000000000000000 ) ) ;
#94 = CARTESIAN_POINT ( 'NONE',  ( 1.560678477752384488E-30, 3.649999999999987477, 4.469960816887823639E-16 ) ) ;
#95 = UNCERTAINTY_MEASURE_WITH_UNIT (LENGTH_MEASURE( 1.000000000000000082E-05 ), #136, 'distance_accuracy_value', 'NONE');
#96 = FACE_OUTER_BOUND ( 'NONE', #221, .T. ) ;
#97 = CARTESIAN_POINT ( 'NONE',  ( 8.728703347107833388E-14, 3.649999999999985700, 25.00000000000000000 ) ) ;
#98 = AXIS2_PLACEMENT_3D ( 'NONE', #76, #153, #226 ) ;
#99 = ORIENTED_EDGE ( 'NONE', *, *, #286, .F. ) ;
#100 = CALENDAR_DATE ( 2021, 3, 9 ) ;
#101 = EDGE_LOOP ( 'NONE', ( #259, #75, #16 ) ) ;
#102 = PERSON_AND_ORGANIZATION ( #192, #137 ) ;
#103 =( GEOMETRIC_REPRESENTATION_CONTEXT ( 3 ) GLOBAL_UNCERTAINTY_ASSIGNED_CONTEXT ( ( #95 ) ) GLOBAL_UNIT_ASSIGNED_CONTEXT ( ( #136, #209, #41 ) ) REPRESENTATION_CONTEXT ( 'NONE', 'WORKASPACE' ) );
#104 = EDGE_LOOP ( 'NONE', ( #122, #149 ) ) ;
#105 = DIRECTION ( 'NONE',  ( 3.491481338843133355E-15, -1.224646799147353207E-16, 1.000000000000000000 ) ) ;
#106 = VECTOR ( 'NONE', #70, 1000.000000000000000 ) ;
#107 = LINE ( 'NONE', #183, #213 ) ;
#108 = DIRECTION ( 'NONE',  ( -4.275831445896958607E-31, -1.000000000000000000, -1.224646799147353207E-16 ) ) ;
#109 = DIRECTION ( 'NONE',  ( -2.468850131082257455E-15, 0.7071067811865497932, -0.7071067811865453523 ) ) ;
#110 = AXIS2_PLACEMENT_3D ( 'NONE', #8, #327, #263 ) ;
#111 = CARTESIAN_POINT ( 'NONE',  ( 2.583696190743918430E-13, 2.849999999999985878, 74.00000000000000000 ) ) ;
#112 = ORIENTED_EDGE ( 'NONE', *, *, #49, .T. ) ;
#113 = PERSON_AND_ORGANIZATION ( #192, #137 ) ;
#114 = AXIS2_PLACEMENT_3D ( 'NONE', #27, #128, #224 ) ;
#115 = ORIENTED_EDGE ( 'NONE', *, *, #298, .T. ) ;
#116 = ADVANCED_FACE ( 'NONE', ( #243 ), #59, .T. ) ;
#117 = ORIENTED_EDGE ( 'NONE', *, *, #292, .F. ) ;
#118 = DIRECTION ( 'NONE',  ( 4.275831445896958607E-31, 1.000000000000000000, 1.224646799147353207E-16 ) ) ;
#119 = ORIENTED_EDGE ( 'NONE', *, *, #322, .F. ) ;
#120 = PERSON_AND_ORGANIZATION ( #192, #137 ) ;
#121 = CIRCLE ( 'NONE', #197, 3.649999999999988809 ) ;
#122 = ORIENTED_EDGE ( 'NONE', *, *, #173, .F. ) ;
#123 = APPROVAL_STATUS ( 'not_yet_approved' ) ;
#124 = AXIS2_PLACEMENT_3D ( 'NONE', #313, #231, #228 ) ;
#125 = DATE_AND_TIME ( #195, #238 ) ;
#126 = ORIENTED_EDGE ( 'NONE', *, *, #177, .T. ) ;
#127 = ADVANCED_FACE ( 'NONE', ( #96 ), #264, .T. ) ;
#128 = DIRECTION ( 'NONE',  ( -3.491481338843133355E-15, 1.224646799147353207E-16, -1.000000000000000000 ) ) ;
#129 = LINE ( 'NONE', #180, #39 ) ;
#130 = CC_DESIGN_APPROVAL ( #303, ( #148 ) ) ;
#131 = DIRECTION ( 'NONE',  ( -3.491481338843133355E-15, 1.224646799147353207E-16, -1.000000000000000000 ) ) ;
#132 = CARTESIAN_POINT ( 'NONE',  ( 8.728703347107833388E-14, 2.737061603357877271E-32, 25.00000000000000000 ) ) ;
#133 = DIRECTION ( 'NONE',  ( 1.903218546456022717E-15, 0.8571673007021097801, 0.5150380749100585964 ) ) ;
#134 = AXIS2_PLACEMENT_3D ( 'NONE', #324, #63, #118 ) ;
#135 = DIRECTION ( 'NONE',  ( 4.221216316465190249E-31, 1.000000000000000000, 1.188166764367680533E-16 ) ) ;
#136 =( LENGTH_UNIT ( ) NAMED_UNIT ( * ) SI_UNIT ( .MILLI., .METRE. ) );
#137 = ORGANIZATION ( 'UNSPECIFIED', 'UNSPECIFIED', '' ) ;
#138 = VERTEX_POINT ( 'NONE', #164 ) ;
#139 = APPLICATION_PROTOCOL_DEFINITION ( 'international standard', 'config_control_design', 1994, #235 ) ;
#140 = EDGE_CURVE ( 'NONE', #210, #14, #40, .T. ) ;
#141 = CARTESIAN_POINT ( 'NONE',  ( 4.469960816887814764E-16, -3.649999999999991918, -4.469960816887844346E-16 ) ) ;
#142 = ORIENTED_EDGE ( 'NONE', *, *, #140, .T. ) ;
#143 = ADVANCED_FACE ( 'NONE', ( #201 ), #251, .T. ) ;
#144 = CONICAL_SURFACE ( 'NONE', #168, 3.649999999999986144, 1.029744258676649649 ) ;
#145 = CALENDAR_DATE ( 2021, 3, 9 ) ;
#146 = CLOSED_SHELL ( 'NONE', ( #276, #256, #170, #127, #143 ) ) ;
#147 = CARTESIAN_POINT ( 'NONE',  ( 0.0000000000000000000, 0.0000000000000000000, 0.0000000000000000000 ) ) ;
#148 = PRODUCT_DEFINITION_FORMATION_WITH_SPECIFIED_SOURCE ( 'ANY', '', #78, .NOT_KNOWN. ) ;
#149 = ORIENTED_EDGE ( 'NONE', *, *, #330, .F. ) ;
#150 = LINE ( 'NONE', #34, #72 ) ;
#151 = FACE_OUTER_BOUND ( 'NONE', #101, .T. ) ;
#152 = AXIS2_PLACEMENT_3D ( 'NONE', #56, #131, #53 ) ;
#153 = DIRECTION ( 'NONE',  ( -3.491481338843133355E-15, 1.224646799147353207E-16, -1.000000000000000000 ) ) ;
#154 = ORIENTED_EDGE ( 'NONE', *, *, #207, .T. ) ;
#155 = CARTESIAN_POINT ( 'NONE',  ( 2.573710367485774852E-13, -2.850000000000004086, 74.00000000000000000 ) ) ;
#156 = CIRCLE ( 'NONE', #45, 3.649999999999986144 ) ;
#157 = CARTESIAN_POINT ( 'NONE',  ( 0.0000000000000000000, 0.0000000000000000000, 0.0000000000000000000 ) ) ;
#158 = ORIENTED_EDGE ( 'NONE', *, *, #298, .F. ) ;
#159 = PERSON_AND_ORGANIZATION ( #192, #137 ) ;
#160 = DIRECTION ( 'NONE',  ( 1.798245827342160317E-15, -0.8571673007021098911, 0.5150380749100582634 ) ) ;
#161 = DIRECTION ( 'NONE',  ( -3.491481338843133355E-15, 1.224646799147353207E-16, -1.000000000000000000 ) ) ;
#162 = AXIS2_PLACEMENT_3D ( 'NONE', #337, #176, #135 ) ;
#163 = CARTESIAN_POINT ( 'NONE',  ( 8.728703347107833388E-14, -3.061616997868383043E-15, 25.00000000000000000 ) ) ;
#164 = CARTESIAN_POINT ( 'NONE',  ( 0.0000000000000000000, 0.0000000000000000000, 0.0000000000000000000 ) ) ;
#165 = EDGE_CURVE ( 'NONE', #138, #86, #129, .T. ) ;
#166 = FACE_OUTER_BOUND ( 'NONE', #174, .T. ) ;
#167 = COORDINATED_UNIVERSAL_TIME_OFFSET ( 1, 0, .AHEAD. ) ;
#168 = AXIS2_PLACEMENT_3D ( 'NONE', #32, #308, #55 ) ;
#169 = SECURITY_CLASSIFICATION_LEVEL ( 'unclassified' ) ;
#170 = ADVANCED_FACE ( 'NONE', ( #151 ), #144, .T. ) ;
#171 = APPROVAL_DATE_TIME ( #44, #69 ) ;
#172 = DIRECTION ( 'NONE',  ( 0.0000000000000000000, 1.000000000000000000, 0.0000000000000000000 ) ) ;
#173 = EDGE_CURVE ( 'NONE', #319, #87, #190, .T. ) ;
#174 = EDGE_LOOP ( 'NONE', ( #126, #142, #99, #204 ) ) ;
#175 = CIRCLE ( 'NONE', #162, 3.649999999999986144 ) ;
#176 = DIRECTION ( 'NONE',  ( -3.491481338843133355E-15, 1.224646799147353207E-16, -1.000000000000000000 ) ) ;
#177 = EDGE_CURVE ( 'NONE', #323, #210, #1, .T. ) ;
#178 = DIRECTION ( 'NONE',  ( -3.491481338843133355E-15, 1.224646799147353207E-16, -1.000000000000000000 ) ) ;
#179 = CC_DESIGN_PERSON_AND_ORGANIZATION_ASSIGNMENT ( #271, #73, ( #148 ) ) ;
#180 = CARTESIAN_POINT ( 'NONE',  ( 8.104307862507517976E-15, 3.649999999999985700, 2.193141259450611003 ) ) ;
#181 = LOCAL_TIME ( 9, 53, 28.00000000000000000, #61 ) ;
#182 = ORIENTED_EDGE ( 'NONE', *, *, #330, .T. ) ;
#183 = CARTESIAN_POINT ( 'NONE',  ( 1.560678477752386414E-30, 3.649999999999991918, 4.469960816887828569E-16 ) ) ;
#184 = CARTESIAN_POINT ( 'NONE',  ( 8.728703347107833388E-14, 2.737061603357877271E-32, 25.00000000000000000 ) ) ;
#185 = AXIS2_PLACEMENT_3D ( 'NONE', #74, #161, #172 ) ;
#186 = COORDINATED_UNIVERSAL_TIME_OFFSET ( 1, 0, .AHEAD. ) ;
#187 = ORIENTED_EDGE ( 'NONE', *, *, #212, .F. ) ;
#188 = ADVANCED_FACE ( 'NONE', ( #309 ), #2, .F. ) ;
#189 = DIRECTION ( 'NONE',  ( 0.0000000000000000000, 1.000000000000000000, 0.0000000000000000000 ) ) ;
#190 = CIRCLE ( 'NONE', #152, 3.649999999999988809 ) ;
#191 = VERTEX_POINT ( 'NONE', #280 ) ;
#192 = PERSON ( 'UNSPECIFIED', 'UNSPECIFIED', 'UNSPECIFIED', ('UNSPECIFIED'), ('UNSPECIFIED'), ('UNSPECIFIED') ) ;
#193 = PRODUCT_RELATED_PRODUCT_CATEGORY ( 'detail', '', ( #78 ) ) ;
#194 = DIRECTION ( 'NONE',  ( -3.491481338843133355E-15, 1.224646799147353207E-16, -1.000000000000000000 ) ) ;
#195 = CALENDAR_DATE ( 2021, 3, 9 ) ;
#196 = SHAPE_DEFINITION_REPRESENTATION ( #48, #279 ) ;
#197 = AXIS2_PLACEMENT_3D ( 'NONE', #163, #15, #266 ) ;
#198 = EDGE_LOOP ( 'NONE', ( #112, #9, #83, #331 ) ) ;
#199 = EDGE_CURVE ( 'NONE', #323, #306, #107, .T. ) ;
#200 = DIRECTION ( 'NONE',  ( 4.275831445896958607E-31, 1.000000000000000000, 1.224646799147353207E-16 ) ) ;
#201 = FACE_OUTER_BOUND ( 'NONE', #104, .T. ) ;
#202 = CC_DESIGN_PERSON_AND_ORGANIZATION_ASSIGNMENT ( #159, #60, ( #78 ) ) ;
#203 = CARTESIAN_POINT ( 'NONE',  ( 8.728703347107833388E-14, -3.061616997868383043E-15, 25.00000000000000000 ) ) ;
#204 = ORIENTED_EDGE ( 'NONE', *, *, #199, .F. ) ;
#205 = DIRECTION ( 'NONE',  ( 4.221216316465190249E-31, 1.000000000000000000, 1.188166764367680533E-16 ) ) ;
#206 = VECTOR ( 'NONE', #237, 1000.000000000000000 ) ;
#207 = EDGE_CURVE ( 'NONE', #275, #323, #80, .T. ) ;
#208 = CARTESIAN_POINT ( 'NONE',  ( 7.657311780818733739E-15, -2.685823423464185342E-16, 2.193141259450610558 ) ) ;
#209 =( NAMED_UNIT ( * ) PLANE_ANGLE_UNIT ( ) SI_UNIT ( $, .RADIAN. ) );
#210 = VERTEX_POINT ( 'NONE', #79 ) ;
#211 = DATE_AND_TIME ( #290, #312 ) ;
#212 = EDGE_CURVE ( 'NONE', #273, #210, #150, .T. ) ;
#213 = VECTOR ( 'NONE', #310, 1000.000000000000000 ) ;
#214 = FACE_OUTER_BOUND ( 'NONE', #254, .T. ) ;
#215 = CARTESIAN_POINT ( 'NONE',  ( 8.104307862507517976E-15, 3.649999999999985700, 2.193141259450611003 ) ) ;
#216 = CARTESIAN_POINT ( 'NONE',  ( 2.555764340033173364E-13, 3.649999999999985700, 73.20000000000000284 ) ) ;
#217 = DIRECTION ( 'NONE',  ( 4.275831445896958607E-31, 1.000000000000000000, 1.224646799147352961E-16 ) ) ;
#218 = FACE_OUTER_BOUND ( 'NONE', #317, .T. ) ;
#219 = CARTESIAN_POINT ( 'NONE',  ( 2.555764340033173364E-13, -8.964414569758626729E-15, 73.20000000000000284 ) ) ;
#220 = CC_DESIGN_PERSON_AND_ORGANIZATION_ASSIGNMENT ( #102, #68, ( #148 ) ) ;
#221 = EDGE_LOOP ( 'NONE', ( #50, #182, #58, #314 ) ) ;
#222 = COORDINATED_UNIVERSAL_TIME_OFFSET ( 1, 0, .AHEAD. ) ;
#223 = ORIENTED_EDGE ( 'NONE', *, *, #49, .F. ) ;
#224 = DIRECTION ( 'NONE',  ( 0.0000000000000000000, 1.000000000000000000, 0.0000000000000000000 ) ) ;
#225 = CC_DESIGN_PERSON_AND_ORGANIZATION_ASSIGNMENT ( #113, #289, ( #287 ) ) ;
#226 = DIRECTION ( 'NONE',  ( 0.0000000000000000000, 1.000000000000000000, 0.0000000000000000000 ) ) ;
#227 = AXIS2_PLACEMENT_3D ( 'NONE', #203, #249, #26 ) ;
#228 = DIRECTION ( 'NONE',  ( 0.0000000000000000000, 1.000000000000000000, 0.0000000000000000000 ) ) ;
#229 = FACE_OUTER_BOUND ( 'NONE', #42, .T. ) ;
#230 = EDGE_CURVE ( 'NONE', #191, #86, #156, .T. ) ;
#231 = DIRECTION ( 'NONE',  ( -3.491481338843133355E-15, 1.224646799147353207E-16, -1.000000000000000000 ) ) ;
#232 = CIRCLE ( 'NONE', #124, 2.849999999999994760 ) ;
#233 = LINE ( 'NONE', #89, #274 ) ;
#234 = EDGE_CURVE ( 'NONE', #273, #275, #232, .T. ) ;
#235 = APPLICATION_CONTEXT ( 'configuration controlled 3d designs of mechanical parts and assemblies' ) ;
#236 = APPLICATION_PROTOCOL_DEFINITION ( 'international standard', 'config_control_design', 1994, #28 ) ;
#237 = DIRECTION ( 'NONE',  ( -3.491481338843133355E-15, 1.224646799147353207E-16, -1.000000000000000000 ) ) ;
#238 = LOCAL_TIME ( 9, 53, 28.00000000000000000, #332 ) ;
#239 = CARTESIAN_POINT ( 'NONE',  ( 8.728703347107833388E-14, 3.649999999999985700, 25.00000000000000000 ) ) ;
#240 = ORIENTED_EDGE ( 'NONE', *, *, #77, .T. ) ;
#241 = LINE ( 'NONE', #11, #206 ) ;
#242 = ORIENTED_EDGE ( 'NONE', *, *, #300, .T. ) ;
#243 = FACE_OUTER_BOUND ( 'NONE', #198, .T. ) ;
#244 = CIRCLE ( 'NONE', #329, 2.849999999999994760 ) ;
#245 = APPROVAL_PERSON_ORGANIZATION ( #22, #69, #47 ) ;
#246 = PERSON_AND_ORGANIZATION_ROLE ( 'classification_officer' ) ;
#247 = DATE_TIME_ROLE ( 'creation_date' ) ;
#248 = DIRECTION ( 'NONE',  ( 0.0000000000000000000, 1.000000000000000000, 0.0000000000000000000 ) ) ;
#249 = DIRECTION ( 'NONE',  ( -3.491481338843133355E-15, 1.224646799147353207E-16, -1.000000000000000000 ) ) ;
#250 = CYLINDRICAL_SURFACE ( 'NONE', #258, 3.649999999999987477 ) ;
#251 = PLANE ( 'NONE',  #288 ) ;
#252 = AXIS2_PLACEMENT_3D ( 'NONE', #219, #328, #189 ) ;
#253 = DIRECTION ( 'NONE',  ( -3.491481338843133355E-15, 1.224646799147353207E-16, -1.000000000000000000 ) ) ;
#254 = EDGE_LOOP ( 'NONE', ( #223, #43 ) ) ;
#255 = DIRECTION ( 'NONE',  ( 3.491481338843133355E-15, -1.224646799147353207E-16, 1.000000000000000000 ) ) ;
#256 = ADVANCED_FACE ( 'NONE', ( #3 ), #30, .T. ) ;
#257 = DIRECTION ( 'NONE',  ( 0.0000000000000000000, 0.0000000000000000000, 1.000000000000000000 ) ) ;
#258 = AXIS2_PLACEMENT_3D ( 'NONE', #57, #54, #200 ) ;
#259 = ORIENTED_EDGE ( 'NONE', *, *, #165, .F. ) ;
#260 = PERSON_AND_ORGANIZATION ( #192, #137 ) ;
#261 = ADVANCED_FACE ( 'NONE', ( #229 ), #82, .T. ) ;
#262 = CALENDAR_DATE ( 2021, 3, 9 ) ;
#263 = DIRECTION ( 'NONE',  ( 0.0000000000000000000, 1.000000000000000000, 0.0000000000000000000 ) ) ;
#264 = CYLINDRICAL_SURFACE ( 'NONE', #307, 3.649999999999987477 ) ;
#265 = AXIS2_PLACEMENT_3D ( 'NONE', #157, #257, #320 ) ;
#266 = DIRECTION ( 'NONE',  ( 0.0000000000000000000, 1.000000000000000000, 0.0000000000000000000 ) ) ;
#267 = ORIENTED_EDGE ( 'NONE', *, *, #315, .F. ) ;
#268 = ORIENTED_EDGE ( 'NONE', *, *, #292, .T. ) ;
#269 = APPROVAL_ROLE ( '' ) ;
#270 = LOCAL_TIME ( 9, 53, 28.00000000000000000, #222 ) ;
#271 = PERSON_AND_ORGANIZATION ( #192, #137 ) ;
#272 = DATE_AND_TIME ( #145, #46 ) ;
#273 = VERTEX_POINT ( 'NONE', #155 ) ;
#274 = VECTOR ( 'NONE', #160, 1000.000000000000000 ) ;
#275 = VERTEX_POINT ( 'NONE', #85 ) ;
#276 = ADVANCED_FACE ( 'NONE', ( #285 ), #250, .T. ) ;
#277 = DIRECTION ( 'NONE',  ( -4.221216316465190249E-31, -1.000000000000000000, -1.188166764367680533E-16 ) ) ;
#278 = CARTESIAN_POINT ( 'NONE',  ( 0.0000000000000000000, 0.0000000000000000000, 0.0000000000000000000 ) ) ;
#279 = ADVANCED_BREP_SHAPE_REPRESENTATION ( '54629', ( #326, #321, #265 ), #103 ) ;
#280 = CARTESIAN_POINT ( 'NONE',  ( 7.657311780818732161E-15, -3.649999999999986589, 2.193141259450610114 ) ) ;
#281 = ORIENTED_EDGE ( 'NONE', *, *, #286, .T. ) ;
#282 = CC_DESIGN_DATE_AND_TIME_ASSIGNMENT ( #125, #71, ( #297 ) ) ;
#283 = DIRECTION ( 'NONE',  ( -2.382254525458708792E-15, -0.7071067811865495711, -0.7071067811865455743 ) ) ;
#284 = EDGE_LOOP ( 'NONE', ( #311, #242, #158, #119 ) ) ;
#285 = FACE_OUTER_BOUND ( 'NONE', #284, .T. ) ;
#286 = EDGE_CURVE ( 'NONE', #306, #14, #51, .T. ) ;
#287 = PRODUCT_DEFINITION ( 'UNKNOWN', '', #148, #294 ) ;
#288 = AXIS2_PLACEMENT_3D ( 'NONE', #184, #105, #31 ) ;
#289 = PERSON_AND_ORGANIZATION_ROLE ( 'creator' ) ;
#290 = CALENDAR_DATE ( 2021, 3, 9 ) ;
#291 = EDGE_LOOP ( 'NONE', ( #267, #64, #115 ) ) ;
#292 = EDGE_CURVE ( 'NONE', #14, #306, #88, .T. ) ;
#293 = MECHANICAL_CONTEXT ( 'NONE', #28, 'mechanical' ) ;
#294 = DESIGN_CONTEXT ( 'detailed design', #235, 'design' ) ;
#295 = CARTESIAN_POINT ( 'NONE',  ( 0.0000000000000000000, 0.0000000000000000000, 0.0000000000000000000 ) ) ;
#296 = AXIS2_PLACEMENT_3D ( 'NONE', #278, #253, #4 ) ;
#297 = SECURITY_CLASSIFICATION ( '', '', #169 ) ;
#298 = EDGE_CURVE ( 'NONE', #86, #191, #175, .T. ) ;
#299 = DIRECTION ( 'NONE',  ( -3.491481338843133355E-15, 1.224646799147353207E-16, -1.000000000000000000 ) ) ;
#300 = EDGE_CURVE ( 'NONE', #87, #191, #241, .T. ) ;
#301 = CARTESIAN_POINT ( 'NONE',  ( 4.791916870763729123E-14, -3.649999999999991918, 25.00000000000000000 ) ) ;
#302 = PERSON_AND_ORGANIZATION ( #192, #137 ) ;
#303 = APPROVAL ( #123, 'UNSPECIFIED' ) ;
#304 = AXIS2_PLACEMENT_3D ( 'NONE', #147, #299, #217 ) ;
#305 = CIRCLE ( 'NONE', #252, 3.649999999999995026 ) ;
#306 = VERTEX_POINT ( 'NONE', #97 ) ;
#307 = AXIS2_PLACEMENT_3D ( 'NONE', #295, #25, #67 ) ;
#308 = DIRECTION ( 'NONE',  ( 3.491481338843133355E-15, -1.224646799147353207E-16, 1.000000000000000000 ) ) ;
#309 = FACE_OUTER_BOUND ( 'NONE', #91, .T. ) ;
#310 = DIRECTION ( 'NONE',  ( -3.491481338843133355E-15, 1.224646799147353207E-16, -1.000000000000000000 ) ) ;
#311 = ORIENTED_EDGE ( 'NONE', *, *, #173, .T. ) ;
#312 = LOCAL_TIME ( 9, 53, 28.00000000000000000, #186 ) ;
#313 = CARTESIAN_POINT ( 'NONE',  ( 2.583696190743918430E-13, -9.062386313690413585E-15, 74.00000000000000000 ) ) ;
#314 = ORIENTED_EDGE ( 'NONE', *, *, #230, .F. ) ;
#315 = EDGE_CURVE ( 'NONE', #138, #191, #233, .T. ) ;
#316 = DIRECTION ( 'NONE',  ( 3.491481338843133355E-15, -1.224646799147353207E-16, 1.000000000000000000 ) ) ;
#317 = EDGE_LOOP ( 'NONE', ( #187, #52, #154, #325 ) ) ;
#318 = LINE ( 'NONE', #94, #35 ) ;
#319 = VERTEX_POINT ( 'NONE', #239 ) ;
#320 = DIRECTION ( 'NONE',  ( 1.000000000000000000, 0.0000000000000000000, 0.0000000000000000000 ) ) ;
#321 = MANIFOLD_SOLID_BREP ( 'Corps-Déplacer/Copier1[2]', #146 ) ;
#322 = EDGE_CURVE ( 'NONE', #319, #86, #318, .T. ) ;
#323 = VERTEX_POINT ( 'NONE', #216 ) ;
#324 = CARTESIAN_POINT ( 'NONE',  ( 2.583696190743918430E-13, 2.137157690293129849E-32, 74.00000000000000000 ) ) ;
#325 = ORIENTED_EDGE ( 'NONE', *, *, #77, .F. ) ;
#326 = MANIFOLD_SOLID_BREP ( 'Corps-Déplacer/Copier1[1]', #5 ) ;
#327 = DIRECTION ( 'NONE',  ( -3.491481338843133355E-15, 1.224646799147353207E-16, -1.000000000000000000 ) ) ;
#328 = DIRECTION ( 'NONE',  ( -3.491481338843133355E-15, 1.224646799147353207E-16, -1.000000000000000000 ) ) ;
#329 = AXIS2_PLACEMENT_3D ( 'NONE', #93, #194, #248 ) ;
#330 = EDGE_CURVE ( 'NONE', #87, #319, #121, .T. ) ;
#331 = ORIENTED_EDGE ( 'NONE', *, *, #207, .F. ) ;
#332 = COORDINATED_UNIVERSAL_TIME_OFFSET ( 1, 0, .AHEAD. ) ;
#333 = ADVANCED_FACE ( 'NONE', ( #214 ), #17, .F. ) ;
#334 = CC_DESIGN_APPROVAL ( #62, ( #287 ) ) ;
#335 = ADVANCED_FACE ( 'NONE', ( #218 ), #6, .T. ) ;
#336 = CARTESIAN_POINT ( 'NONE',  ( 1.718787298188865831E-13, -3.649999999999991918, 25.00000000000000000 ) ) ;
#337 = CARTESIAN_POINT ( 'NONE',  ( 7.657311780818733739E-15, -2.685823423464185342E-16, 2.193141259450610558 ) ) ;
ENDSEC;
END-ISO-10303-21;
