ISO-10303-21;
HEADER;
FILE_DESCRIPTION (( 'STEP AP203' ),
    '1' );
FILE_NAME ('54627.step',
    '2021-09-03T07:53:19',
    ( '' ),
    ( '' ),
    'SwSTEP 2.0',
    'SolidWorks 2019',
    '' );
FILE_SCHEMA (( 'CONFIG_CONTROL_DESIGN' ));
ENDSEC;

DATA;
#1 = LINE ( 'NONE', #181, #84 ) ;
#2 = CIRCLE ( 'NONE', #262, 3.549999999999988720 ) ;
#3 = CARTESIAN_POINT ( 'NONE',  ( 4.780202755771678715E-14, -3.549999999999991385, 25.00000000000000000 ) ) ;
#4 = FACE_OUTER_BOUND ( 'NONE', #61, .T. ) ;
#5 = CLOSED_SHELL ( 'NONE', ( #207, #63, #296, #288, #196, #185 ) ) ;
#6 = AXIS2_PLACEMENT_3D ( 'NONE', #249, #229, #83 ) ;
#7 = LINE ( 'NONE', #163, #102 ) ;
#8 = ORIENTED_EDGE ( 'NONE', *, *, #226, .F. ) ;
#9 = DIRECTION ( 'NONE',  ( 0.0000000000000000000, 0.0000000000000000000, 1.000000000000000000 ) ) ;
#10 = EDGE_LOOP ( 'NONE', ( #8, #95, #168 ) ) ;
#11 = AXIS2_PLACEMENT_3D ( 'NONE', #273, #16, #47 ) ;
#12 = AXIS2_PLACEMENT_3D ( 'NONE', #62, #212, #159 ) ;
#13 = DATE_AND_TIME ( #270, #252 ) ;
#14 = VERTEX_POINT ( 'NONE', #327 ) ;
#15 = APPROVAL_DATE_TIME ( #267, #221 ) ;
#16 = DIRECTION ( 'NONE',  ( -3.491481338843133355E-15, 1.224646799147353207E-16, -1.000000000000000000 ) ) ;
#17 = DIRECTION ( 'NONE',  ( 3.491481338843133355E-15, -1.224646799147353207E-16, 1.000000000000000000 ) ) ;
#18 = CC_DESIGN_APPROVAL ( #221, ( #219 ) ) ;
#19 = EDGE_LOOP ( 'NONE', ( #333, #69, #71, #142 ) ) ;
#20 = VERTEX_POINT ( 'NONE', #170 ) ;
#21 = VERTEX_POINT ( 'NONE', #126 ) ;
#22 = FACE_OUTER_BOUND ( 'NONE', #144, .T. ) ;
#23 = DIRECTION ( 'NONE',  ( -3.491481338843133355E-15, 1.224646799147353207E-16, -1.000000000000000000 ) ) ;
#24 = DIRECTION ( 'NONE',  ( 1.798245827342159528E-15, -0.8571673007021100021, 0.5150380749100580413 ) ) ;
#25 = CARTESIAN_POINT ( 'NONE',  ( 8.728703347107833388E-14, -3.061616997868383043E-15, 25.00000000000000000 ) ) ;
#26 = CC_DESIGN_PERSON_AND_ORGANIZATION_ASSIGNMENT ( #123, #55, ( #269 ) ) ;
#27 = DIRECTION ( 'NONE',  ( -3.491481338843133355E-15, 1.224646799147353207E-16, -1.000000000000000000 ) ) ;
#28 = APPLICATION_PROTOCOL_DEFINITION ( 'international standard', 'config_control_design', 1994, #263 ) ;
#29 = DIRECTION ( 'NONE',  ( -4.275831445896958607E-31, -1.000000000000000000, -1.224646799147353207E-16 ) ) ;
#30 = CONICAL_SURFACE ( 'NONE', #286, 3.549999999999986500, 1.029744258676649871 ) ;
#31 = CIRCLE ( 'NONE', #277, 2.749999999999995115 ) ;
#32 = UNCERTAINTY_MEASURE_WITH_UNIT (LENGTH_MEASURE( 1.000000000000000082E-05 ), #256, 'distance_accuracy_value', 'NONE');
#33 = EDGE_LOOP ( 'NONE', ( #240, #146, #266, #44 ) ) ;
#34 = CARTESIAN_POINT ( 'NONE',  ( 2.573587902805860395E-13, -2.750000000000003997, 74.00000000000000000 ) ) ;
#35 = CARTESIAN_POINT ( 'NONE',  ( 1.718664833508949859E-13, -3.550000000000004707, 73.20000000000000284 ) ) ;
#36 = ORIENTED_EDGE ( 'NONE', *, *, #205, .T. ) ;
#37 = ADVANCED_FACE ( 'NONE', ( #242 ), #30, .T. ) ;
#38 = AXIS2_PLACEMENT_3D ( 'NONE', #202, #183, #337 ) ;
#39 = APPROVAL_DATE_TIME ( #309, #231 ) ;
#40 = ORIENTED_EDGE ( 'NONE', *, *, #103, .F. ) ;
#41 = EDGE_LOOP ( 'NONE', ( #128, #36, #138, #40 ) ) ;
#42 = EDGE_CURVE ( 'NONE', #268, #97, #52, .T. ) ;
#43 = PERSON_AND_ORGANIZATION ( #315, #133 ) ;
#44 = ORIENTED_EDGE ( 'NONE', *, *, #334, .F. ) ;
#45 = APPROVAL_PERSON_ORGANIZATION ( #93, #153, #51 ) ;
#46 = ORIENTED_EDGE ( 'NONE', *, *, #274, .T. ) ;
#47 = DIRECTION ( 'NONE',  ( 4.275831445896958607E-31, 1.000000000000000000, 1.224646799147353207E-16 ) ) ;
#48 = DIRECTION ( 'NONE',  ( 4.275831445896957731E-31, 1.000000000000000000, 1.224646799147352961E-16 ) ) ;
#49 = PRODUCT_DEFINITION_SHAPE ( 'NONE', 'NONE',  #269 ) ;
#50 = CC_DESIGN_DATE_AND_TIME_ASSIGNMENT ( #265, #98, ( #269 ) ) ;
#51 = APPROVAL_ROLE ( '' ) ;
#52 = CIRCLE ( 'NONE', #218, 2.749999999999995115 ) ;
#53 = AXIS2_PLACEMENT_3D ( 'NONE', #158, #105, #131 ) ;
#54 = DIRECTION ( 'NONE',  ( -3.491481338843133355E-15, 1.224646799147353207E-16, -1.000000000000000000 ) ) ;
#55 = PERSON_AND_ORGANIZATION_ROLE ( 'creator' ) ;
#56 = DIRECTION ( 'NONE',  ( 3.491481338843133355E-15, -1.224646799147353207E-16, 1.000000000000000000 ) ) ;
#57 = CARTESIAN_POINT ( 'NONE',  ( 2.555764340033173364E-13, -8.964414569758626729E-15, 73.20000000000000284 ) ) ;
#58 = CARTESIAN_POINT ( 'NONE',  ( 7.447522416960681765E-15, -3.549999999999986944, 2.133055197547852888 ) ) ;
#59 = CIRCLE ( 'NONE', #239, 3.549999999999994937 ) ;
#60 = PERSON_AND_ORGANIZATION ( #315, #133 ) ;
#61 = EDGE_LOOP ( 'NONE', ( #127, #198 ) ) ;
#62 = CARTESIAN_POINT ( 'NONE',  ( 2.555764340033173364E-13, -8.964414569758626729E-15, 73.20000000000000284 ) ) ;
#63 = ADVANCED_FACE ( 'NONE', ( #124 ), #171, .T. ) ;
#64 = PERSON_AND_ORGANIZATION_ROLE ( 'design_owner' ) ;
#65 = CONICAL_SURFACE ( 'NONE', #209, 2.749999999999995115, 0.7853981633974512766 ) ;
#66 = DIRECTION ( 'NONE',  ( -3.491481338843133355E-15, 1.224646799147353207E-16, -1.000000000000000000 ) ) ;
#67 = PRODUCT_RELATED_PRODUCT_CATEGORY ( 'detail', '', ( #298 ) ) ;
#68 = CALENDAR_DATE ( 2021, 3, 9 ) ;
#69 = ORIENTED_EDGE ( 'NONE', *, *, #111, .T. ) ;
#70 = APPROVAL_ROLE ( '' ) ;
#71 = ORIENTED_EDGE ( 'NONE', *, *, #334, .T. ) ;
#72 = CC_DESIGN_PERSON_AND_ORGANIZATION_ASSIGNMENT ( #43, #328, ( #76 ) ) ;
#73 = ADVANCED_BREP_SHAPE_REPRESENTATION ( '54627', ( #308, #305, #257 ), #112 ) ;
#74 = DIRECTION ( 'NONE',  ( -4.340123818337449240E-31, -1.000000000000000000, -1.221636250687896917E-16 ) ) ;
#75 = ORIENTED_EDGE ( 'NONE', *, *, #120, .T. ) ;
#76 = SECURITY_CLASSIFICATION ( '', '', #164 ) ;
#77 = ORIENTED_EDGE ( 'NONE', *, *, #274, .F. ) ;
#78 = PLANE ( 'NONE',  #264 ) ;
#79 = CARTESIAN_POINT ( 'NONE',  ( 0.0000000000000000000, 0.0000000000000000000, 0.0000000000000000000 ) ) ;
#80 = CIRCLE ( 'NONE', #12, 3.549999999999994937 ) ;
#81 = CARTESIAN_POINT ( 'NONE',  ( 4.347496136973073798E-16, -3.549999999999987832, -4.347496136973103873E-16 ) ) ;
#82 = DIRECTION ( 'NONE',  ( -3.491481338843133355E-15, 1.224646799147353207E-16, -1.000000000000000000 ) ) ;
#83 = DIRECTION ( 'NONE',  ( 0.0000000000000000000, 1.000000000000000000, 0.0000000000000000000 ) ) ;
#84 = VECTOR ( 'NONE', #23, 1000.000000000000000 ) ;
#85 = PLANE ( 'NONE',  #107 ) ;
#86 = VECTOR ( 'NONE', #106, 1000.000000000000114 ) ;
#87 = CARTESIAN_POINT ( 'NONE',  ( 2.583696190743918430E-13, -9.062386313690413585E-15, 74.00000000000000000 ) ) ;
#88 = DIRECTION ( 'NONE',  ( 3.491481338843133355E-15, -1.224646799147353207E-16, 1.000000000000000000 ) ) ;
#89 = VERTEX_POINT ( 'NONE', #122 ) ;
#90 = CARTESIAN_POINT ( 'NONE',  ( 0.0000000000000000000, 0.0000000000000000000, 0.0000000000000000000 ) ) ;
#91 = CC_DESIGN_APPROVAL ( #153, ( #76 ) ) ;
#92 = DIRECTION ( 'NONE',  ( 0.0000000000000000000, 1.000000000000000000, 0.0000000000000000000 ) ) ;
#93 = PERSON_AND_ORGANIZATION ( #315, #133 ) ;
#94 = DESIGN_CONTEXT ( 'detailed design', #263, 'design' ) ;
#95 = ORIENTED_EDGE ( 'NONE', *, *, #283, .T. ) ;
#96 = CONICAL_SURFACE ( 'NONE', #225, 3.549999999999986500, 1.029744258676649871 ) ;
#97 = VERTEX_POINT ( 'NONE', #216 ) ;
#98 = DATE_TIME_ROLE ( 'creation_date' ) ;
#99 = EDGE_LOOP ( 'NONE', ( #325, #243 ) ) ;
#100 = ORIENTED_EDGE ( 'NONE', *, *, #330, .T. ) ;
#101 = AXIS2_PLACEMENT_3D ( 'NONE', #25, #234, #134 ) ;
#102 = VECTOR ( 'NONE', #139, 1000.000000000000114 ) ;
#103 = EDGE_CURVE ( 'NONE', #89, #329, #195, .T. ) ;
#104 = CARTESIAN_POINT ( 'NONE',  ( 2.583696190743918430E-13, -9.062386313690413585E-15, 74.00000000000000000 ) ) ;
#105 = DIRECTION ( 'NONE',  ( -3.491481338843133355E-15, 1.224646799147353207E-16, -1.000000000000000000 ) ) ;
#106 = DIRECTION ( 'NONE',  ( -2.468850131082257455E-15, 0.7071067811865497932, -0.7071067811865453523 ) ) ;
#107 = AXIS2_PLACEMENT_3D ( 'NONE', #254, #88, #29 ) ;
#108 = FACE_OUTER_BOUND ( 'NONE', #295, .T. ) ;
#109 = CARTESIAN_POINT ( 'NONE',  ( 2.583696190743918430E-13, -9.062386313690413585E-15, 74.00000000000000000 ) ) ;
#110 = MECHANICAL_CONTEXT ( 'NONE', #297, 'mechanical' ) ;
#111 = EDGE_CURVE ( 'NONE', #193, #14, #238, .T. ) ;
#112 =( GEOMETRIC_REPRESENTATION_CONTEXT ( 3 ) GLOBAL_UNCERTAINTY_ASSIGNED_CONTEXT ( ( #32 ) ) GLOBAL_UNIT_ASSIGNED_CONTEXT ( ( #256, #114, #318 ) ) REPRESENTATION_CONTEXT ( 'NONE', 'WORKASPACE' ) );
#113 = DIRECTION ( 'NONE',  ( 4.275831445896958607E-31, 1.000000000000000000, 1.224646799147353207E-16 ) ) ;
#114 =( NAMED_UNIT ( * ) PLANE_ANGLE_UNIT ( ) SI_UNIT ( $, .RADIAN. ) );
#115 = CARTESIAN_POINT ( 'NONE',  ( 8.728703347107833388E-14, 3.549999999999986056, 25.00000000000000000 ) ) ;
#116 = ORIENTED_EDGE ( 'NONE', *, *, #176, .F. ) ;
#117 = CC_DESIGN_DATE_AND_TIME_ASSIGNMENT ( #217, #336, ( #76 ) ) ;
#118 = AXIS2_PLACEMENT_3D ( 'NONE', #310, #230, #201 ) ;
#119 = CALENDAR_DATE ( 2021, 3, 9 ) ;
#120 = EDGE_CURVE ( 'NONE', #97, #89, #253, .T. ) ;
#121 = CALENDAR_DATE ( 2021, 3, 9 ) ;
#122 = CARTESIAN_POINT ( 'NONE',  ( 2.555764340033173364E-13, 3.549999999999986056, 73.20000000000000284 ) ) ;
#123 = PERSON_AND_ORGANIZATION ( #315, #133 ) ;
#124 = FACE_OUTER_BOUND ( 'NONE', #41, .T. ) ;
#125 = LOCAL_TIME ( 9, 53, 19.00000000000000000, #160 ) ;
#126 = CARTESIAN_POINT ( 'NONE',  ( 7.447522416960681765E-15, -3.549999999999986944, 2.133055197547852888 ) ) ;
#127 = ORIENTED_EDGE ( 'NONE', *, *, #190, .F. ) ;
#128 = ORIENTED_EDGE ( 'NONE', *, *, #176, .T. ) ;
#129 = CARTESIAN_POINT ( 'NONE',  ( 2.583696190743918430E-13, 2.749999999999985789, 74.00000000000000000 ) ) ;
#130 = CC_DESIGN_PERSON_AND_ORGANIZATION_ASSIGNMENT ( #299, #174, ( #219 ) ) ;
#131 = DIRECTION ( 'NONE',  ( 4.340123818337449240E-31, 1.000000000000000000, 1.221636250687896917E-16 ) ) ;
#132 = DIRECTION ( 'NONE',  ( -4.340123818337449240E-31, -1.000000000000000000, -1.221636250687896917E-16 ) ) ;
#133 = ORGANIZATION ( 'UNSPECIFIED', 'UNSPECIFIED', '' ) ;
#134 = DIRECTION ( 'NONE',  ( 0.0000000000000000000, 1.000000000000000000, 0.0000000000000000000 ) ) ;
#135 = DIRECTION ( 'NONE',  ( -2.382254525458708792E-15, -0.7071067811865495711, -0.7071067811865455743 ) ) ;
#136 = DIRECTION ( 'NONE',  ( -3.491481338843133355E-15, 1.224646799147353207E-16, -1.000000000000000000 ) ) ;
#137 = CARTESIAN_POINT ( 'NONE',  ( 1.517920163293414884E-30, 3.549999999999987832, 4.347496136973088096E-16 ) ) ;
#138 = ORIENTED_EDGE ( 'NONE', *, *, #211, .F. ) ;
#139 = DIRECTION ( 'NONE',  ( 1.903218546456021928E-15, 0.8571673007021098911, 0.5150380749100583744 ) ) ;
#140 = CARTESIAN_POINT ( 'NONE',  ( 1.718664833508951121E-13, -3.549999999999991829, 25.00000000000000000 ) ) ;
#141 = VECTOR ( 'NONE', #290, 1000.000000000000000 ) ;
#142 = ORIENTED_EDGE ( 'NONE', *, *, #235, .F. ) ;
#143 = CC_DESIGN_PERSON_AND_ORGANIZATION_ASSIGNMENT ( #60, #64, ( #298 ) ) ;
#144 = EDGE_LOOP ( 'NONE', ( #100, #186, #116, #259 ) ) ;
#145 = ADVANCED_FACE ( 'NONE', ( #172 ), #275, .T. ) ;
#146 = ORIENTED_EDGE ( 'NONE', *, *, #173, .T. ) ;
#147 = EDGE_LOOP ( 'NONE', ( #222, #223, #241 ) ) ;
#148 = DIRECTION ( 'NONE',  ( -3.491481338843133355E-15, 1.224646799147353207E-16, -1.000000000000000000 ) ) ;
#149 = DIRECTION ( 'NONE',  ( -3.491481338843133355E-15, 1.224646799147353207E-16, -1.000000000000000000 ) ) ;
#150 = VECTOR ( 'NONE', #248, 1000.000000000000000 ) ;
#151 = COORDINATED_UNIVERSAL_TIME_OFFSET ( 1, 0, .AHEAD. ) ;
#152 = DIRECTION ( 'NONE',  ( -3.491481338843133355E-15, 1.224646799147353207E-16, -1.000000000000000000 ) ) ;
#153 = APPROVAL ( #194, 'UNSPECIFIED' ) ;
#154 = DIRECTION ( 'NONE',  ( -3.491481338843133355E-15, 1.224646799147353207E-16, -1.000000000000000000 ) ) ;
#155 = FACE_OUTER_BOUND ( 'NONE', #19, .T. ) ;
#156 = VECTOR ( 'NONE', #271, 1000.000000000000000 ) ;
#157 = CIRCLE ( 'NONE', #53, 3.549999999999986500 ) ;
#158 = CARTESIAN_POINT ( 'NONE',  ( 7.447522416960683343E-15, -2.612239220081603780E-16, 2.133055197547853332 ) ) ;
#159 = DIRECTION ( 'NONE',  ( 0.0000000000000000000, 1.000000000000000000, 0.0000000000000000000 ) ) ;
#160 = COORDINATED_UNIVERSAL_TIME_OFFSET ( 1, 0, .AHEAD. ) ;
#161 = LOCAL_TIME ( 9, 53, 19.00000000000000000, #197 ) ;
#162 = DIRECTION ( 'NONE',  ( 4.340123818337449240E-31, 1.000000000000000000, 1.221636250687896917E-16 ) ) ;
#163 = CARTESIAN_POINT ( 'NONE',  ( 7.882272030657995012E-15, 3.549999999999986056, 2.133055197547853776 ) ) ;
#164 = SECURITY_CLASSIFICATION_LEVEL ( 'unclassified' ) ;
#165 = AXIS2_PLACEMENT_3D ( 'NONE', #79, #152, #48 ) ;
#166 = ORIENTED_EDGE ( 'NONE', *, *, #103, .T. ) ;
#167 = EDGE_LOOP ( 'NONE', ( #331, #46, #166, #301 ) ) ;
#168 = ORIENTED_EDGE ( 'NONE', *, *, #278, .T. ) ;
#169 = ADVANCED_FACE ( 'NONE', ( #155 ), #206, .T. ) ;
#170 = CARTESIAN_POINT ( 'NONE',  ( 7.882272030657995012E-15, 3.549999999999986056, 2.133055197547853776 ) ) ;
#171 = CYLINDRICAL_SURFACE ( 'NONE', #11, 3.549999999999991829 ) ;
#172 = FACE_OUTER_BOUND ( 'NONE', #33, .T. ) ;
#173 = EDGE_CURVE ( 'NONE', #193, #21, #280, .T. ) ;
#174 = PERSON_AND_ORGANIZATION_ROLE ( 'design_supplier' ) ;
#175 = CARTESIAN_POINT ( 'NONE',  ( 2.583696190743918430E-13, 2.062169701160037242E-32, 74.00000000000000000 ) ) ;
#176 = EDGE_CURVE ( 'NONE', #89, #300, #59, .T. ) ;
#177 = CC_DESIGN_APPROVAL ( #231, ( #269 ) ) ;
#178 = COORDINATED_UNIVERSAL_TIME_OFFSET ( 1, 0, .AHEAD. ) ;
#179 = FACE_OUTER_BOUND ( 'NONE', #10, .T. ) ;
#180 = EDGE_CURVE ( 'NONE', #268, #300, #208, .T. ) ;
#181 = CARTESIAN_POINT ( 'NONE',  ( 4.347496136973079714E-16, -3.549999999999991829, -4.347496136973108310E-16 ) ) ;
#182 = ADVANCED_FACE ( 'NONE', ( #4 ), #233, .T. ) ;
#183 = DIRECTION ( 'NONE',  ( -3.491481338843133355E-15, 1.224646799147353207E-16, -1.000000000000000000 ) ) ;
#184 = APPROVAL_ROLE ( '' ) ;
#185 = ADVANCED_FACE ( 'NONE', ( #307 ), #78, .F. ) ;
#186 = ORIENTED_EDGE ( 'NONE', *, *, #180, .T. ) ;
#187 = CONICAL_SURFACE ( 'NONE', #326, 2.749999999999995115, 0.7853981633974512766 ) ;
#188 = DIRECTION ( 'NONE',  ( -3.491481338843133355E-15, 1.224646799147353207E-16, -1.000000000000000000 ) ) ;
#189 = LINE ( 'NONE', #137, #141 ) ;
#190 = EDGE_CURVE ( 'NONE', #14, #193, #303, .T. ) ;
#191 = EDGE_LOOP ( 'NONE', ( #304, #199 ) ) ;
#192 = AXIS2_PLACEMENT_3D ( 'NONE', #258, #136, #92 ) ;
#193 = VERTEX_POINT ( 'NONE', #3 ) ;
#194 = APPROVAL_STATUS ( 'not_yet_approved' ) ;
#195 = LINE ( 'NONE', #220, #156 ) ;
#196 = ADVANCED_FACE ( 'NONE', ( #108 ), #187, .T. ) ;
#197 = COORDINATED_UNIVERSAL_TIME_OFFSET ( 1, 0, .AHEAD. ) ;
#198 = ORIENTED_EDGE ( 'NONE', *, *, #111, .F. ) ;
#199 = ORIENTED_EDGE ( 'NONE', *, *, #42, .F. ) ;
#200 = CIRCLE ( 'NONE', #316, 3.549999999999986500 ) ;
#201 = DIRECTION ( 'NONE',  ( -4.275831445896958607E-31, -1.000000000000000000, -1.224646799147353207E-16 ) ) ;
#202 = CARTESIAN_POINT ( 'NONE',  ( 0.0000000000000000000, 0.0000000000000000000, 0.0000000000000000000 ) ) ;
#203 = CARTESIAN_POINT ( 'NONE',  ( 0.0000000000000000000, 0.0000000000000000000, 0.0000000000000000000 ) ) ;
#204 = LOCAL_TIME ( 9, 53, 19.00000000000000000, #323 ) ;
#205 = EDGE_CURVE ( 'NONE', #300, #272, #1, .T. ) ;
#206 = CYLINDRICAL_SURFACE ( 'NONE', #165, 3.549999999999987832 ) ;
#207 = ADVANCED_FACE ( 'NONE', ( #22 ), #65, .T. ) ;
#208 = LINE ( 'NONE', #250, #293 ) ;
#209 = AXIS2_PLACEMENT_3D ( 'NONE', #109, #154, #312 ) ;
#210 = PERSON_AND_ORGANIZATION ( #315, #133 ) ;
#211 = EDGE_CURVE ( 'NONE', #329, #272, #2, .T. ) ;
#212 = DIRECTION ( 'NONE',  ( -3.491481338843133355E-15, 1.224646799147353207E-16, -1.000000000000000000 ) ) ;
#213 = VECTOR ( 'NONE', #24, 1000.000000000000000 ) ;
#214 = APPLICATION_PROTOCOL_DEFINITION ( 'international standard', 'config_control_design', 1994, #297 ) ;
#215 = SHAPE_DEFINITION_REPRESENTATION ( #49, #73 ) ;
#216 = CARTESIAN_POINT ( 'NONE',  ( 2.583696190743918430E-13, 2.749999999999985789, 74.00000000000000000 ) ) ;
#217 = DATE_AND_TIME ( #121, #204 ) ;
#218 = AXIS2_PLACEMENT_3D ( 'NONE', #104, #148, #292 ) ;
#219 = PRODUCT_DEFINITION_FORMATION_WITH_SPECIFIED_SOURCE ( 'ANY', '', #298, .NOT_KNOWN. ) ;
#220 = CARTESIAN_POINT ( 'NONE',  ( 1.517920163293416811E-30, 3.549999999999991829, 4.347496136973094012E-16 ) ) ;
#221 = APPROVAL ( #291, 'UNSPECIFIED' ) ;
#222 = ORIENTED_EDGE ( 'NONE', *, *, #283, .F. ) ;
#223 = ORIENTED_EDGE ( 'NONE', *, *, #226, .T. ) ;
#224 = ORIENTED_EDGE ( 'NONE', *, *, #42, .T. ) ;
#225 = AXIS2_PLACEMENT_3D ( 'NONE', #279, #56, #132 ) ;
#226 = EDGE_CURVE ( 'NONE', #255, #21, #281, .T. ) ;
#227 = CARTESIAN_POINT ( 'NONE',  ( 8.728703347107833388E-14, -3.061616997868383043E-15, 25.00000000000000000 ) ) ;
#228 = PERSON_AND_ORGANIZATION ( #315, #133 ) ;
#229 = DIRECTION ( 'NONE',  ( -3.491481338843133355E-15, 1.224646799147353207E-16, -1.000000000000000000 ) ) ;
#230 = DIRECTION ( 'NONE',  ( 3.491481338843133355E-15, -1.224646799147353207E-16, 1.000000000000000000 ) ) ;
#231 = APPROVAL ( #317, 'UNSPECIFIED' ) ;
#232 = LOCAL_TIME ( 9, 53, 19.00000000000000000, #151 ) ;
#233 = PLANE ( 'NONE',  #118 ) ;
#234 = DIRECTION ( 'NONE',  ( -3.491481338843133355E-15, 1.224646799147353207E-16, -1.000000000000000000 ) ) ;
#235 = EDGE_CURVE ( 'NONE', #21, #20, #157, .T. ) ;
#236 = FACE_OUTER_BOUND ( 'NONE', #167, .T. ) ;
#237 = CALENDAR_DATE ( 2021, 3, 9 ) ;
#238 = CIRCLE ( 'NONE', #101, 3.549999999999988720 ) ;
#239 = AXIS2_PLACEMENT_3D ( 'NONE', #57, #27, #313 ) ;
#240 = ORIENTED_EDGE ( 'NONE', *, *, #190, .T. ) ;
#241 = ORIENTED_EDGE ( 'NONE', *, *, #235, .T. ) ;
#242 = FACE_OUTER_BOUND ( 'NONE', #147, .T. ) ;
#243 = ORIENTED_EDGE ( 'NONE', *, *, #319, .T. ) ;
#244 = ORIENTED_EDGE ( 'NONE', *, *, #180, .F. ) ;
#245 = CARTESIAN_POINT ( 'NONE',  ( 7.447522416960683343E-15, -2.612239220081603780E-16, 2.133055197547853332 ) ) ;
#246 = DIRECTION ( 'NONE',  ( 0.0000000000000000000, 1.000000000000000000, 0.0000000000000000000 ) ) ;
#247 = PERSON_AND_ORGANIZATION ( #315, #133 ) ;
#248 = DIRECTION ( 'NONE',  ( -3.491481338843133355E-15, 1.224646799147353207E-16, -1.000000000000000000 ) ) ;
#249 = CARTESIAN_POINT ( 'NONE',  ( 8.728703347107833388E-14, -3.061616997868383043E-15, 25.00000000000000000 ) ) ;
#250 = CARTESIAN_POINT ( 'NONE',  ( 2.587063969441573836E-13, -2.750000000000003997, 74.00000000000000000 ) ) ;
#251 = CLOSED_SHELL ( 'NONE', ( #145, #260, #37, #169, #182 ) ) ;
#252 = LOCAL_TIME ( 9, 53, 19.00000000000000000, #178 ) ;
#253 = LINE ( 'NONE', #129, #86 ) ;
#254 = CARTESIAN_POINT ( 'NONE',  ( 8.728703347107833388E-14, 2.662073614224784390E-32, 25.00000000000000000 ) ) ;
#255 = VERTEX_POINT ( 'NONE', #203 ) ;
#256 =( LENGTH_UNIT ( ) NAMED_UNIT ( * ) SI_UNIT ( .MILLI., .METRE. ) );
#257 = AXIS2_PLACEMENT_3D ( 'NONE', #314, #9, #285 ) ;
#258 = CARTESIAN_POINT ( 'NONE',  ( 8.728703347107833388E-14, -3.061616997868383043E-15, 25.00000000000000000 ) ) ;
#259 = ORIENTED_EDGE ( 'NONE', *, *, #120, .F. ) ;
#260 = ADVANCED_FACE ( 'NONE', ( #179 ), #96, .T. ) ;
#261 = FACE_OUTER_BOUND ( 'NONE', #99, .T. ) ;
#262 = AXIS2_PLACEMENT_3D ( 'NONE', #227, #82, #335 ) ;
#263 = APPLICATION_CONTEXT ( 'configuration controlled 3d designs of mechanical parts and assemblies' ) ;
#264 = AXIS2_PLACEMENT_3D ( 'NONE', #175, #149, #276 ) ;
#265 = DATE_AND_TIME ( #119, #232 ) ;
#266 = ORIENTED_EDGE ( 'NONE', *, *, #278, .F. ) ;
#267 = DATE_AND_TIME ( #68, #161 ) ;
#268 = VERTEX_POINT ( 'NONE', #34 ) ;
#269 = PRODUCT_DEFINITION ( 'UNKNOWN', '', #219, #94 ) ;
#270 = CALENDAR_DATE ( 2021, 3, 9 ) ;
#271 = DIRECTION ( 'NONE',  ( -3.491481338843133355E-15, 1.224646799147353207E-16, -1.000000000000000000 ) ) ;
#272 = VERTEX_POINT ( 'NONE', #140 ) ;
#273 = CARTESIAN_POINT ( 'NONE',  ( 0.0000000000000000000, 0.0000000000000000000, 0.0000000000000000000 ) ) ;
#274 = EDGE_CURVE ( 'NONE', #300, #89, #80, .T. ) ;
#275 = CYLINDRICAL_SURFACE ( 'NONE', #38, 3.549999999999987832 ) ;
#276 = DIRECTION ( 'NONE',  ( 4.275831445896958607E-31, 1.000000000000000000, 1.224646799147353207E-16 ) ) ;
#277 = AXIS2_PLACEMENT_3D ( 'NONE', #87, #188, #289 ) ;
#278 = EDGE_CURVE ( 'NONE', #20, #21, #200, .T. ) ;
#279 = CARTESIAN_POINT ( 'NONE',  ( 7.447522416960683343E-15, -2.612239220081603780E-16, 2.133055197547853332 ) ) ;
#280 = LINE ( 'NONE', #81, #150 ) ;
#281 = LINE ( 'NONE', #58, #213 ) ;
#282 = CIRCLE ( 'NONE', #192, 3.549999999999988720 ) ;
#283 = EDGE_CURVE ( 'NONE', #255, #20, #7, .T. ) ;
#284 = CARTESIAN_POINT ( 'NONE',  ( 7.447522416960683343E-15, -2.612239220081603780E-16, 2.133055197547853332 ) ) ;
#285 = DIRECTION ( 'NONE',  ( 1.000000000000000000, 0.0000000000000000000, 0.0000000000000000000 ) ) ;
#286 = AXIS2_PLACEMENT_3D ( 'NONE', #245, #17, #74 ) ;
#287 = CC_DESIGN_SECURITY_CLASSIFICATION ( #76, ( #219 ) ) ;
#288 = ADVANCED_FACE ( 'NONE', ( #236 ), #320, .T. ) ;
#289 = DIRECTION ( 'NONE',  ( 0.0000000000000000000, 1.000000000000000000, 0.0000000000000000000 ) ) ;
#290 = DIRECTION ( 'NONE',  ( -3.491481338843133355E-15, 1.224646799147353207E-16, -1.000000000000000000 ) ) ;
#291 = APPROVAL_STATUS ( 'not_yet_approved' ) ;
#292 = DIRECTION ( 'NONE',  ( 0.0000000000000000000, 1.000000000000000000, 0.0000000000000000000 ) ) ;
#293 = VECTOR ( 'NONE', #135, 1000.000000000000114 ) ;
#294 = PERSON_AND_ORGANIZATION_ROLE ( 'creator' ) ;
#295 = EDGE_LOOP ( 'NONE', ( #244, #224, #75, #77 ) ) ;
#296 = ADVANCED_FACE ( 'NONE', ( #261 ), #85, .F. ) ;
#297 = APPLICATION_CONTEXT ( 'configuration controlled 3d designs of mechanical parts and assemblies' ) ;
#298 = PRODUCT ( '54627', '54627', '', ( #110 ) ) ;
#299 = PERSON_AND_ORGANIZATION ( #315, #133 ) ;
#300 = VERTEX_POINT ( 'NONE', #35 ) ;
#301 = ORIENTED_EDGE ( 'NONE', *, *, #319, .F. ) ;
#302 = CC_DESIGN_PERSON_AND_ORGANIZATION_ASSIGNMENT ( #247, #294, ( #219 ) ) ;
#303 = CIRCLE ( 'NONE', #6, 3.549999999999988720 ) ;
#304 = ORIENTED_EDGE ( 'NONE', *, *, #330, .F. ) ;
#305 = MANIFOLD_SOLID_BREP ( 'Corps-Déplacer/Copier1[2]', #251 ) ;
#306 = CARTESIAN_POINT ( 'NONE',  ( 2.583696190743918430E-13, -9.062386313690413585E-15, 74.00000000000000000 ) ) ;
#307 = FACE_OUTER_BOUND ( 'NONE', #191, .T. ) ;
#308 = MANIFOLD_SOLID_BREP ( 'Corps-Déplacer/Copier1[1]', #5 ) ;
#309 = DATE_AND_TIME ( #237, #125 ) ;
#310 = CARTESIAN_POINT ( 'NONE',  ( 8.728703347107833388E-14, 2.662073614224784390E-32, 25.00000000000000000 ) ) ;
#311 = APPROVAL_PERSON_ORGANIZATION ( #228, #221, #70 ) ;
#312 = DIRECTION ( 'NONE',  ( 0.0000000000000000000, 1.000000000000000000, 0.0000000000000000000 ) ) ;
#313 = DIRECTION ( 'NONE',  ( 0.0000000000000000000, 1.000000000000000000, 0.0000000000000000000 ) ) ;
#314 = CARTESIAN_POINT ( 'NONE',  ( 0.0000000000000000000, 0.0000000000000000000, 0.0000000000000000000 ) ) ;
#315 = PERSON ( 'UNSPECIFIED', 'UNSPECIFIED', 'UNSPECIFIED', ('UNSPECIFIED'), ('UNSPECIFIED'), ('UNSPECIFIED') ) ;
#316 = AXIS2_PLACEMENT_3D ( 'NONE', #284, #66, #162 ) ;
#317 = APPROVAL_STATUS ( 'not_yet_approved' ) ;
#318 =( NAMED_UNIT ( * ) SI_UNIT ( $, .STERADIAN. ) SOLID_ANGLE_UNIT ( ) );
#319 = EDGE_CURVE ( 'NONE', #272, #329, #282, .T. ) ;
#320 = CYLINDRICAL_SURFACE ( 'NONE', #332, 3.549999999999991829 ) ;
#321 = APPROVAL_PERSON_ORGANIZATION ( #210, #231, #184 ) ;
#322 = DIRECTION ( 'NONE',  ( -3.491481338843133355E-15, 1.224646799147353207E-16, -1.000000000000000000 ) ) ;
#323 = COORDINATED_UNIVERSAL_TIME_OFFSET ( 1, 0, .AHEAD. ) ;
#324 = APPROVAL_DATE_TIME ( #13, #153 ) ;
#325 = ORIENTED_EDGE ( 'NONE', *, *, #211, .T. ) ;
#326 = AXIS2_PLACEMENT_3D ( 'NONE', #306, #54, #246 ) ;
#327 = CARTESIAN_POINT ( 'NONE',  ( 8.728703347107833388E-14, 3.549999999999986056, 25.00000000000000000 ) ) ;
#328 = PERSON_AND_ORGANIZATION_ROLE ( 'classification_officer' ) ;
#329 = VERTEX_POINT ( 'NONE', #115 ) ;
#330 = EDGE_CURVE ( 'NONE', #97, #268, #31, .T. ) ;
#331 = ORIENTED_EDGE ( 'NONE', *, *, #205, .F. ) ;
#332 = AXIS2_PLACEMENT_3D ( 'NONE', #90, #322, #113 ) ;
#333 = ORIENTED_EDGE ( 'NONE', *, *, #173, .F. ) ;
#334 = EDGE_CURVE ( 'NONE', #14, #20, #189, .T. ) ;
#335 = DIRECTION ( 'NONE',  ( 0.0000000000000000000, 1.000000000000000000, 0.0000000000000000000 ) ) ;
#336 = DATE_TIME_ROLE ( 'classification_date' ) ;
#337 = DIRECTION ( 'NONE',  ( 4.275831445896957731E-31, 1.000000000000000000, 1.224646799147352961E-16 ) ) ;
ENDSEC;
END-ISO-10303-21;
