ISO-10303-21;
HEADER;
FILE_DESCRIPTION (( 'STEP AP203' ),
    '1' );
FILE_NAME ('54626.step',
    '2021-09-03T07:53:14',
    ( '' ),
    ( '' ),
    'SwSTEP 2.0',
    'SolidWorks 2019',
    '' );
FILE_SCHEMA (( 'CONFIG_CONTROL_DESIGN' ));
ENDSEC;

DATA;
#1 = DIRECTION ( 'NONE',  ( 0.0000000000000000000, 0.0000000000000000000, 1.000000000000000000 ) ) ;
#2 = APPLICATION_PROTOCOL_DEFINITION ( 'international standard', 'config_control_design', 1994, #322 ) ;
#3 = EDGE_CURVE ( 'NONE', #106, #131, #319, .T. ) ;
#4 = CONICAL_SURFACE ( 'NONE', #167, 3.499999999999986677, 1.029744258676649871 ) ;
#5 = PERSON_AND_ORGANIZATION ( #282, #60 ) ;
#6 = VERTEX_POINT ( 'NONE', #171 ) ;
#7 = ORIENTED_EDGE ( 'NONE', *, *, #150, .T. ) ;
#8 = PRODUCT_DEFINITION_SHAPE ( 'NONE', 'NONE',  #9 ) ;
#9 = PRODUCT_DEFINITION ( 'UNKNOWN', '', #97, #295 ) ;
#10 = DIRECTION ( 'NONE',  ( -3.491481338843133355E-15, 1.224646799147353207E-16, -1.000000000000000000 ) ) ;
#11 = AXIS2_PLACEMENT_3D ( 'NONE', #64, #85, #170 ) ;
#12 = CARTESIAN_POINT ( 'NONE',  ( 8.728703347107833388E-14, 3.499999999999986233, 25.00000000000000000 ) ) ;
#13 = CARTESIAN_POINT ( 'NONE',  ( 8.728703347107833388E-14, 2.624579619658238224E-32, 25.00000000000000000 ) ) ;
#14 = CARTESIAN_POINT ( 'NONE',  ( 1.718603601168993892E-13, -3.499999999999992450, 25.00000000000000000 ) ) ;
#15 = AXIS2_PLACEMENT_3D ( 'NONE', #324, #10, #320 ) ;
#16 = APPROVAL_PERSON_ORGANIZATION ( #233, #256, #107 ) ;
#17 = CARTESIAN_POINT ( 'NONE',  ( 2.583696190743918430E-13, -9.062386313690413585E-15, 74.00000000000000000 ) ) ;
#18 = LINE ( 'NONE', #278, #215 ) ;
#19 = DIRECTION ( 'NONE',  ( 0.0000000000000000000, 1.000000000000000000, 0.0000000000000000000 ) ) ;
#20 = MANIFOLD_SOLID_BREP ( 'Corps-Déplacer/Copier1[2]', #121 ) ;
#21 = DIRECTION ( 'NONE',  ( 0.0000000000000000000, 1.000000000000000000, 0.0000000000000000000 ) ) ;
#22 = AXIS2_PLACEMENT_3D ( 'NONE', #323, #114, #119 ) ;
#23 = AXIS2_PLACEMENT_3D ( 'NONE', #58, #265, #142 ) ;
#24 = DIRECTION ( 'NONE',  ( -3.491481338843133355E-15, 1.224646799147353207E-16, -1.000000000000000000 ) ) ;
#25 = PERSON_AND_ORGANIZATION_ROLE ( 'creator' ) ;
#26 = CC_DESIGN_APPROVAL ( #178, ( #9 ) ) ;
#27 = PERSON_AND_ORGANIZATION ( #282, #60 ) ;
#28 = PERSON_AND_ORGANIZATION ( #282, #60 ) ;
#29 = ORIENTED_EDGE ( 'NONE', *, *, #100, .F. ) ;
#30 = EDGE_CURVE ( 'NONE', #139, #109, #120, .T. ) ;
#31 = APPROVAL_ROLE ( '' ) ;
#32 = CC_DESIGN_PERSON_AND_ORGANIZATION_ASSIGNMENT ( #130, #230, ( #97 ) ) ;
#33 = FACE_OUTER_BOUND ( 'NONE', #240, .T. ) ;
#34 = VERTEX_POINT ( 'NONE', #243 ) ;
#35 = DIRECTION ( 'NONE',  ( -3.491481338843133355E-15, 1.224646799147353207E-16, -1.000000000000000000 ) ) ;
#36 = APPROVAL_PERSON_ORGANIZATION ( #5, #178, #157 ) ;
#37 = ORIENTED_EDGE ( 'NONE', *, *, #112, .F. ) ;
#38 = DATE_AND_TIME ( #110, #272 ) ;
#39 = CARTESIAN_POINT ( 'NONE',  ( 7.342627735031658145E-15, -3.499999999999987121, 2.103012166596474941 ) ) ;
#40 = ADVANCED_FACE ( 'NONE', ( #117 ), #172, .T. ) ;
#41 = DIRECTION ( 'NONE',  ( 3.491481338843133355E-15, -1.224646799147353207E-16, 1.000000000000000000 ) ) ;
#42 = CARTESIAN_POINT ( 'NONE',  ( 2.587002737101616355E-13, -2.700000000000004619, 74.00000000000000000 ) ) ;
#43 = CC_DESIGN_PERSON_AND_ORGANIZATION_ASSIGNMENT ( #255, #25, ( #97 ) ) ;
#44 = CARTESIAN_POINT ( 'NONE',  ( 8.728703347107833388E-14, -3.061616997868383043E-15, 25.00000000000000000 ) ) ;
#45 = CC_DESIGN_PERSON_AND_ORGANIZATION_ASSIGNMENT ( #311, #77, ( #327 ) ) ;
#46 = CARTESIAN_POINT ( 'NONE',  ( 7.342627735031658145E-15, -3.499999999999987121, 2.103012166596474941 ) ) ;
#47 = DIRECTION ( 'NONE',  ( -3.491481338843133355E-15, 1.224646799147353207E-16, -1.000000000000000000 ) ) ;
#48 = CIRCLE ( 'NONE', #122, 3.499999999999989342 ) ;
#49 = APPROVAL_DATE_TIME ( #281, #169 ) ;
#50 = ADVANCED_FACE ( 'NONE', ( #245 ), #61, .F. ) ;
#51 = CALENDAR_DATE ( 2021, 3, 9 ) ;
#52 = ORIENTED_EDGE ( 'NONE', *, *, #30, .F. ) ;
#53 = VERTEX_POINT ( 'NONE', #242 ) ;
#54 = PERSON_AND_ORGANIZATION_ROLE ( 'design_owner' ) ;
#55 = ORIENTED_EDGE ( 'NONE', *, *, #132, .F. ) ;
#56 = DATE_AND_TIME ( #51, #219 ) ;
#57 = EDGE_LOOP ( 'NONE', ( #52, #234, #196, #84 ) ) ;
#58 = CARTESIAN_POINT ( 'NONE',  ( 2.583696190743918430E-13, -9.062386313690413585E-15, 74.00000000000000000 ) ) ;
#59 = VECTOR ( 'NONE', #296, 1000.000000000000114 ) ;
#60 = ORGANIZATION ( 'UNSPECIFIED', 'UNSPECIFIED', '' ) ;
#61 = PLANE ( 'NONE',  #71 ) ;
#62 = EDGE_CURVE ( 'NONE', #131, #106, #165, .T. ) ;
#63 = APPROVAL_DATE_TIME ( #38, #256 ) ;
#64 = CARTESIAN_POINT ( 'NONE',  ( 2.555764340033173364E-13, -8.964414569758626729E-15, 73.20000000000000284 ) ) ;
#65 = ORIENTED_EDGE ( 'NONE', *, *, #229, .T. ) ;
#66 = CIRCLE ( 'NONE', #123, 3.499999999999995115 ) ;
#67 = DIRECTION ( 'NONE',  ( -3.491481338843133355E-15, 1.224646799147353207E-16, -1.000000000000000000 ) ) ;
#68 = LINE ( 'NONE', #42, #88 ) ;
#69 = CARTESIAN_POINT ( 'NONE',  ( 0.0000000000000000000, 0.0000000000000000000, 0.0000000000000000000 ) ) ;
#70 = EDGE_CURVE ( 'NONE', #148, #6, #197, .T. ) ;
#71 = AXIS2_PLACEMENT_3D ( 'NONE', #13, #221, #113 ) ;
#72 = AXIS2_PLACEMENT_3D ( 'NONE', #179, #251, #307 ) ;
#73 = DIRECTION ( 'NONE',  ( -3.491481338843133355E-15, 1.224646799147353207E-16, -1.000000000000000000 ) ) ;
#74 = DIRECTION ( 'NONE',  ( 0.0000000000000000000, 1.000000000000000000, 0.0000000000000000000 ) ) ;
#75 = CARTESIAN_POINT ( 'NONE',  ( 2.573526670465902914E-13, -2.700000000000004619, 74.00000000000000000 ) ) ;
#76 = APPROVAL_DATE_TIME ( #159, #178 ) ;
#77 = PERSON_AND_ORGANIZATION_ROLE ( 'classification_officer' ) ;
#78 = ORIENTED_EDGE ( 'NONE', *, *, #279, .F. ) ;
#79 = APPLICATION_CONTEXT ( 'configuration controlled 3d designs of mechanical parts and assemblies' ) ;
#80 = ORIENTED_EDGE ( 'NONE', *, *, #185, .F. ) ;
#81 = ADVANCED_FACE ( 'NONE', ( #33 ), #246, .T. ) ;
#82 =( NAMED_UNIT ( * ) PLANE_ANGLE_UNIT ( ) SI_UNIT ( $, .RADIAN. ) );
#83 = ORIENTED_EDGE ( 'NONE', *, *, #86, .F. ) ;
#84 = ORIENTED_EDGE ( 'NONE', *, *, #229, .F. ) ;
#85 = DIRECTION ( 'NONE',  ( -3.491481338843133355E-15, 1.224646799147353207E-16, -1.000000000000000000 ) ) ;
#86 = EDGE_CURVE ( 'NONE', #314, #53, #273, .T. ) ;
#87 = UNCERTAINTY_MEASURE_WITH_UNIT (LENGTH_MEASURE( 1.000000000000000082E-05 ), #105, 'distance_accuracy_value', 'NONE');
#88 = VECTOR ( 'NONE', #276, 1000.000000000000114 ) ;
#89 = DIRECTION ( 'NONE',  ( 0.0000000000000000000, 1.000000000000000000, 0.0000000000000000000 ) ) ;
#90 = CARTESIAN_POINT ( 'NONE',  ( 8.728703347107833388E-14, -3.061616997868383043E-15, 25.00000000000000000 ) ) ;
#91 = DIRECTION ( 'NONE',  ( -3.491481338843133355E-15, 1.224646799147353207E-16, -1.000000000000000000 ) ) ;
#92 = PRODUCT_RELATED_PRODUCT_CATEGORY ( 'detail', '', ( #269 ) ) ;
#93 = CIRCLE ( 'NONE', #264, 2.699999999999995293 ) ;
#94 = CARTESIAN_POINT ( 'NONE',  ( 4.286263797015707013E-16, -3.499999999999988010, -4.286263797015736102E-16 ) ) ;
#95 = DIRECTION ( 'NONE',  ( 0.0000000000000000000, 1.000000000000000000, 0.0000000000000000000 ) ) ;
#96 = CARTESIAN_POINT ( 'NONE',  ( 0.0000000000000000000, 0.0000000000000000000, 0.0000000000000000000 ) ) ;
#97 = PRODUCT_DEFINITION_FORMATION_WITH_SPECIFIED_SOURCE ( 'ANY', '', #269, .NOT_KNOWN. ) ;
#98 = FACE_OUTER_BOUND ( 'NONE', #57, .T. ) ;
#99 = PLANE ( 'NONE',  #72 ) ;
#100 = EDGE_CURVE ( 'NONE', #139, #53, #103, .T. ) ;
#101 = DIRECTION ( 'NONE',  ( 1.903218546456021928E-15, 0.8571673007021098911, 0.5150380749100583744 ) ) ;
#102 = APPROVAL_STATUS ( 'not_yet_approved' ) ;
#103 = CIRCLE ( 'NONE', #11, 3.499999999999995115 ) ;
#104 = ORIENTED_EDGE ( 'NONE', *, *, #86, .T. ) ;
#105 =( LENGTH_UNIT ( ) NAMED_UNIT ( * ) SI_UNIT ( .MILLI., .METRE. ) );
#106 = VERTEX_POINT ( 'NONE', #39 ) ;
#107 = APPROVAL_ROLE ( '' ) ;
#108 = CALENDAR_DATE ( 2021, 3, 9 ) ;
#109 = VERTEX_POINT ( 'NONE', #14 ) ;
#110 = CALENDAR_DATE ( 2021, 3, 9 ) ;
#111 = ORIENTED_EDGE ( 'NONE', *, *, #297, .T. ) ;
#112 = EDGE_CURVE ( 'NONE', #6, #106, #268, .T. ) ;
#113 = DIRECTION ( 'NONE',  ( -4.275831445896958607E-31, -1.000000000000000000, -1.224646799147353207E-16 ) ) ;
#114 = DIRECTION ( 'NONE',  ( 3.491481338843133355E-15, -1.224646799147353207E-16, 1.000000000000000000 ) ) ;
#115 = AXIS2_PLACEMENT_3D ( 'NONE', #90, #91, #89 ) ;
#116 = AXIS2_PLACEMENT_3D ( 'NONE', #128, #24, #174 ) ;
#117 = FACE_OUTER_BOUND ( 'NONE', #164, .T. ) ;
#118 = ADVANCED_FACE ( 'NONE', ( #200 ), #176, .T. ) ;
#119 = DIRECTION ( 'NONE',  ( -4.402125587170841573E-31, -1.000000000000000000, -1.239088197126295501E-16 ) ) ;
#120 = LINE ( 'NONE', #192, #308 ) ;
#121 = CLOSED_SHELL ( 'NONE', ( #81, #40, #292, #284, #204 ) ) ;
#122 = AXIS2_PLACEMENT_3D ( 'NONE', #154, #73, #21 ) ;
#123 = AXIS2_PLACEMENT_3D ( 'NONE', #206, #162, #288 ) ;
#124 = DIRECTION ( 'NONE',  ( 1.798245827342159528E-15, -0.8571673007021100021, 0.5150380749100580413 ) ) ;
#125 = DIRECTION ( 'NONE',  ( -4.275831445896958607E-31, -1.000000000000000000, -1.224646799147353207E-16 ) ) ;
#126 = CARTESIAN_POINT ( 'NONE',  ( 0.0000000000000000000, 0.0000000000000000000, 0.0000000000000000000 ) ) ;
#127 = VECTOR ( 'NONE', #35, 1000.000000000000000 ) ;
#128 = CARTESIAN_POINT ( 'NONE',  ( 8.728703347107833388E-14, -3.061616997868383043E-15, 25.00000000000000000 ) ) ;
#129 = FACE_OUTER_BOUND ( 'NONE', #136, .T. ) ;
#130 = PERSON_AND_ORGANIZATION ( #282, #60 ) ;
#131 = VERTEX_POINT ( 'NONE', #294 ) ;
#132 = EDGE_CURVE ( 'NONE', #53, #166, #241, .T. ) ;
#133 = DATE_AND_TIME ( #315, #145 ) ;
#134 = EDGE_LOOP ( 'NONE', ( #220, #191, #104, #29 ) ) ;
#135 = COORDINATED_UNIVERSAL_TIME_OFFSET ( 1, 0, .AHEAD. ) ;
#136 = EDGE_LOOP ( 'NONE', ( #267, #337 ) ) ;
#137 = ORIENTED_EDGE ( 'NONE', *, *, #3, .F. ) ;
#138 = CARTESIAN_POINT ( 'NONE',  ( 0.0000000000000000000, 0.0000000000000000000, 0.0000000000000000000 ) ) ;
#139 = VERTEX_POINT ( 'NONE', #144 ) ;
#140 = AXIS2_PLACEMENT_3D ( 'NONE', #69, #275, #202 ) ;
#141 = MANIFOLD_SOLID_BREP ( 'Corps-Déplacer/Copier1[1]', #188 ) ;
#142 = DIRECTION ( 'NONE',  ( 0.0000000000000000000, 1.000000000000000000, 0.0000000000000000000 ) ) ;
#143 = EDGE_LOOP ( 'NONE', ( #78, #184, #317 ) ) ;
#144 = CARTESIAN_POINT ( 'NONE',  ( 1.718603601168992630E-13, -3.500000000000004441, 73.20000000000000284 ) ) ;
#145 = LOCAL_TIME ( 9, 53, 14.00000000000000000, #183 ) ;
#146 = EDGE_LOOP ( 'NONE', ( #37, #283, #195, #137 ) ) ;
#147 = SHAPE_DEFINITION_REPRESENTATION ( #8, #203 ) ;
#148 = VERTEX_POINT ( 'NONE', #12 ) ;
#149 = DIRECTION ( 'NONE',  ( -3.491481338843133355E-15, 1.224646799147353207E-16, -1.000000000000000000 ) ) ;
#150 = EDGE_CURVE ( 'NONE', #263, #139, #68, .T. ) ;
#151 = CC_DESIGN_SECURITY_CLASSIFICATION ( #327, ( #97 ) ) ;
#152 = CARTESIAN_POINT ( 'NONE',  ( 8.728703347107833388E-14, 3.499999999999986233, 25.00000000000000000 ) ) ;
#153 = FACE_OUTER_BOUND ( 'NONE', #134, .T. ) ;
#154 = CARTESIAN_POINT ( 'NONE',  ( 8.728703347107833388E-14, -3.061616997868383043E-15, 25.00000000000000000 ) ) ;
#155 = AXIS2_PLACEMENT_3D ( 'NONE', #96, #149, #175 ) ;
#156 = DIRECTION ( 'NONE',  ( -3.491481338843133355E-15, 1.224646799147353207E-16, -1.000000000000000000 ) ) ;
#157 = APPROVAL_ROLE ( '' ) ;
#158 = ORIENTED_EDGE ( 'NONE', *, *, #62, .F. ) ;
#159 = DATE_AND_TIME ( #108, #287 ) ;
#160 = EDGE_CURVE ( 'NONE', #6, #148, #300, .T. ) ;
#161 = AXIS2_PLACEMENT_3D ( 'NONE', #17, #328, #95 ) ;
#162 = DIRECTION ( 'NONE',  ( -3.491481338843133355E-15, 1.224646799147353207E-16, -1.000000000000000000 ) ) ;
#163 = ORIENTED_EDGE ( 'NONE', *, *, #297, .F. ) ;
#164 = EDGE_LOOP ( 'NONE', ( #290, #211, #216 ) ) ;
#165 = CIRCLE ( 'NONE', #15, 3.499999999999986677 ) ;
#166 = VERTEX_POINT ( 'NONE', #152 ) ;
#167 = AXIS2_PLACEMENT_3D ( 'NONE', #226, #41, #329 ) ;
#168 = CARTESIAN_POINT ( 'NONE',  ( 1.496541006063932272E-30, 3.499999999999992450, 4.286263797015726734E-16 ) ) ;
#169 = APPROVAL ( #102, 'UNSPECIFIED' ) ;
#170 = DIRECTION ( 'NONE',  ( 0.0000000000000000000, 1.000000000000000000, 0.0000000000000000000 ) ) ;
#171 = CARTESIAN_POINT ( 'NONE',  ( 4.774345698275653827E-14, -3.499999999999992006, 25.00000000000000000 ) ) ;
#172 = CONICAL_SURFACE ( 'NONE', #22, 3.499999999999986677, 1.029744258676649871 ) ;
#173 = EDGE_LOOP ( 'NONE', ( #231, #312, #286, #55 ) ) ;
#174 = DIRECTION ( 'NONE',  ( 0.0000000000000000000, 1.000000000000000000, 0.0000000000000000000 ) ) ;
#175 = DIRECTION ( 'NONE',  ( 4.275831445896958607E-31, 1.000000000000000000, 1.224646799147353207E-16 ) ) ;
#176 = CONICAL_SURFACE ( 'NONE', #23, 2.699999999999995293, 0.7853981633974512766 ) ;
#177 = CYLINDRICAL_SURFACE ( 'NONE', #189, 3.499999999999988010 ) ;
#178 = APPROVAL ( #260, 'UNSPECIFIED' ) ;
#179 = CARTESIAN_POINT ( 'NONE',  ( 2.583696190743918430E-13, 2.024675706593490802E-32, 74.00000000000000000 ) ) ;
#180 = CYLINDRICAL_SURFACE ( 'NONE', #155, 3.499999999999992450 ) ;
#181 = VECTOR ( 'NONE', #124, 1000.000000000000000 ) ;
#182 = CALENDAR_DATE ( 2021, 3, 9 ) ;
#183 = COORDINATED_UNIVERSAL_TIME_OFFSET ( 1, 0, .AHEAD. ) ;
#184 = ORIENTED_EDGE ( 'NONE', *, *, #193, .T. ) ;
#185 = EDGE_CURVE ( 'NONE', #263, #314, #93, .T. ) ;
#186 = COORDINATED_UNIVERSAL_TIME_OFFSET ( 1, 0, .AHEAD. ) ;
#187 = ORIENTED_EDGE ( 'NONE', *, *, #331, .F. ) ;
#188 = CLOSED_SHELL ( 'NONE', ( #118, #303, #50, #266, #199, #209 ) ) ;
#189 = AXIS2_PLACEMENT_3D ( 'NONE', #126, #156, #301 ) ;
#190 =( NAMED_UNIT ( * ) SI_UNIT ( $, .STERADIAN. ) SOLID_ANGLE_UNIT ( ) );
#191 = ORIENTED_EDGE ( 'NONE', *, *, #185, .T. ) ;
#192 = CARTESIAN_POINT ( 'NONE',  ( 4.286263797015712436E-16, -3.499999999999992450, -4.286263797015741525E-16 ) ) ;
#193 = EDGE_CURVE ( 'NONE', #34, #106, #254, .T. ) ;
#194 = DIRECTION ( 'NONE',  ( 4.275831445896958607E-31, 1.000000000000000000, 1.224646799147353207E-16 ) ) ;
#195 = ORIENTED_EDGE ( 'NONE', *, *, #270, .T. ) ;
#196 = ORIENTED_EDGE ( 'NONE', *, *, #132, .T. ) ;
#197 = CIRCLE ( 'NONE', #115, 3.499999999999989342 ) ;
#198 = CIRCLE ( 'NONE', #161, 2.699999999999995293 ) ;
#199 = ADVANCED_FACE ( 'NONE', ( #153 ), #305, .T. ) ;
#200 = FACE_OUTER_BOUND ( 'NONE', #258, .T. ) ;
#201 = CARTESIAN_POINT ( 'NONE',  ( 8.728703347107833388E-14, 2.624579619658238224E-32, 25.00000000000000000 ) ) ;
#202 = DIRECTION ( 'NONE',  ( 4.275831445896958607E-31, 1.000000000000000000, 1.224646799147353207E-16 ) ) ;
#203 = ADVANCED_BREP_SHAPE_REPRESENTATION ( '54626', ( #141, #20, #316 ), #205 ) ;
#204 = ADVANCED_FACE ( 'NONE', ( #129 ), #227, .T. ) ;
#205 =( GEOMETRIC_REPRESENTATION_CONTEXT ( 3 ) GLOBAL_UNCERTAINTY_ASSIGNED_CONTEXT ( ( #87 ) ) GLOBAL_UNIT_ASSIGNED_CONTEXT ( ( #105, #82, #190 ) ) REPRESENTATION_CONTEXT ( 'NONE', 'WORKASPACE' ) );
#206 = CARTESIAN_POINT ( 'NONE',  ( 2.555764340033173364E-13, -8.964414569758626729E-15, 73.20000000000000284 ) ) ;
#207 = DIRECTION ( 'NONE',  ( -3.491481338843133355E-15, 1.224646799147353207E-16, -1.000000000000000000 ) ) ;
#208 = CC_DESIGN_APPROVAL ( #256, ( #327 ) ) ;
#209 = ADVANCED_FACE ( 'NONE', ( #252 ), #99, .F. ) ;
#210 = ORIENTED_EDGE ( 'NONE', *, *, #70, .T. ) ;
#211 = ORIENTED_EDGE ( 'NONE', *, *, #279, .T. ) ;
#212 = SECURITY_CLASSIFICATION_LEVEL ( 'unclassified' ) ;
#213 = CC_DESIGN_DATE_AND_TIME_ASSIGNMENT ( #56, #262, ( #9 ) ) ;
#214 = PERSON_AND_ORGANIZATION_ROLE ( 'creator' ) ;
#215 = VECTOR ( 'NONE', #47, 1000.000000000000000 ) ;
#216 = ORIENTED_EDGE ( 'NONE', *, *, #62, .T. ) ;
#217 = CARTESIAN_POINT ( 'NONE',  ( 7.342627735031659723E-15, -2.575447118390313739E-16, 2.103012166596475385 ) ) ;
#218 = DIRECTION ( 'NONE',  ( -3.491481338843133355E-15, 1.224646799147353207E-16, -1.000000000000000000 ) ) ;
#219 = LOCAL_TIME ( 9, 53, 14.00000000000000000, #289 ) ;
#220 = ORIENTED_EDGE ( 'NONE', *, *, #150, .F. ) ;
#221 = DIRECTION ( 'NONE',  ( 3.491481338843133355E-15, -1.224646799147353207E-16, 1.000000000000000000 ) ) ;
#222 = CARTESIAN_POINT ( 'NONE',  ( 2.583696190743918430E-13, 2.699999999999986411, 74.00000000000000000 ) ) ;
#223 = CARTESIAN_POINT ( 'NONE',  ( 7.771254114733232741E-15, 3.499999999999986233, 2.103012166596475829 ) ) ;
#224 = FACE_OUTER_BOUND ( 'NONE', #146, .T. ) ;
#225 = CC_DESIGN_PERSON_AND_ORGANIZATION_ASSIGNMENT ( #28, #214, ( #9 ) ) ;
#226 = CARTESIAN_POINT ( 'NONE',  ( 7.342627735031659723E-15, -2.575447118390313739E-16, 2.103012166596475385 ) ) ;
#227 = PLANE ( 'NONE',  #244 ) ;
#228 = DIRECTION ( 'NONE',  ( 3.491481338843133355E-15, -1.224646799147353207E-16, 1.000000000000000000 ) ) ;
#229 = EDGE_CURVE ( 'NONE', #109, #166, #249, .T. ) ;
#230 = PERSON_AND_ORGANIZATION_ROLE ( 'design_supplier' ) ;
#231 = ORIENTED_EDGE ( 'NONE', *, *, #331, .T. ) ;
#232 = AXIS2_PLACEMENT_3D ( 'NONE', #332, #250, #74 ) ;
#233 = PERSON_AND_ORGANIZATION ( #282, #60 ) ;
#234 = ORIENTED_EDGE ( 'NONE', *, *, #100, .T. ) ;
#235 = COORDINATED_UNIVERSAL_TIME_OFFSET ( 1, 0, .AHEAD. ) ;
#236 = EDGE_CURVE ( 'NONE', #166, #109, #48, .T. ) ;
#237 = MECHANICAL_CONTEXT ( 'NONE', #79, 'mechanical' ) ;
#238 = EDGE_LOOP ( 'NONE', ( #334, #65 ) ) ;
#239 = DIRECTION ( 'NONE',  ( 1.000000000000000000, 0.0000000000000000000, 0.0000000000000000000 ) ) ;
#240 = EDGE_LOOP ( 'NONE', ( #210, #259, #158, #291 ) ) ;
#241 = LINE ( 'NONE', #168, #127 ) ;
#242 = CARTESIAN_POINT ( 'NONE',  ( 2.555764340033173364E-13, 3.499999999999986233, 73.20000000000000284 ) ) ;
#243 = CARTESIAN_POINT ( 'NONE',  ( 0.0000000000000000000, 0.0000000000000000000, 0.0000000000000000000 ) ) ;
#244 = AXIS2_PLACEMENT_3D ( 'NONE', #201, #228, #125 ) ;
#245 = FACE_OUTER_BOUND ( 'NONE', #238, .T. ) ;
#246 = CYLINDRICAL_SURFACE ( 'NONE', #248, 3.499999999999988010 ) ;
#247 = DIRECTION ( 'NONE',  ( -3.491481338843133355E-15, 1.224646799147353207E-16, -1.000000000000000000 ) ) ;
#248 = AXIS2_PLACEMENT_3D ( 'NONE', #299, #67, #194 ) ;
#249 = CIRCLE ( 'NONE', #280, 3.499999999999989342 ) ;
#250 = DIRECTION ( 'NONE',  ( -3.491481338843133355E-15, 1.224646799147353207E-16, -1.000000000000000000 ) ) ;
#251 = DIRECTION ( 'NONE',  ( -3.491481338843133355E-15, 1.224646799147353207E-16, -1.000000000000000000 ) ) ;
#252 = FACE_OUTER_BOUND ( 'NONE', #271, .T. ) ;
#253 = LOCAL_TIME ( 9, 53, 14.00000000000000000, #135 ) ;
#254 = LINE ( 'NONE', #46, #181 ) ;
#255 = PERSON_AND_ORGANIZATION ( #282, #60 ) ;
#256 = APPROVAL ( #336, 'UNSPECIFIED' ) ;
#257 = DATE_TIME_ROLE ( 'classification_date' ) ;
#258 = EDGE_LOOP ( 'NONE', ( #111, #7, #187, #83 ) ) ;
#259 = ORIENTED_EDGE ( 'NONE', *, *, #112, .T. ) ;
#260 = APPROVAL_STATUS ( 'not_yet_approved' ) ;
#261 = CC_DESIGN_DATE_AND_TIME_ASSIGNMENT ( #133, #257, ( #327 ) ) ;
#262 = DATE_TIME_ROLE ( 'creation_date' ) ;
#263 = VERTEX_POINT ( 'NONE', #75 ) ;
#264 = AXIS2_PLACEMENT_3D ( 'NONE', #277, #247, #304 ) ;
#265 = DIRECTION ( 'NONE',  ( -3.491481338843133355E-15, 1.224646799147353207E-16, -1.000000000000000000 ) ) ;
#266 = ADVANCED_FACE ( 'NONE', ( #98 ), #180, .T. ) ;
#267 = ORIENTED_EDGE ( 'NONE', *, *, #70, .F. ) ;
#268 = LINE ( 'NONE', #94, #335 ) ;
#269 = PRODUCT ( '54626', '54626', '', ( #237 ) ) ;
#270 = EDGE_CURVE ( 'NONE', #148, #131, #18, .T. ) ;
#271 = EDGE_LOOP ( 'NONE', ( #163, #80 ) ) ;
#272 = LOCAL_TIME ( 9, 53, 14.00000000000000000, #235 ) ;
#273 = LINE ( 'NONE', #222, #59 ) ;
#274 = FACE_OUTER_BOUND ( 'NONE', #143, .T. ) ;
#275 = DIRECTION ( 'NONE',  ( -3.491481338843133355E-15, 1.224646799147353207E-16, -1.000000000000000000 ) ) ;
#276 = DIRECTION ( 'NONE',  ( -2.382254525458708792E-15, -0.7071067811865495711, -0.7071067811865455743 ) ) ;
#277 = CARTESIAN_POINT ( 'NONE',  ( 2.583696190743918430E-13, -9.062386313690413585E-15, 74.00000000000000000 ) ) ;
#278 = CARTESIAN_POINT ( 'NONE',  ( 1.496541006063930345E-30, 3.499999999999988010, 4.286263797015721311E-16 ) ) ;
#279 = EDGE_CURVE ( 'NONE', #34, #131, #333, .T. ) ;
#280 = AXIS2_PLACEMENT_3D ( 'NONE', #44, #207, #19 ) ;
#281 = DATE_AND_TIME ( #182, #253 ) ;
#282 = PERSON ( 'UNSPECIFIED', 'UNSPECIFIED', 'UNSPECIFIED', ('UNSPECIFIED'), ('UNSPECIFIED'), ('UNSPECIFIED') ) ;
#283 = ORIENTED_EDGE ( 'NONE', *, *, #160, .T. ) ;
#284 = ADVANCED_FACE ( 'NONE', ( #224 ), #177, .T. ) ;
#285 = PERSON_AND_ORGANIZATION ( #282, #60 ) ;
#286 = ORIENTED_EDGE ( 'NONE', *, *, #236, .F. ) ;
#287 = LOCAL_TIME ( 9, 53, 14.00000000000000000, #186 ) ;
#288 = DIRECTION ( 'NONE',  ( 0.0000000000000000000, 1.000000000000000000, 0.0000000000000000000 ) ) ;
#289 = COORDINATED_UNIVERSAL_TIME_OFFSET ( 1, 0, .AHEAD. ) ;
#290 = ORIENTED_EDGE ( 'NONE', *, *, #193, .F. ) ;
#291 = ORIENTED_EDGE ( 'NONE', *, *, #270, .F. ) ;
#292 = ADVANCED_FACE ( 'NONE', ( #274 ), #4, .T. ) ;
#293 = CC_DESIGN_APPROVAL ( #169, ( #97 ) ) ;
#294 = CARTESIAN_POINT ( 'NONE',  ( 7.771254114733232741E-15, 3.499999999999986233, 2.103012166596475829 ) ) ;
#295 = DESIGN_CONTEXT ( 'detailed design', #322, 'design' ) ;
#296 = DIRECTION ( 'NONE',  ( -2.468850131082257455E-15, 0.7071067811865497932, -0.7071067811865453523 ) ) ;
#297 = EDGE_CURVE ( 'NONE', #314, #263, #198, .T. ) ;
#298 = DIRECTION ( 'NONE',  ( -3.491481338843133355E-15, 1.224646799147353207E-16, -1.000000000000000000 ) ) ;
#299 = CARTESIAN_POINT ( 'NONE',  ( 0.0000000000000000000, 0.0000000000000000000, 0.0000000000000000000 ) ) ;
#300 = CIRCLE ( 'NONE', #116, 3.499999999999989342 ) ;
#301 = DIRECTION ( 'NONE',  ( 4.275831445896958607E-31, 1.000000000000000000, 1.224646799147353207E-16 ) ) ;
#302 = CYLINDRICAL_SURFACE ( 'NONE', #140, 3.499999999999992450 ) ;
#303 = ADVANCED_FACE ( 'NONE', ( #306 ), #302, .T. ) ;
#304 = DIRECTION ( 'NONE',  ( 0.0000000000000000000, 1.000000000000000000, 0.0000000000000000000 ) ) ;
#305 = CONICAL_SURFACE ( 'NONE', #232, 2.699999999999995293, 0.7853981633974512766 ) ;
#306 = FACE_OUTER_BOUND ( 'NONE', #173, .T. ) ;
#307 = DIRECTION ( 'NONE',  ( 4.275831445896958607E-31, 1.000000000000000000, 1.224646799147353207E-16 ) ) ;
#308 = VECTOR ( 'NONE', #218, 1000.000000000000000 ) ;
#309 = VECTOR ( 'NONE', #101, 1000.000000000000114 ) ;
#310 = APPROVAL_PERSON_ORGANIZATION ( #285, #169, #31 ) ;
#311 = PERSON_AND_ORGANIZATION ( #282, #60 ) ;
#312 = ORIENTED_EDGE ( 'NONE', *, *, #30, .T. ) ;
#313 = APPLICATION_PROTOCOL_DEFINITION ( 'international standard', 'config_control_design', 1994, #79 ) ;
#314 = VERTEX_POINT ( 'NONE', #330 ) ;
#315 = CALENDAR_DATE ( 2021, 3, 9 ) ;
#316 = AXIS2_PLACEMENT_3D ( 'NONE', #138, #1, #239 ) ;
#317 = ORIENTED_EDGE ( 'NONE', *, *, #3, .T. ) ;
#318 = DIRECTION ( 'NONE',  ( 4.402125587170841573E-31, 1.000000000000000000, 1.239088197126295501E-16 ) ) ;
#319 = CIRCLE ( 'NONE', #325, 3.499999999999986677 ) ;
#320 = DIRECTION ( 'NONE',  ( 4.402125587170841573E-31, 1.000000000000000000, 1.239088197126295501E-16 ) ) ;
#321 = CC_DESIGN_PERSON_AND_ORGANIZATION_ASSIGNMENT ( #27, #54, ( #269 ) ) ;
#322 = APPLICATION_CONTEXT ( 'configuration controlled 3d designs of mechanical parts and assemblies' ) ;
#323 = CARTESIAN_POINT ( 'NONE',  ( 7.342627735031659723E-15, -2.575447118390313739E-16, 2.103012166596475385 ) ) ;
#324 = CARTESIAN_POINT ( 'NONE',  ( 7.342627735031659723E-15, -2.575447118390313739E-16, 2.103012166596475385 ) ) ;
#325 = AXIS2_PLACEMENT_3D ( 'NONE', #217, #298, #318 ) ;
#326 = DIRECTION ( 'NONE',  ( -3.491481338843133355E-15, 1.224646799147353207E-16, -1.000000000000000000 ) ) ;
#327 = SECURITY_CLASSIFICATION ( '', '', #212 ) ;
#328 = DIRECTION ( 'NONE',  ( -3.491481338843133355E-15, 1.224646799147353207E-16, -1.000000000000000000 ) ) ;
#329 = DIRECTION ( 'NONE',  ( -4.402125587170841573E-31, -1.000000000000000000, -1.239088197126295501E-16 ) ) ;
#330 = CARTESIAN_POINT ( 'NONE',  ( 2.583696190743918430E-13, 2.699999999999986411, 74.00000000000000000 ) ) ;
#331 = EDGE_CURVE ( 'NONE', #53, #139, #66, .T. ) ;
#332 = CARTESIAN_POINT ( 'NONE',  ( 2.583696190743918430E-13, -9.062386313690413585E-15, 74.00000000000000000 ) ) ;
#333 = LINE ( 'NONE', #223, #309 ) ;
#334 = ORIENTED_EDGE ( 'NONE', *, *, #236, .T. ) ;
#335 = VECTOR ( 'NONE', #326, 1000.000000000000000 ) ;
#336 = APPROVAL_STATUS ( 'not_yet_approved' ) ;
#337 = ORIENTED_EDGE ( 'NONE', *, *, #160, .F. ) ;
ENDSEC;
END-ISO-10303-21;
