ISO-10303-21;
HEADER;
FILE_DESCRIPTION (( 'STEP AP203' ),
    '1' );
FILE_NAME ('54624.step',
    '2021-09-03T07:53:05',
    ( '' ),
    ( '' ),
    'SwSTEP 2.0',
    'SolidWorks 2019',
    '' );
FILE_SCHEMA (( 'CONFIG_CONTROL_DESIGN' ));
ENDSEC;

DATA;
#1 = CALENDAR_DATE ( 2021, 3, 9 ) ;
#2 = CARTESIAN_POINT ( 'NONE',  ( 2.583696190743918430E-13, -9.062386313690413585E-15, 74.00000000000000000 ) ) ;
#3 = FACE_OUTER_BOUND ( 'NONE', #300, .T. ) ;
#4 = APPROVAL_ROLE ( '' ) ;
#5 = CIRCLE ( 'NONE', #201, 3.399999999999995470 ) ;
#6 = CARTESIAN_POINT ( 'NONE',  ( 8.728703347107833388E-14, 2.549591630525145344E-32, 25.00000000000000000 ) ) ;
#7 = APPROVAL_DATE_TIME ( #157, #139 ) ;
#8 = DIRECTION ( 'NONE',  ( 1.798245827342159528E-15, -0.8571673007021100021, 0.5150380749100580413 ) ) ;
#9 = EDGE_CURVE ( 'NONE', #117, #31, #70, .T. ) ;
#10 = ORIENTED_EDGE ( 'NONE', *, *, #15, .T. ) ;
#11 = DIRECTION ( 'NONE',  ( -3.491481338843133355E-15, 1.224646799147353207E-16, -1.000000000000000000 ) ) ;
#12 = CARTESIAN_POINT ( 'NONE',  ( 0.0000000000000000000, 0.0000000000000000000, 0.0000000000000000000 ) ) ;
#13 = AXIS2_PLACEMENT_3D ( 'NONE', #215, #11, #67 ) ;
#14 = ORIENTED_EDGE ( 'NONE', *, *, #243, .F. ) ;
#15 = EDGE_CURVE ( 'NONE', #205, #337, #242, .T. ) ;
#16 = FACE_OUTER_BOUND ( 'NONE', #183, .T. ) ;
#17 = VERTEX_POINT ( 'NONE', #62 ) ;
#18 = DIRECTION ( 'NONE',  ( 0.0000000000000000000, 1.000000000000000000, 0.0000000000000000000 ) ) ;
#19 = FACE_OUTER_BOUND ( 'NONE', #273, .T. ) ;
#20 = ORIENTED_EDGE ( 'NONE', *, *, #332, .T. ) ;
#21 = APPROVAL_PERSON_ORGANIZATION ( #75, #285, #94 ) ;
#22 = CARTESIAN_POINT ( 'NONE',  ( 7.132838371173614060E-15, -2.501862915007733656E-16, 2.042926104693719047 ) ) ;
#23 = CYLINDRICAL_SURFACE ( 'NONE', #148, 3.399999999999987921 ) ;
#24 = PERSON_AND_ORGANIZATION ( #292, #220 ) ;
#25 = ORIENTED_EDGE ( 'NONE', *, *, #324, .T. ) ;
#26 = ORIENTED_EDGE ( 'NONE', *, *, #142, .F. ) ;
#27 = AXIS2_PLACEMENT_3D ( 'NONE', #257, #136, #256 ) ;
#28 = VECTOR ( 'NONE', #251, 1000.000000000000114 ) ;
#29 = PERSON_AND_ORGANIZATION ( #292, #220 ) ;
#30 = CC_DESIGN_DATE_AND_TIME_ASSIGNMENT ( #281, #305, ( #149 ) ) ;
#31 = VERTEX_POINT ( 'NONE', #221 ) ;
#32 = DATE_AND_TIME ( #83, #229 ) ;
#33 = FACE_OUTER_BOUND ( 'NONE', #247, .T. ) ;
#34 = DIRECTION ( 'NONE',  ( 0.0000000000000000000, 1.000000000000000000, 0.0000000000000000000 ) ) ;
#35 = APPROVAL_DATE_TIME ( #241, #57 ) ;
#36 = AXIS2_PLACEMENT_3D ( 'NONE', #107, #105, #86 ) ;
#37 = LOCAL_TIME ( 9, 53, 5.000000000000000000, #315 ) ;
#38 = DIRECTION ( 'NONE',  ( 1.000000000000000000, 0.0000000000000000000, 0.0000000000000000000 ) ) ;
#39 = CC_DESIGN_PERSON_AND_ORGANIZATION_ASSIGNMENT ( #289, #66, ( #192 ) ) ;
#40 = ORIENTED_EDGE ( 'NONE', *, *, #332, .F. ) ;
#41 = DATE_AND_TIME ( #111, #160 ) ;
#42 = ORIENTED_EDGE ( 'NONE', *, *, #216, .T. ) ;
#43 = FACE_OUTER_BOUND ( 'NONE', #195, .T. ) ;
#44 = ORIENTED_EDGE ( 'NONE', *, *, #212, .F. ) ;
#45 = DIRECTION ( 'NONE',  ( 3.491481338843133355E-15, -1.224646799147353207E-16, 1.000000000000000000 ) ) ;
#46 = CARTESIAN_POINT ( 'NONE',  ( 8.728703347107833388E-14, -3.061616997868383043E-15, 25.00000000000000000 ) ) ;
#47 = AXIS2_PLACEMENT_3D ( 'NONE', #92, #133, #185 ) ;
#48 = CC_DESIGN_APPROVAL ( #285, ( #87 ) ) ;
#49 = ADVANCED_FACE ( 'NONE', ( #225 ), #293, .F. ) ;
#50 =( NAMED_UNIT ( * ) PLANE_ANGLE_UNIT ( ) SI_UNIT ( $, .RADIAN. ) );
#51 = LINE ( 'NONE', #277, #272 ) ;
#52 = DIRECTION ( 'NONE',  ( 0.0000000000000000000, 1.000000000000000000, 0.0000000000000000000 ) ) ;
#53 = CYLINDRICAL_SURFACE ( 'NONE', #218, 3.399999999999987921 ) ;
#54 = EDGE_LOOP ( 'NONE', ( #59, #200 ) ) ;
#55 = VECTOR ( 'NONE', #271, 999.9999999999998863 ) ;
#56 = DIRECTION ( 'NONE',  ( -2.468850131082300053E-15, 0.7071067811865375807, -0.7071067811865574537 ) ) ;
#57 = APPROVAL ( #85, 'UNSPECIFIED' ) ;
#58 = DIRECTION ( 'NONE',  ( 4.275831445896958607E-31, 1.000000000000000000, 1.224646799147353207E-16 ) ) ;
#59 = ORIENTED_EDGE ( 'NONE', *, *, #60, .T. ) ;
#60 = EDGE_CURVE ( 'NONE', #17, #98, #276, .T. ) ;
#61 = AXIS2_PLACEMENT_3D ( 'NONE', #302, #143, #145 ) ;
#62 = CARTESIAN_POINT ( 'NONE',  ( 8.728703347107833388E-14, 3.399999999999986144, 25.00000000000000000 ) ) ;
#63 = ORIENTED_EDGE ( 'NONE', *, *, #287, .T. ) ;
#64 = CARTESIAN_POINT ( 'NONE',  ( 2.587002737101616355E-13, -2.700000000000004619, 74.00000000000000000 ) ) ;
#65 = AXIS2_PLACEMENT_3D ( 'NONE', #249, #172, #232 ) ;
#66 = PERSON_AND_ORGANIZATION_ROLE ( 'design_owner' ) ;
#67 = DIRECTION ( 'NONE',  ( 4.275831445896958607E-31, 1.000000000000000000, 1.224646799147353207E-16 ) ) ;
#68 = ORIENTED_EDGE ( 'NONE', *, *, #262, .F. ) ;
#69 = CARTESIAN_POINT ( 'NONE',  ( 0.0000000000000000000, 0.0000000000000000000, 0.0000000000000000000 ) ) ;
#70 = LINE ( 'NONE', #89, #132 ) ;
#71 = ORIENTED_EDGE ( 'NONE', *, *, #179, .T. ) ;
#72 = CARTESIAN_POINT ( 'NONE',  ( 7.549218282883712933E-15, 3.399999999999986144, 2.042926104693719491 ) ) ;
#73 = VECTOR ( 'NONE', #93, 1000.000000000000000 ) ;
#74 = CC_DESIGN_SECURITY_CLASSIFICATION ( #149, ( #181 ) ) ;
#75 = PERSON_AND_ORGANIZATION ( #292, #220 ) ;
#76 = EDGE_LOOP ( 'NONE', ( #40, #14 ) ) ;
#77 = CARTESIAN_POINT ( 'NONE',  ( 8.728703347107833388E-14, -3.061616997868383043E-15, 25.00000000000000000 ) ) ;
#78 = AXIS2_PLACEMENT_3D ( 'NONE', #90, #322, #52 ) ;
#79 = DIRECTION ( 'NONE',  ( -3.491481338843133355E-15, 1.224646799147353207E-16, -1.000000000000000000 ) ) ;
#80 = ADVANCED_FACE ( 'NONE', ( #33 ), #328, .T. ) ;
#81 = CLOSED_SHELL ( 'NONE', ( #99, #168, #49, #113, #186, #101 ) ) ;
#82 = MANIFOLD_SOLID_BREP ( 'Corps-Déplacer/Copier1[2]', #237 ) ;
#83 = CALENDAR_DATE ( 2021, 3, 9 ) ;
#84 = CARTESIAN_POINT ( 'NONE',  ( 2.583696190743918430E-13, -9.062386313690413585E-15, 74.00000000000000000 ) ) ;
#85 = APPROVAL_STATUS ( 'not_yet_approved' ) ;
#86 = DIRECTION ( 'NONE',  ( 0.0000000000000000000, 1.000000000000000000, 0.0000000000000000000 ) ) ;
#87 = PRODUCT_DEFINITION ( 'UNKNOWN', '', #181, #197 ) ;
#88 = AXIS2_PLACEMENT_3D ( 'NONE', #84, #109, #18 ) ;
#89 = CARTESIAN_POINT ( 'NONE',  ( 4.163799117100971963E-16, -3.399999999999987921, -4.163799117101000559E-16 ) ) ;
#90 = CARTESIAN_POINT ( 'NONE',  ( 2.559255821372016181E-13, -8.976661037750096142E-15, 73.29999999999998295 ) ) ;
#91 = ORIENTED_EDGE ( 'NONE', *, *, #216, .F. ) ;
#92 = CARTESIAN_POINT ( 'NONE',  ( 7.132838371173614060E-15, -2.501862915007733656E-16, 2.042926104693719047 ) ) ;
#93 = DIRECTION ( 'NONE',  ( -3.491481338843133355E-15, 1.224646799147353207E-16, -1.000000000000000000 ) ) ;
#94 = APPROVAL_ROLE ( '' ) ;
#95 = ORIENTED_EDGE ( 'NONE', *, *, #239, .F. ) ;
#96 = CARTESIAN_POINT ( 'NONE',  ( 0.0000000000000000000, 0.0000000000000000000, 0.0000000000000000000 ) ) ;
#97 = CARTESIAN_POINT ( 'NONE',  ( 0.0000000000000000000, 0.0000000000000000000, 0.0000000000000000000 ) ) ;
#98 = VERTEX_POINT ( 'NONE', #245 ) ;
#99 = ADVANCED_FACE ( 'NONE', ( #3 ), #127, .T. ) ;
#100 = DIRECTION ( 'NONE',  ( 4.275831445896958607E-31, 1.000000000000000000, 1.224646799147353207E-16 ) ) ;
#101 = ADVANCED_FACE ( 'NONE', ( #112 ), #126, .F. ) ;
#102 = CARTESIAN_POINT ( 'NONE',  ( 8.728703347107833388E-14, 2.549591630525145344E-32, 25.00000000000000000 ) ) ;
#103 = AXIS2_PLACEMENT_3D ( 'NONE', #155, #141, #263 ) ;
#104 = COORDINATED_UNIVERSAL_TIME_OFFSET ( 1, 0, .AHEAD. ) ;
#105 = DIRECTION ( 'NONE',  ( -3.491481338843133355E-15, 1.224646799147353207E-16, -1.000000000000000000 ) ) ;
#106 = VECTOR ( 'NONE', #116, 1000.000000000000000 ) ;
#107 = CARTESIAN_POINT ( 'NONE',  ( 2.583696190743918430E-13, -9.062386313690413585E-15, 74.00000000000000000 ) ) ;
#108 = CC_DESIGN_PERSON_AND_ORGANIZATION_ASSIGNMENT ( #138, #316, ( #87 ) ) ;
#109 = DIRECTION ( 'NONE',  ( -3.491481338843133355E-15, 1.224646799147353207E-16, -1.000000000000000000 ) ) ;
#110 = SHAPE_DEFINITION_REPRESENTATION ( #209, #283 ) ;
#111 = CALENDAR_DATE ( 2021, 3, 9 ) ;
#112 = FACE_OUTER_BOUND ( 'NONE', #122, .T. ) ;
#113 = ADVANCED_FACE ( 'NONE', ( #161 ), #269, .T. ) ;
#114 = ORIENTED_EDGE ( 'NONE', *, *, #60, .F. ) ;
#115 = APPROVAL_PERSON_ORGANIZATION ( #153, #139, #4 ) ;
#116 = DIRECTION ( 'NONE',  ( -3.491481338843133355E-15, 1.224646799147353207E-16, -1.000000000000000000 ) ) ;
#117 = VERTEX_POINT ( 'NONE', #265 ) ;
#118 = FACE_OUTER_BOUND ( 'NONE', #144, .T. ) ;
#119 = FACE_OUTER_BOUND ( 'NONE', #284, .T. ) ;
#120 = AXIS2_PLACEMENT_3D ( 'NONE', #310, #268, #223 ) ;
#121 = DIRECTION ( 'NONE',  ( 4.531599869146454921E-31, 1.000000000000000000, 1.275531967630010176E-16 ) ) ;
#122 = EDGE_LOOP ( 'NONE', ( #236, #125 ) ) ;
#123 = CC_DESIGN_DATE_AND_TIME_ASSIGNMENT ( #32, #182, ( #87 ) ) ;
#124 = CIRCLE ( 'NONE', #65, 3.399999999999986589 ) ;
#125 = ORIENTED_EDGE ( 'NONE', *, *, #317, .F. ) ;
#126 = PLANE ( 'NONE',  #13 ) ;
#127 = CONICAL_SURFACE ( 'NONE', #36, 2.699999999999995293, 0.7853981633974340681 ) ;
#128 = LOCAL_TIME ( 9, 53, 5.000000000000000000, #264 ) ;
#129 = CARTESIAN_POINT ( 'NONE',  ( 7.549218282883712933E-15, 3.399999999999986144, 2.042926104693719491 ) ) ;
#130 = DIRECTION ( 'NONE',  ( -3.491481338843133355E-15, 1.224646799147353207E-16, -1.000000000000000000 ) ) ;
#131 = APPLICATION_CONTEXT ( 'configuration controlled 3d designs of mechanical parts and assemblies' ) ;
#132 = VECTOR ( 'NONE', #165, 1000.000000000000000 ) ;
#133 = DIRECTION ( 'NONE',  ( 3.491481338843133355E-15, -1.224646799147353207E-16, 1.000000000000000000 ) ) ;
#134 = APPLICATION_PROTOCOL_DEFINITION ( 'international standard', 'config_control_design', 1994, #280 ) ;
#135 = ORIENTED_EDGE ( 'NONE', *, *, #317, .T. ) ;
#136 = DIRECTION ( 'NONE',  ( 3.491481338843133355E-15, -1.224646799147353207E-16, 1.000000000000000000 ) ) ;
#137 = DIRECTION ( 'NONE',  ( -3.491481338843133355E-15, 1.224646799147353207E-16, -1.000000000000000000 ) ) ;
#138 = PERSON_AND_ORGANIZATION ( #292, #220 ) ;
#139 = APPROVAL ( #258, 'UNSPECIFIED' ) ;
#140 = CIRCLE ( 'NONE', #88, 2.699999999999995293 ) ;
#141 = DIRECTION ( 'NONE',  ( -3.491481338843133355E-15, 1.224646799147353207E-16, -1.000000000000000000 ) ) ;
#142 = EDGE_CURVE ( 'NONE', #246, #337, #5, .T. ) ;
#143 = DIRECTION ( 'NONE',  ( -3.491481338843133355E-15, 1.224646799147353207E-16, -1.000000000000000000 ) ) ;
#144 = EDGE_LOOP ( 'NONE', ( #252, #177, #42 ) ) ;
#145 = DIRECTION ( 'NONE',  ( 0.0000000000000000000, 1.000000000000000000, 0.0000000000000000000 ) ) ;
#146 = ORIENTED_EDGE ( 'NONE', *, *, #243, .T. ) ;
#147 = CARTESIAN_POINT ( 'NONE',  ( 4.163799117100977386E-16, -3.399999999999992362, -4.163799117101005983E-16 ) ) ;
#148 = AXIS2_PLACEMENT_3D ( 'NONE', #97, #330, #100 ) ;
#149 = SECURITY_CLASSIFICATION ( '', '', #235 ) ;
#150 = CARTESIAN_POINT ( 'NONE',  ( 2.559255821372016181E-13, 3.399999999999986144, 73.29999999999998295 ) ) ;
#151 = PERSON_AND_ORGANIZATION_ROLE ( 'design_supplier' ) ;
#152 = CC_DESIGN_PERSON_AND_ORGANIZATION_ASSIGNMENT ( #261, #178, ( #181 ) ) ;
#153 = PERSON_AND_ORGANIZATION ( #292, #220 ) ;
#154 = ORIENTED_EDGE ( 'NONE', *, *, #298, .T. ) ;
#155 = CARTESIAN_POINT ( 'NONE',  ( 8.728703347107833388E-14, -3.061616997868383043E-15, 25.00000000000000000 ) ) ;
#156 = CC_DESIGN_PERSON_AND_ORGANIZATION_ASSIGNMENT ( #29, #151, ( #181 ) ) ;
#157 = DATE_AND_TIME ( #1, #128 ) ;
#158 = PERSON_AND_ORGANIZATION ( #292, #220 ) ;
#159 = AXIS2_PLACEMENT_3D ( 'NONE', #77, #253, #230 ) ;
#160 = LOCAL_TIME ( 9, 53, 5.000000000000000000, #166 ) ;
#161 = FACE_OUTER_BOUND ( 'NONE', #250, .T. ) ;
#162 = ORIENTED_EDGE ( 'NONE', *, *, #15, .F. ) ;
#163 = CARTESIAN_POINT ( 'NONE',  ( 2.559255821372016181E-13, -8.976661037750096142E-15, 73.29999999999998295 ) ) ;
#164 = VERTEX_POINT ( 'NONE', #69 ) ;
#165 = DIRECTION ( 'NONE',  ( -3.491481338843133355E-15, 1.224646799147353207E-16, -1.000000000000000000 ) ) ;
#166 = COORDINATED_UNIVERSAL_TIME_OFFSET ( 1, 0, .AHEAD. ) ;
#167 = VERTEX_POINT ( 'NONE', #129 ) ;
#168 = ADVANCED_FACE ( 'NONE', ( #43 ), #213, .T. ) ;
#169 = CONICAL_SURFACE ( 'NONE', #286, 2.699999999999995293, 0.7853981633974340681 ) ;
#170 = AXIS2_PLACEMENT_3D ( 'NONE', #2, #130, #313 ) ;
#171 = CARTESIAN_POINT ( 'NONE',  ( 2.583696190743918430E-13, -9.062386313690413585E-15, 74.00000000000000000 ) ) ;
#172 = DIRECTION ( 'NONE',  ( -3.491481338843133355E-15, 1.224646799147353207E-16, -1.000000000000000000 ) ) ;
#173 = EDGE_CURVE ( 'NONE', #164, #31, #295, .T. ) ;
#174 = AXIS2_PLACEMENT_3D ( 'NONE', #22, #278, #121 ) ;
#175 = CC_DESIGN_APPROVAL ( #57, ( #181 ) ) ;
#176 = LINE ( 'NONE', #207, #73 ) ;
#177 = ORIENTED_EDGE ( 'NONE', *, *, #173, .T. ) ;
#178 = PERSON_AND_ORGANIZATION_ROLE ( 'creator' ) ;
#179 = EDGE_CURVE ( 'NONE', #270, #205, #140, .T. ) ;
#180 = AXIS2_PLACEMENT_3D ( 'NONE', #6, #45, #321 ) ;
#181 = PRODUCT_DEFINITION_FORMATION_WITH_SPECIFIED_SOURCE ( 'ANY', '', #192, .NOT_KNOWN. ) ;
#182 = DATE_TIME_ROLE ( 'creation_date' ) ;
#183 = EDGE_LOOP ( 'NONE', ( #327, #146, #294, #91 ) ) ;
#184 = CALENDAR_DATE ( 2021, 3, 9 ) ;
#185 = DIRECTION ( 'NONE',  ( -4.531599869146454921E-31, -1.000000000000000000, -1.275531967630010176E-16 ) ) ;
#186 = ADVANCED_FACE ( 'NONE', ( #119 ), #169, .T. ) ;
#187 = CIRCLE ( 'NONE', #78, 3.399999999999995470 ) ;
#188 = AXIS2_PLACEMENT_3D ( 'NONE', #12, #319, #38 ) ;
#189 = MANIFOLD_SOLID_BREP ( 'Corps-Déplacer/Copier1[1]', #81 ) ;
#190 = VERTEX_POINT ( 'NONE', #202 ) ;
#191 = UNCERTAINTY_MEASURE_WITH_UNIT (LENGTH_MEASURE( 1.000000000000000082E-05 ), #214, 'distance_accuracy_value', 'NONE');
#192 = PRODUCT ( '54624', '54624', '', ( #296 ) ) ;
#193 = ADVANCED_FACE ( 'NONE', ( #19 ), #23, .T. ) ;
#194 = LOCAL_TIME ( 9, 53, 5.000000000000000000, #104 ) ;
#195 = EDGE_LOOP ( 'NONE', ( #331, #154, #114, #203 ) ) ;
#196 = DIRECTION ( 'NONE',  ( 4.275831445896958607E-31, 1.000000000000000000, 1.224646799147353207E-16 ) ) ;
#197 = DESIGN_CONTEXT ( 'detailed design', #131, 'design' ) ;
#198 = DIRECTION ( 'NONE',  ( -4.275831445896958607E-31, -1.000000000000000000, -1.224646799147353207E-16 ) ) ;
#199 = ORIENTED_EDGE ( 'NONE', *, *, #9, .T. ) ;
#200 = ORIENTED_EDGE ( 'NONE', *, *, #262, .T. ) ;
#201 = AXIS2_PLACEMENT_3D ( 'NONE', #163, #318, #34 ) ;
#202 = CARTESIAN_POINT ( 'NONE',  ( 8.728703347107833388E-14, 3.399999999999986144, 25.00000000000000000 ) ) ;
#203 = ORIENTED_EDGE ( 'NONE', *, *, #287, .F. ) ;
#204 = DIRECTION ( 'NONE',  ( -3.491481338843133355E-15, 1.224646799147353207E-16, -1.000000000000000000 ) ) ;
#205 = VERTEX_POINT ( 'NONE', #326 ) ;
#206 = CARTESIAN_POINT ( 'NONE',  ( 2.583696190743918430E-13, 2.699999999999986411, 74.00000000000000000 ) ) ;
#207 = CARTESIAN_POINT ( 'NONE',  ( 1.453782691604960741E-30, 3.399999999999987921, 4.163799117100986261E-16 ) ) ;
#208 = AXIS2_PLACEMENT_3D ( 'NONE', #308, #137, #196 ) ;
#209 = PRODUCT_DEFINITION_SHAPE ( 'NONE', 'NONE',  #87 ) ;
#210 = CALENDAR_DATE ( 2021, 3, 9 ) ;
#211 = EDGE_CURVE ( 'NONE', #190, #167, #176, .T. ) ;
#212 = EDGE_CURVE ( 'NONE', #270, #246, #51, .T. ) ;
#213 = CYLINDRICAL_SURFACE ( 'NONE', #208, 3.399999999999992362 ) ;
#214 =( LENGTH_UNIT ( ) NAMED_UNIT ( * ) SI_UNIT ( .MILLI., .METRE. ) );
#215 = CARTESIAN_POINT ( 'NONE',  ( 2.583696190743918430E-13, 2.024675706593490802E-32, 74.00000000000000000 ) ) ;
#216 = EDGE_CURVE ( 'NONE', #31, #167, #124, .T. ) ;
#217 = ADVANCED_FACE ( 'NONE', ( #16 ), #53, .T. ) ;
#218 = AXIS2_PLACEMENT_3D ( 'NONE', #96, #204, #58 ) ;
#219 =( GEOMETRIC_REPRESENTATION_CONTEXT ( 3 ) GLOBAL_UNCERTAINTY_ASSIGNED_CONTEXT ( ( #191 ) ) GLOBAL_UNIT_ASSIGNED_CONTEXT ( ( #214, #50, #233 ) ) REPRESENTATION_CONTEXT ( 'NONE', 'WORKASPACE' ) );
#220 = ORGANIZATION ( 'UNSPECIFIED', 'UNSPECIFIED', '' ) ;
#221 = CARTESIAN_POINT ( 'NONE',  ( 7.132838371173612482E-15, -3.399999999999987033, 2.042926104693718603 ) ) ;
#222 = APPROVAL_DATE_TIME ( #41, #285 ) ;
#223 = DIRECTION ( 'NONE',  ( 4.275831445896958607E-31, 1.000000000000000000, 1.224646799147353207E-16 ) ) ;
#224 = CIRCLE ( 'NONE', #170, 2.699999999999995293 ) ;
#225 = FACE_OUTER_BOUND ( 'NONE', #54, .T. ) ;
#226 = PLANE ( 'NONE',  #314 ) ;
#227 = ORIENTED_EDGE ( 'NONE', *, *, #212, .T. ) ;
#228 = ORIENTED_EDGE ( 'NONE', *, *, #301, .T. ) ;
#229 = LOCAL_TIME ( 9, 53, 5.000000000000000000, #266 ) ;
#230 = DIRECTION ( 'NONE',  ( 0.0000000000000000000, 1.000000000000000000, 0.0000000000000000000 ) ) ;
#231 = APPROVAL_STATUS ( 'not_yet_approved' ) ;
#232 = DIRECTION ( 'NONE',  ( 4.531599869146454921E-31, 1.000000000000000000, 1.275531967630010176E-16 ) ) ;
#233 =( NAMED_UNIT ( * ) SI_UNIT ( $, .STERADIAN. ) SOLID_ANGLE_UNIT ( ) );
#234 = AXIS2_PLACEMENT_3D ( 'NONE', #46, #336, #312 ) ;
#235 = SECURITY_CLASSIFICATION_LEVEL ( 'unclassified' ) ;
#236 = ORIENTED_EDGE ( 'NONE', *, *, #179, .F. ) ;
#237 = CLOSED_SHELL ( 'NONE', ( #193, #80, #311, #217, #291 ) ) ;
#238 = CARTESIAN_POINT ( 'NONE',  ( 7.132838371173612482E-15, -3.399999999999987033, 2.042926104693718603 ) ) ;
#239 = EDGE_CURVE ( 'NONE', #167, #31, #267, .T. ) ;
#240 = ORIENTED_EDGE ( 'NONE', *, *, #239, .T. ) ;
#241 = DATE_AND_TIME ( #184, #37 ) ;
#242 = LINE ( 'NONE', #64, #55 ) ;
#243 = EDGE_CURVE ( 'NONE', #117, #190, #248, .T. ) ;
#244 = VECTOR ( 'NONE', #79, 1000.000000000000000 ) ;
#245 = CARTESIAN_POINT ( 'NONE',  ( 1.720226877158500339E-13, -3.399999999999992362, 25.00000000000000000 ) ) ;
#246 = VERTEX_POINT ( 'NONE', #150 ) ;
#247 = EDGE_LOOP ( 'NONE', ( #325, #228, #240 ) ) ;
#248 = CIRCLE ( 'NONE', #61, 3.399999999999989253 ) ;
#249 = CARTESIAN_POINT ( 'NONE',  ( 7.132838371173614060E-15, -2.501862915007733656E-16, 2.042926104693719047 ) ) ;
#250 = EDGE_LOOP ( 'NONE', ( #307, #25, #63, #68 ) ) ;
#251 = DIRECTION ( 'NONE',  ( 1.903218546456021928E-15, 0.8571673007021098911, 0.5150380749100583744 ) ) ;
#252 = ORIENTED_EDGE ( 'NONE', *, *, #301, .F. ) ;
#253 = DIRECTION ( 'NONE',  ( -3.491481338843133355E-15, 1.224646799147353207E-16, -1.000000000000000000 ) ) ;
#254 = APPLICATION_PROTOCOL_DEFINITION ( 'international standard', 'config_control_design', 1994, #131 ) ;
#255 = DIRECTION ( 'NONE',  ( 0.0000000000000000000, 1.000000000000000000, 0.0000000000000000000 ) ) ;
#256 = DIRECTION ( 'NONE',  ( -4.531599869146454921E-31, -1.000000000000000000, -1.275531967630010176E-16 ) ) ;
#257 = CARTESIAN_POINT ( 'NONE',  ( 7.132838371173614060E-15, -2.501862915007733656E-16, 2.042926104693719047 ) ) ;
#258 = APPROVAL_STATUS ( 'not_yet_approved' ) ;
#259 = CONICAL_SURFACE ( 'NONE', #27, 3.399999999999986589, 1.029744258676649871 ) ;
#260 = CC_DESIGN_APPROVAL ( #139, ( #149 ) ) ;
#261 = PERSON_AND_ORGANIZATION ( #292, #220 ) ;
#262 = EDGE_CURVE ( 'NONE', #98, #17, #335, .T. ) ;
#263 = DIRECTION ( 'NONE',  ( 0.0000000000000000000, 1.000000000000000000, 0.0000000000000000000 ) ) ;
#264 = COORDINATED_UNIVERSAL_TIME_OFFSET ( 1, 0, .AHEAD. ) ;
#265 = CARTESIAN_POINT ( 'NONE',  ( 4.762631583283604050E-14, -3.399999999999991918, 25.00000000000000000 ) ) ;
#266 = COORDINATED_UNIVERSAL_TIME_OFFSET ( 1, 0, .AHEAD. ) ;
#267 = CIRCLE ( 'NONE', #174, 3.399999999999986589 ) ;
#268 = DIRECTION ( 'NONE',  ( -3.491481338843133355E-15, 1.224646799147353207E-16, -1.000000000000000000 ) ) ;
#269 = CYLINDRICAL_SURFACE ( 'NONE', #120, 3.399999999999992362 ) ;
#270 = VERTEX_POINT ( 'NONE', #206 ) ;
#271 = DIRECTION ( 'NONE',  ( -2.382254525458752574E-15, -0.7071067811865373587, -0.7071067811865577868 ) ) ;
#272 = VECTOR ( 'NONE', #56, 1000.000000000000000 ) ;
#273 = EDGE_LOOP ( 'NONE', ( #20, #199, #95, #329 ) ) ;
#274 = DIRECTION ( 'NONE',  ( -3.491481338843133355E-15, 1.224646799147353207E-16, -1.000000000000000000 ) ) ;
#275 = CARTESIAN_POINT ( 'NONE',  ( 1.453782691604962668E-30, 3.399999999999992362, 4.163799117100991685E-16 ) ) ;
#276 = CIRCLE ( 'NONE', #103, 3.399999999999989253 ) ;
#277 = CARTESIAN_POINT ( 'NONE',  ( 2.583696190743918430E-13, 2.699999999999986411, 74.00000000000000000 ) ) ;
#278 = DIRECTION ( 'NONE',  ( -3.491481338843133355E-15, 1.224646799147353207E-16, -1.000000000000000000 ) ) ;
#279 = CC_DESIGN_PERSON_AND_ORGANIZATION_ASSIGNMENT ( #24, #334, ( #149 ) ) ;
#280 = APPLICATION_CONTEXT ( 'configuration controlled 3d designs of mechanical parts and assemblies' ) ;
#281 = DATE_AND_TIME ( #210, #194 ) ;
#282 = APPROVAL_PERSON_ORGANIZATION ( #158, #57, #288 ) ;
#283 = ADVANCED_BREP_SHAPE_REPRESENTATION ( '54624', ( #189, #82, #188 ), #219 ) ;
#284 = EDGE_LOOP ( 'NONE', ( #162, #135, #227, #290 ) ) ;
#285 = APPROVAL ( #231, 'UNSPECIFIED' ) ;
#286 = AXIS2_PLACEMENT_3D ( 'NONE', #171, #274, #255 ) ;
#287 = EDGE_CURVE ( 'NONE', #246, #17, #333, .T. ) ;
#288 = APPROVAL_ROLE ( '' ) ;
#289 = PERSON_AND_ORGANIZATION ( #292, #220 ) ;
#290 = ORIENTED_EDGE ( 'NONE', *, *, #324, .F. ) ;
#291 = ADVANCED_FACE ( 'NONE', ( #303 ), #226, .T. ) ;
#292 = PERSON ( 'UNSPECIFIED', 'UNSPECIFIED', 'UNSPECIFIED', ('UNSPECIFIED'), ('UNSPECIFIED'), ('UNSPECIFIED') ) ;
#293 = PLANE ( 'NONE',  #180 ) ;
#294 = ORIENTED_EDGE ( 'NONE', *, *, #211, .T. ) ;
#295 = LINE ( 'NONE', #238, #306 ) ;
#296 = MECHANICAL_CONTEXT ( 'NONE', #280, 'mechanical' ) ;
#297 = LINE ( 'NONE', #72, #28 ) ;
#298 = EDGE_CURVE ( 'NONE', #337, #98, #304, .T. ) ;
#299 = CIRCLE ( 'NONE', #234, 3.399999999999989253 ) ;
#300 = EDGE_LOOP ( 'NONE', ( #71, #10, #26, #44 ) ) ;
#301 = EDGE_CURVE ( 'NONE', #164, #167, #297, .T. ) ;
#302 = CARTESIAN_POINT ( 'NONE',  ( 8.728703347107833388E-14, -3.061616997868383043E-15, 25.00000000000000000 ) ) ;
#303 = FACE_OUTER_BOUND ( 'NONE', #76, .T. ) ;
#304 = LINE ( 'NONE', #147, #244 ) ;
#305 = DATE_TIME_ROLE ( 'classification_date' ) ;
#306 = VECTOR ( 'NONE', #8, 1000.000000000000000 ) ;
#307 = ORIENTED_EDGE ( 'NONE', *, *, #298, .F. ) ;
#308 = CARTESIAN_POINT ( 'NONE',  ( 0.0000000000000000000, 0.0000000000000000000, 0.0000000000000000000 ) ) ;
#309 = CARTESIAN_POINT ( 'NONE',  ( 1.720226877158499329E-13, -3.400000000000004796, 73.29999999999998295 ) ) ;
#310 = CARTESIAN_POINT ( 'NONE',  ( 0.0000000000000000000, 0.0000000000000000000, 0.0000000000000000000 ) ) ;
#311 = ADVANCED_FACE ( 'NONE', ( #118 ), #259, .T. ) ;
#312 = DIRECTION ( 'NONE',  ( 0.0000000000000000000, 1.000000000000000000, 0.0000000000000000000 ) ) ;
#313 = DIRECTION ( 'NONE',  ( 0.0000000000000000000, 1.000000000000000000, 0.0000000000000000000 ) ) ;
#314 = AXIS2_PLACEMENT_3D ( 'NONE', #102, #323, #198 ) ;
#315 = COORDINATED_UNIVERSAL_TIME_OFFSET ( 1, 0, .AHEAD. ) ;
#316 = PERSON_AND_ORGANIZATION_ROLE ( 'creator' ) ;
#317 = EDGE_CURVE ( 'NONE', #205, #270, #224, .T. ) ;
#318 = DIRECTION ( 'NONE',  ( -3.491481338843133355E-15, 1.224646799147353207E-16, -1.000000000000000000 ) ) ;
#319 = DIRECTION ( 'NONE',  ( 0.0000000000000000000, 0.0000000000000000000, 1.000000000000000000 ) ) ;
#320 = PRODUCT_RELATED_PRODUCT_CATEGORY ( 'detail', '', ( #192 ) ) ;
#321 = DIRECTION ( 'NONE',  ( -4.275831445896958607E-31, -1.000000000000000000, -1.224646799147353207E-16 ) ) ;
#322 = DIRECTION ( 'NONE',  ( -3.491481338843133355E-15, 1.224646799147353207E-16, -1.000000000000000000 ) ) ;
#323 = DIRECTION ( 'NONE',  ( 3.491481338843133355E-15, -1.224646799147353207E-16, 1.000000000000000000 ) ) ;
#324 = EDGE_CURVE ( 'NONE', #337, #246, #187, .T. ) ;
#325 = ORIENTED_EDGE ( 'NONE', *, *, #173, .F. ) ;
#326 = CARTESIAN_POINT ( 'NONE',  ( 2.575211178795366337E-13, -2.700000000000004619, 74.00000000000000000 ) ) ;
#327 = ORIENTED_EDGE ( 'NONE', *, *, #9, .F. ) ;
#328 = CONICAL_SURFACE ( 'NONE', #47, 3.399999999999986589, 1.029744258676649871 ) ;
#329 = ORIENTED_EDGE ( 'NONE', *, *, #211, .F. ) ;
#330 = DIRECTION ( 'NONE',  ( -3.491481338843133355E-15, 1.224646799147353207E-16, -1.000000000000000000 ) ) ;
#331 = ORIENTED_EDGE ( 'NONE', *, *, #142, .T. ) ;
#332 = EDGE_CURVE ( 'NONE', #190, #117, #299, .T. ) ;
#333 = LINE ( 'NONE', #275, #106 ) ;
#334 = PERSON_AND_ORGANIZATION_ROLE ( 'classification_officer' ) ;
#335 = CIRCLE ( 'NONE', #159, 3.399999999999989253 ) ;
#336 = DIRECTION ( 'NONE',  ( -3.491481338843133355E-15, 1.224646799147353207E-16, -1.000000000000000000 ) ) ;
#337 = VERTEX_POINT ( 'NONE', #309 ) ;
ENDSEC;
END-ISO-10303-21;
