ISO-10303-21;
HEADER;
FILE_DESCRIPTION (( 'STEP AP203' ),
    '1' );
FILE_NAME ('54623.step',
    '2021-09-03T07:53:00',
    ( '' ),
    ( '' ),
    'SwSTEP 2.0',
    'SolidWorks 2019',
    '' );
FILE_SCHEMA (( 'CONFIG_CONTROL_DESIGN' ));
ENDSEC;

DATA;
#1 = LINE ( 'NONE', #98, #171 ) ;
#2 = DIRECTION ( 'NONE',  ( 0.0000000000000000000, 1.000000000000000000, 0.0000000000000000000 ) ) ;
#3 = FACE_OUTER_BOUND ( 'NONE', #95, .T. ) ;
#4 = AXIS2_PLACEMENT_3D ( 'NONE', #287, #122, #25 ) ;
#5 = CARTESIAN_POINT ( 'NONE',  ( 1.432403534375477954E-30, 3.349999999999992095, 4.102566777143623913E-16 ) ) ;
#6 = CARTESIAN_POINT ( 'NONE',  ( 7.438200366958953817E-15, 3.349999999999986766, 2.012883073742341100 ) ) ;
#7 = ADVANCED_FACE ( 'NONE', ( #116 ), #169, .T. ) ;
#8 = FACE_OUTER_BOUND ( 'NONE', #308, .T. ) ;
#9 = DIRECTION ( 'NONE',  ( -3.491481338843133355E-15, 1.224646799147353207E-16, -1.000000000000000000 ) ) ;
#10 = CALENDAR_DATE ( 2021, 3, 9 ) ;
#11 = ORIENTED_EDGE ( 'NONE', *, *, #133, .T. ) ;
#12 = ORIENTED_EDGE ( 'NONE', *, *, #307, .F. ) ;
#13 = LOCAL_TIME ( 9, 53, 0.0000000000000000000, #301 ) ;
#14 = EDGE_CURVE ( 'NONE', #46, #196, #229, .T. ) ;
#15 = CALENDAR_DATE ( 2021, 3, 9 ) ;
#16 = PRODUCT_RELATED_PRODUCT_CATEGORY ( 'detail', '', ( #192 ) ) ;
#17 = VERTEX_POINT ( 'NONE', #271 ) ;
#18 = DATE_AND_TIME ( #270, #273 ) ;
#19 = ORIENTED_EDGE ( 'NONE', *, *, #88, .F. ) ;
#20 = APPROVAL_DATE_TIME ( #305, #209 ) ;
#21 = ORIENTED_EDGE ( 'NONE', *, *, #86, .F. ) ;
#22 = AXIS2_PLACEMENT_3D ( 'NONE', #30, #128, #129 ) ;
#23 = DATE_TIME_ROLE ( 'creation_date' ) ;
#24 = ORIENTED_EDGE ( 'NONE', *, *, #86, .T. ) ;
#25 = DIRECTION ( 'NONE',  ( -4.275831445896958607E-31, -1.000000000000000000, -1.224646799147353207E-16 ) ) ;
#26 = FACE_OUTER_BOUND ( 'NONE', #327, .T. ) ;
#27 = CIRCLE ( 'NONE', #297, 3.349999999999989431 ) ;
#28 = AXIS2_PLACEMENT_3D ( 'NONE', #260, #76, #311 ) ;
#29 = CARTESIAN_POINT ( 'NONE',  ( 7.438200366958953817E-15, 3.349999999999986766, 2.012883073742341100 ) ) ;
#30 = CARTESIAN_POINT ( 'NONE',  ( 2.444036937190193601E-13, 1.987181712026944909E-32, 70.00000000000000000 ) ) ;
#31 = LINE ( 'NONE', #175, #56 ) ;
#32 = EDGE_CURVE ( 'NONE', #17, #49, #77, .T. ) ;
#33 = DIRECTION ( 'NONE',  ( 0.0000000000000000000, 1.000000000000000000, 0.0000000000000000000 ) ) ;
#34 = VECTOR ( 'NONE', #312, 1000.000000000000000 ) ;
#35 = CARTESIAN_POINT ( 'NONE',  ( 2.435490692901684531E-13, -2.650000000000003908, 70.00000000000000000 ) ) ;
#36 = LINE ( 'NONE', #292, #85 ) ;
#37 = DIRECTION ( 'NONE',  ( 1.000000000000000000, 0.0000000000000000000, 0.0000000000000000000 ) ) ;
#38 = VECTOR ( 'NONE', #64, 1000.000000000000114 ) ;
#39 = LOCAL_TIME ( 9, 53, 0.0000000000000000000, #215 ) ;
#40 = DIRECTION ( 'NONE',  ( -3.491481338843133355E-15, 1.224646799147353207E-16, -1.000000000000000000 ) ) ;
#41 = APPROVAL_ROLE ( '' ) ;
#42 = ORIENTED_EDGE ( 'NONE', *, *, #14, .F. ) ;
#43 = DATE_AND_TIME ( #193, #39 ) ;
#44 = CARTESIAN_POINT ( 'NONE',  ( 8.030407079339205455E-14, -2.816687638038912352E-15, 23.00000000000000000 ) ) ;
#45 = APPROVAL_ROLE ( '' ) ;
#46 = VERTEX_POINT ( 'NONE', #180 ) ;
#47 = PERSON_AND_ORGANIZATION ( #121, #179 ) ;
#48 = ADVANCED_FACE ( 'NONE', ( #200 ), #223, .F. ) ;
#49 = VERTEX_POINT ( 'NONE', #174 ) ;
#50 = APPROVAL_STATUS ( 'not_yet_approved' ) ;
#51 = ORIENTED_EDGE ( 'NONE', *, *, #181, .T. ) ;
#52 = CC_DESIGN_SECURITY_CLASSIFICATION ( #137, ( #263 ) ) ;
#53 = DIRECTION ( 'NONE',  ( 0.0000000000000000000, 1.000000000000000000, 0.0000000000000000000 ) ) ;
#54 = DIRECTION ( 'NONE',  ( -3.491481338843133355E-15, 1.224646799147353207E-16, -1.000000000000000000 ) ) ;
#55 = DIRECTION ( 'NONE',  ( -3.491481338843133355E-15, 1.224646799147353207E-16, -1.000000000000000000 ) ) ;
#56 = VECTOR ( 'NONE', #54, 1000.000000000000000 ) ;
#57 = CARTESIAN_POINT ( 'NONE',  ( 7.027943689244588862E-15, -3.349999999999987654, 2.012883073742340212 ) ) ;
#58 = ADVANCED_FACE ( 'NONE', ( #3 ), #80, .T. ) ;
#59 = DIRECTION ( 'NONE',  ( 4.275831445896959482E-31, 1.000000000000000000, 1.224646799147353207E-16 ) ) ;
#60 = DIRECTION ( 'NONE',  ( -3.491481338843133355E-15, 1.224646799147353207E-16, -1.000000000000000000 ) ) ;
#61 = DESIGN_CONTEXT ( 'detailed design', #89, 'design' ) ;
#62 = CARTESIAN_POINT ( 'NONE',  ( 0.0000000000000000000, 0.0000000000000000000, 0.0000000000000000000 ) ) ;
#63 = AXIS2_PLACEMENT_3D ( 'NONE', #334, #313, #59 ) ;
#64 = DIRECTION ( 'NONE',  ( 1.903218546456021928E-15, 0.8571673007021098911, 0.5150380749100583744 ) ) ;
#65 = CARTESIAN_POINT ( 'NONE',  ( 2.444036937190193601E-13, 2.649999999999986589, 70.00000000000000000 ) ) ;
#66 = LOCAL_TIME ( 9, 53, 0.0000000000000000000, #330 ) ;
#67 = DATE_AND_TIME ( #15, #66 ) ;
#68 = EDGE_LOOP ( 'NONE', ( #172, #325 ) ) ;
#69 = PERSON_AND_ORGANIZATION_ROLE ( 'creator' ) ;
#70 = ORIENTED_EDGE ( 'NONE', *, *, #222, .T. ) ;
#71 = AXIS2_PLACEMENT_3D ( 'NONE', #182, #293, #186 ) ;
#72 = ADVANCED_FACE ( 'NONE', ( #227 ), #155, .T. ) ;
#73 = EDGE_LOOP ( 'NONE', ( #269, #70, #300, #21 ) ) ;
#74 = PERSON_AND_ORGANIZATION ( #121, #179 ) ;
#75 = CARTESIAN_POINT ( 'NONE',  ( 8.030407079339205455E-14, -2.816687638038912352E-15, 23.00000000000000000 ) ) ;
#76 = DIRECTION ( 'NONE',  ( -3.491481338843133355E-15, 1.224646799147353207E-16, -1.000000000000000000 ) ) ;
#77 = CIRCLE ( 'NONE', #104, 3.349999999999989431 ) ;
#78 = CARTESIAN_POINT ( 'NONE',  ( 1.615421204653248226E-13, -3.350000000000004086, 69.29999999999999716 ) ) ;
#79 = EDGE_CURVE ( 'NONE', #96, #170, #241, .T. ) ;
#80 = CYLINDRICAL_SURFACE ( 'NONE', #28, 3.349999999999988542 ) ;
#81 = CARTESIAN_POINT ( 'NONE',  ( 8.030407079339205455E-14, -2.816687638038912352E-15, 23.00000000000000000 ) ) ;
#82 = FACE_OUTER_BOUND ( 'NONE', #73, .T. ) ;
#83 = DIRECTION ( 'NONE',  ( 0.0000000000000000000, 1.000000000000000000, 0.0000000000000000000 ) ) ;
#84 =( NAMED_UNIT ( * ) SI_UNIT ( $, .STERADIAN. ) SOLID_ANGLE_UNIT ( ) );
#85 = VECTOR ( 'NONE', #315, 1000.000000000000000 ) ;
#86 = EDGE_CURVE ( 'NONE', #49, #17, #27, .T. ) ;
#87 = CARTESIAN_POINT ( 'NONE',  ( 2.444036937190193601E-13, -8.572527594031472993E-15, 70.00000000000000000 ) ) ;
#88 = EDGE_CURVE ( 'NONE', #249, #120, #127, .T. ) ;
#89 = APPLICATION_CONTEXT ( 'configuration controlled 3d designs of mechanical parts and assemblies' ) ;
#90 = PERSON_AND_ORGANIZATION_ROLE ( 'creator' ) ;
#91 = ORIENTED_EDGE ( 'NONE', *, *, #94, .F. ) ;
#92 = DATE_TIME_ROLE ( 'classification_date' ) ;
#93 = EDGE_LOOP ( 'NONE', ( #11, #147, #145, #114 ) ) ;
#94 = EDGE_CURVE ( 'NONE', #46, #170, #31, .T. ) ;
#95 = EDGE_LOOP ( 'NONE', ( #12, #329, #302, #173 ) ) ;
#96 = VERTEX_POINT ( 'NONE', #57 ) ;
#97 = ORIENTED_EDGE ( 'NONE', *, *, #181, .F. ) ;
#98 = CARTESIAN_POINT ( 'NONE',  ( 7.027943689244588862E-15, -3.349999999999987654, 2.012883073742340212 ) ) ;
#99 = APPROVAL ( #276, 'UNSPECIFIED' ) ;
#100 = PLANE ( 'NONE',  #266 ) ;
#101 = CARTESIAN_POINT ( 'NONE',  ( 2.447282251207934045E-13, -2.650000000000003908, 70.00000000000000000 ) ) ;
#102 = ADVANCED_FACE ( 'NONE', ( #255 ), #100, .T. ) ;
#103 = DIRECTION ( 'NONE',  ( 4.599235688088939205E-31, 1.000000000000000000, 1.294569758191652086E-16 ) ) ;
#104 = AXIS2_PLACEMENT_3D ( 'NONE', #44, #244, #53 ) ;
#105 = DIRECTION ( 'NONE',  ( 3.491481338843133355E-15, -1.224646799147353207E-16, 1.000000000000000000 ) ) ;
#106 = DIRECTION ( 'NONE',  ( -3.491481338843133355E-15, 1.224646799147353207E-16, -1.000000000000000000 ) ) ;
#107 = CARTESIAN_POINT ( 'NONE',  ( 0.0000000000000000000, 0.0000000000000000000, 0.0000000000000000000 ) ) ;
#108 = APPLICATION_PROTOCOL_DEFINITION ( 'international standard', 'config_control_design', 1994, #316 ) ;
#109 = ADVANCED_FACE ( 'NONE', ( #259 ), #130, .T. ) ;
#110 = CARTESIAN_POINT ( 'NONE',  ( 4.102566777143605178E-16, -3.349999999999988542, -4.102566777143632788E-16 ) ) ;
#111 = APPROVAL_STATUS ( 'not_yet_approved' ) ;
#112 = DIRECTION ( 'NONE',  ( -3.491481338843133355E-15, 1.224646799147353207E-16, -1.000000000000000000 ) ) ;
#113 = PERSON_AND_ORGANIZATION ( #121, #179 ) ;
#114 = ORIENTED_EDGE ( 'NONE', *, *, #258, .F. ) ;
#115 = PERSON_AND_ORGANIZATION ( #121, #179 ) ;
#116 = FACE_OUTER_BOUND ( 'NONE', #118, .T. ) ;
#117 = PERSON_AND_ORGANIZATION ( #121, #179 ) ;
#118 = EDGE_LOOP ( 'NONE', ( #240, #191, #246 ) ) ;
#119 = AXIS2_PLACEMENT_3D ( 'NONE', #336, #55, #310 ) ;
#120 = VERTEX_POINT ( 'NONE', #153 ) ;
#121 = PERSON ( 'UNSPECIFIED', 'UNSPECIFIED', 'UNSPECIFIED', ('UNSPECIFIED'), ('UNSPECIFIED'), ('UNSPECIFIED') ) ;
#122 = DIRECTION ( 'NONE',  ( 3.491481338843133355E-15, -1.224646799147353207E-16, 1.000000000000000000 ) ) ;
#123 = CARTESIAN_POINT ( 'NONE',  ( 2.444036937190193601E-13, -8.572527594031472993E-15, 70.00000000000000000 ) ) ;
#124 = CIRCLE ( 'NONE', #163, 3.349999999999989431 ) ;
#125 = APPROVAL_PERSON_ORGANIZATION ( #117, #209, #189 ) ;
#126 = ADVANCED_FACE ( 'NONE', ( #199 ), #252, .F. ) ;
#127 = LINE ( 'NONE', #154, #34 ) ;
#128 = DIRECTION ( 'NONE',  ( -3.491481338843133355E-15, 1.224646799147353207E-16, -1.000000000000000000 ) ) ;
#129 = DIRECTION ( 'NONE',  ( 4.275831445896958607E-31, 1.000000000000000000, 1.224646799147353207E-16 ) ) ;
#130 = CONICAL_SURFACE ( 'NONE', #284, 2.649999999999995026, 0.7853981633974439491 ) ;
#131 = AXIS2_PLACEMENT_3D ( 'NONE', #62, #158, #37 ) ;
#132 = CYLINDRICAL_SURFACE ( 'NONE', #235, 3.349999999999988542 ) ;
#133 = EDGE_CURVE ( 'NONE', #120, #148, #135, .T. ) ;
#134 = CARTESIAN_POINT ( 'NONE',  ( 2.444036937190193601E-13, -8.572527594031472993E-15, 70.00000000000000000 ) ) ;
#135 = CIRCLE ( 'NONE', #150, 3.349999999999995204 ) ;
#136 = CARTESIAN_POINT ( 'NONE',  ( 2.419596567818291352E-13, -8.486802318091157127E-15, 69.29999999999999716 ) ) ;
#137 = SECURITY_CLASSIFICATION ( '', '', #299 ) ;
#138 = EDGE_CURVE ( 'NONE', #220, #96, #1, .T. ) ;
#139 = LINE ( 'NONE', #6, #38 ) ;
#140 = ORIENTED_EDGE ( 'NONE', *, *, #88, .T. ) ;
#141 = SHAPE_DEFINITION_REPRESENTATION ( #321, #286 ) ;
#142 = ORIENTED_EDGE ( 'NONE', *, *, #32, .T. ) ;
#143 = ADVANCED_FACE ( 'NONE', ( #82 ), #204, .T. ) ;
#144 = APPROVAL_DATE_TIME ( #43, #231 ) ;
#145 = ORIENTED_EDGE ( 'NONE', *, *, #32, .F. ) ;
#146 = DATE_AND_TIME ( #10, #13 ) ;
#147 = ORIENTED_EDGE ( 'NONE', *, *, #268, .T. ) ;
#148 = VERTEX_POINT ( 'NONE', #78 ) ;
#149 = PRODUCT_DEFINITION ( 'UNKNOWN', '', #263, #61 ) ;
#150 = AXIS2_PLACEMENT_3D ( 'NONE', #202, #176, #228 ) ;
#151 = DIRECTION ( 'NONE',  ( 0.0000000000000000000, 1.000000000000000000, 0.0000000000000000000 ) ) ;
#152 = LINE ( 'NONE', #101, #278 ) ;
#153 = CARTESIAN_POINT ( 'NONE',  ( 2.419596567818291352E-13, 3.349999999999986766, 69.29999999999999716 ) ) ;
#154 = CARTESIAN_POINT ( 'NONE',  ( 2.444036937190193601E-13, 2.649999999999986589, 70.00000000000000000 ) ) ;
#155 = CYLINDRICAL_SURFACE ( 'NONE', #63, 3.349999999999992095 ) ;
#156 = FACE_OUTER_BOUND ( 'NONE', #306, .T. ) ;
#157 = CIRCLE ( 'NONE', #188, 2.649999999999995026 ) ;
#158 = DIRECTION ( 'NONE',  ( 0.0000000000000000000, 0.0000000000000000000, 1.000000000000000000 ) ) ;
#159 = ORIENTED_EDGE ( 'NONE', *, *, #253, .T. ) ;
#160 = DIRECTION ( 'NONE',  ( -3.491481338843133355E-15, 1.224646799147353207E-16, -1.000000000000000000 ) ) ;
#161 = ORIENTED_EDGE ( 'NONE', *, *, #307, .T. ) ;
#162 = DIRECTION ( 'NONE',  ( 0.0000000000000000000, 1.000000000000000000, 0.0000000000000000000 ) ) ;
#163 = AXIS2_PLACEMENT_3D ( 'NONE', #319, #265, #267 ) ;
#164 = CARTESIAN_POINT ( 'NONE',  ( 7.027943689244590440E-15, -2.465070813316443615E-16, 2.012883073742340656 ) ) ;
#165 = ORIENTED_EDGE ( 'NONE', *, *, #138, .F. ) ;
#166 = COORDINATED_UNIVERSAL_TIME_OFFSET ( 1, 0, .AHEAD. ) ;
#167 = DIRECTION ( 'NONE',  ( 0.0000000000000000000, 1.000000000000000000, 0.0000000000000000000 ) ) ;
#168 = CC_DESIGN_DATE_AND_TIME_ASSIGNMENT ( #18, #23, ( #149 ) ) ;
#169 = CONICAL_SURFACE ( 'NONE', #250, 3.349999999999987210, 1.029744258676649871 ) ;
#170 = VERTEX_POINT ( 'NONE', #29 ) ;
#171 = VECTOR ( 'NONE', #201, 1000.000000000000000 ) ;
#172 = ORIENTED_EDGE ( 'NONE', *, *, #238, .F. ) ;
#173 = ORIENTED_EDGE ( 'NONE', *, *, #79, .F. ) ;
#174 = CARTESIAN_POINT ( 'NONE',  ( 1.615421204653248983E-13, -3.349999999999991651, 23.00000000000000000 ) ) ;
#175 = CARTESIAN_POINT ( 'NONE',  ( 1.432403534375476202E-30, 3.349999999999988542, 4.102566777143618983E-16 ) ) ;
#176 = DIRECTION ( 'NONE',  ( -3.491481338843133355E-15, 1.224646799147353207E-16, -1.000000000000000000 ) ) ;
#177 = CARTESIAN_POINT ( 'NONE',  ( 7.027943689244590440E-15, -2.465070813316443615E-16, 2.012883073742340656 ) ) ;
#178 = AXIS2_PLACEMENT_3D ( 'NONE', #123, #187, #83 ) ;
#179 = ORGANIZATION ( 'UNSPECIFIED', 'UNSPECIFIED', '' ) ;
#180 = CARTESIAN_POINT ( 'NONE',  ( 8.030407079339205455E-14, 3.349999999999986766, 23.00000000000000000 ) ) ;
#181 = EDGE_CURVE ( 'NONE', #304, #148, #152, .T. ) ;
#182 = CARTESIAN_POINT ( 'NONE',  ( 7.027943689244590440E-15, -2.465070813316443615E-16, 2.012883073742340656 ) ) ;
#183 = MANIFOLD_SOLID_BREP ( 'Corps-Déplacer/Copier1[1]', #211 ) ;
#184 = AXIS2_PLACEMENT_3D ( 'NONE', #87, #160, #162 ) ;
#185 = ADVANCED_FACE ( 'NONE', ( #26 ), #195, .T. ) ;
#186 = DIRECTION ( 'NONE',  ( -4.599235688088939205E-31, -1.000000000000000000, -1.294569758191652086E-16 ) ) ;
#187 = DIRECTION ( 'NONE',  ( -3.491481338843133355E-15, 1.224646799147353207E-16, -1.000000000000000000 ) ) ;
#188 = AXIS2_PLACEMENT_3D ( 'NONE', #134, #296, #33 ) ;
#189 = APPROVAL_ROLE ( '' ) ;
#190 = COORDINATED_UNIVERSAL_TIME_OFFSET ( 1, 0, .AHEAD. ) ;
#191 = ORIENTED_EDGE ( 'NONE', *, *, #138, .T. ) ;
#192 = PRODUCT ( '54623', '54623', '', ( #210 ) ) ;
#193 = CALENDAR_DATE ( 2021, 3, 9 ) ;
#194 = ORIENTED_EDGE ( 'NONE', *, *, #282, .F. ) ;
#195 = CONICAL_SURFACE ( 'NONE', #178, 2.649999999999995026, 0.7853981633974439491 ) ;
#196 = VERTEX_POINT ( 'NONE', #237 ) ;
#197 = DIRECTION ( 'NONE',  ( -4.599235688088939205E-31, -1.000000000000000000, -1.294569758191652086E-16 ) ) ;
#198 = ORIENTED_EDGE ( 'NONE', *, *, #245, .T. ) ;
#199 = FACE_OUTER_BOUND ( 'NONE', #68, .T. ) ;
#200 = FACE_OUTER_BOUND ( 'NONE', #212, .T. ) ;
#201 = DIRECTION ( 'NONE',  ( 1.798245827342159528E-15, -0.8571673007021100021, 0.5150380749100580413 ) ) ;
#202 = CARTESIAN_POINT ( 'NONE',  ( 2.419596567818291352E-13, -8.486802318091157127E-15, 69.29999999999999716 ) ) ;
#203 = CC_DESIGN_PERSON_AND_ORGANIZATION_ASSIGNMENT ( #323, #239, ( #192 ) ) ;
#204 = CYLINDRICAL_SURFACE ( 'NONE', #119, 3.349999999999992095 ) ;
#205 = DIRECTION ( 'NONE',  ( 4.599235688088939205E-31, 1.000000000000000000, 1.294569758191652086E-16 ) ) ;
#206 = CIRCLE ( 'NONE', #224, 3.349999999999987210 ) ;
#207 = CC_DESIGN_APPROVAL ( #209, ( #263 ) ) ;
#208 = CARTESIAN_POINT ( 'NONE',  ( 0.0000000000000000000, 0.0000000000000000000, 0.0000000000000000000 ) ) ;
#209 = APPROVAL ( #50, 'UNSPECIFIED' ) ;
#210 = MECHANICAL_CONTEXT ( 'NONE', #316, 'mechanical' ) ;
#211 = CLOSED_SHELL ( 'NONE', ( #185, #72, #48, #143, #109, #126 ) ) ;
#212 = EDGE_LOOP ( 'NONE', ( #142, #24 ) ) ;
#213 = PERSON_AND_ORGANIZATION ( #121, #179 ) ;
#214 = ORIENTED_EDGE ( 'NONE', *, *, #320, .T. ) ;
#215 = COORDINATED_UNIVERSAL_TIME_OFFSET ( 1, 0, .AHEAD. ) ;
#216 = ORIENTED_EDGE ( 'NONE', *, *, #133, .F. ) ;
#217 = PERSON_AND_ORGANIZATION_ROLE ( 'classification_officer' ) ;
#218 = AXIS2_PLACEMENT_3D ( 'NONE', #177, #279, #103 ) ;
#219 = CARTESIAN_POINT ( 'NONE',  ( 7.027943689244590440E-15, -2.465070813316443615E-16, 2.012883073742340656 ) ) ;
#220 = VERTEX_POINT ( 'NONE', #107 ) ;
#221 = CARTESIAN_POINT ( 'NONE',  ( 2.444036937190193601E-13, -8.572527594031472993E-15, 70.00000000000000000 ) ) ;
#222 = EDGE_CURVE ( 'NONE', #148, #120, #335, .T. ) ;
#223 = PLANE ( 'NONE',  #4 ) ;
#224 = AXIS2_PLACEMENT_3D ( 'NONE', #164, #9, #205 ) ;
#225 = APPROVAL_PERSON_ORGANIZATION ( #326, #231, #41 ) ;
#226 = DIRECTION ( 'NONE',  ( -3.491481338843133355E-15, 1.224646799147353207E-16, -1.000000000000000000 ) ) ;
#227 = FACE_OUTER_BOUND ( 'NONE', #93, .T. ) ;
#228 = DIRECTION ( 'NONE',  ( 0.0000000000000000000, 1.000000000000000000, 0.0000000000000000000 ) ) ;
#229 = CIRCLE ( 'NONE', #262, 3.349999999999989431 ) ;
#230 = CC_DESIGN_APPROVAL ( #231, ( #137 ) ) ;
#231 = APPROVAL ( #111, 'UNSPECIFIED' ) ;
#232 = LINE ( 'NONE', #110, #256 ) ;
#233 = LINE ( 'NONE', #5, #314 ) ;
#234 = DIRECTION ( 'NONE',  ( 4.275831445896958607E-31, 1.000000000000000000, 1.224646799147353207E-16 ) ) ;
#235 = AXIS2_PLACEMENT_3D ( 'NONE', #208, #106, #234 ) ;
#236 = DIRECTION ( 'NONE',  ( -3.491481338843133355E-15, 1.224646799147353207E-16, -1.000000000000000000 ) ) ;
#237 = CARTESIAN_POINT ( 'NONE',  ( 4.407626391903266457E-14, -3.349999999999991651, 23.00000000000000000 ) ) ;
#238 = EDGE_CURVE ( 'NONE', #249, #304, #309, .T. ) ;
#239 = PERSON_AND_ORGANIZATION_ROLE ( 'design_owner' ) ;
#240 = ORIENTED_EDGE ( 'NONE', *, *, #320, .F. ) ;
#241 = CIRCLE ( 'NONE', #218, 3.349999999999987210 ) ;
#242 = APPLICATION_PROTOCOL_DEFINITION ( 'international standard', 'config_control_design', 1994, #89 ) ;
#243 =( GEOMETRIC_REPRESENTATION_CONTEXT ( 3 ) GLOBAL_UNCERTAINTY_ASSIGNED_CONTEXT ( ( #298 ) ) GLOBAL_UNIT_ASSIGNED_CONTEXT ( ( #288, #264, #84 ) ) REPRESENTATION_CONTEXT ( 'NONE', 'WORKASPACE' ) );
#244 = DIRECTION ( 'NONE',  ( -3.491481338843133355E-15, 1.224646799147353207E-16, -1.000000000000000000 ) ) ;
#245 = EDGE_CURVE ( 'NONE', #304, #249, #157, .T. ) ;
#246 = ORIENTED_EDGE ( 'NONE', *, *, #79, .T. ) ;
#247 = CALENDAR_DATE ( 2021, 3, 9 ) ;
#248 = ORIENTED_EDGE ( 'NONE', *, *, #238, .T. ) ;
#249 = VERTEX_POINT ( 'NONE', #65 ) ;
#250 = AXIS2_PLACEMENT_3D ( 'NONE', #219, #331, #197 ) ;
#251 = ORIENTED_EDGE ( 'NONE', *, *, #222, .F. ) ;
#252 = PLANE ( 'NONE',  #22 ) ;
#253 = EDGE_CURVE ( 'NONE', #170, #96, #206, .T. ) ;
#254 = DIRECTION ( 'NONE',  ( -2.382254525458727330E-15, -0.7071067811865443531, -0.7071067811865506814 ) ) ;
#255 = FACE_OUTER_BOUND ( 'NONE', #332, .T. ) ;
#256 = VECTOR ( 'NONE', #40, 1000.000000000000000 ) ;
#257 = CC_DESIGN_APPROVAL ( #99, ( #149 ) ) ;
#258 = EDGE_CURVE ( 'NONE', #120, #17, #233, .T. ) ;
#259 = FACE_OUTER_BOUND ( 'NONE', #277, .T. ) ;
#260 = CARTESIAN_POINT ( 'NONE',  ( 0.0000000000000000000, 0.0000000000000000000, 0.0000000000000000000 ) ) ;
#261 = CC_DESIGN_PERSON_AND_ORGANIZATION_ASSIGNMENT ( #113, #328, ( #263 ) ) ;
#262 = AXIS2_PLACEMENT_3D ( 'NONE', #75, #112, #167 ) ;
#263 = PRODUCT_DEFINITION_FORMATION_WITH_SPECIFIED_SOURCE ( 'ANY', '', #192, .NOT_KNOWN. ) ;
#264 =( NAMED_UNIT ( * ) PLANE_ANGLE_UNIT ( ) SI_UNIT ( $, .RADIAN. ) );
#265 = DIRECTION ( 'NONE',  ( -3.491481338843133355E-15, 1.224646799147353207E-16, -1.000000000000000000 ) ) ;
#266 = AXIS2_PLACEMENT_3D ( 'NONE', #281, #105, #280 ) ;
#267 = DIRECTION ( 'NONE',  ( 0.0000000000000000000, 1.000000000000000000, 0.0000000000000000000 ) ) ;
#268 = EDGE_CURVE ( 'NONE', #148, #49, #36, .T. ) ;
#269 = ORIENTED_EDGE ( 'NONE', *, *, #268, .F. ) ;
#270 = CALENDAR_DATE ( 2021, 3, 9 ) ;
#271 = CARTESIAN_POINT ( 'NONE',  ( 8.030407079339205455E-14, 3.349999999999986766, 23.00000000000000000 ) ) ;
#272 = AXIS2_PLACEMENT_3D ( 'NONE', #136, #60, #322 ) ;
#273 = LOCAL_TIME ( 9, 53, 0.0000000000000000000, #166 ) ;
#274 = ORIENTED_EDGE ( 'NONE', *, *, #253, .F. ) ;
#275 = ORIENTED_EDGE ( 'NONE', *, *, #14, .T. ) ;
#276 = APPROVAL_STATUS ( 'not_yet_approved' ) ;
#277 = EDGE_LOOP ( 'NONE', ( #97, #198, #140, #251 ) ) ;
#278 = VECTOR ( 'NONE', #254, 1000.000000000000000 ) ;
#279 = DIRECTION ( 'NONE',  ( -3.491481338843133355E-15, 1.224646799147353207E-16, -1.000000000000000000 ) ) ;
#280 = DIRECTION ( 'NONE',  ( -4.275831445896958607E-31, -1.000000000000000000, -1.224646799147353207E-16 ) ) ;
#281 = CARTESIAN_POINT ( 'NONE',  ( 8.030407079339205455E-14, 2.512097635958599177E-32, 23.00000000000000000 ) ) ;
#282 = EDGE_CURVE ( 'NONE', #196, #46, #124, .T. ) ;
#283 = DIRECTION ( 'NONE',  ( -3.491481338843133355E-15, 1.224646799147353207E-16, -1.000000000000000000 ) ) ;
#284 = AXIS2_PLACEMENT_3D ( 'NONE', #221, #226, #151 ) ;
#285 = LOCAL_TIME ( 9, 53, 0.0000000000000000000, #190 ) ;
#286 = ADVANCED_BREP_SHAPE_REPRESENTATION ( '54623', ( #183, #294, #131 ), #243 ) ;
#287 = CARTESIAN_POINT ( 'NONE',  ( 8.030407079339205455E-14, 2.512097635958599177E-32, 23.00000000000000000 ) ) ;
#288 =( LENGTH_UNIT ( ) NAMED_UNIT ( * ) SI_UNIT ( .MILLI., .METRE. ) );
#289 = ADVANCED_FACE ( 'NONE', ( #156 ), #318, .T. ) ;
#290 = CLOSED_SHELL ( 'NONE', ( #295, #289, #7, #58, #102 ) ) ;
#291 = CC_DESIGN_PERSON_AND_ORGANIZATION_ASSIGNMENT ( #115, #69, ( #263 ) ) ;
#292 = CARTESIAN_POINT ( 'NONE',  ( 4.102566777143609615E-16, -3.349999999999992095, -4.102566777143637718E-16 ) ) ;
#293 = DIRECTION ( 'NONE',  ( 3.491481338843133355E-15, -1.224646799147353207E-16, 1.000000000000000000 ) ) ;
#294 = MANIFOLD_SOLID_BREP ( 'Corps-Déplacer/Copier1[2]', #290 ) ;
#295 = ADVANCED_FACE ( 'NONE', ( #8 ), #132, .T. ) ;
#296 = DIRECTION ( 'NONE',  ( -3.491481338843133355E-15, 1.224646799147353207E-16, -1.000000000000000000 ) ) ;
#297 = AXIS2_PLACEMENT_3D ( 'NONE', #81, #283, #2 ) ;
#298 = UNCERTAINTY_MEASURE_WITH_UNIT (LENGTH_MEASURE( 1.000000000000000082E-05 ), #288, 'distance_accuracy_value', 'NONE');
#299 = SECURITY_CLASSIFICATION_LEVEL ( 'unclassified' ) ;
#300 = ORIENTED_EDGE ( 'NONE', *, *, #258, .T. ) ;
#301 = COORDINATED_UNIVERSAL_TIME_OFFSET ( 1, 0, .AHEAD. ) ;
#302 = ORIENTED_EDGE ( 'NONE', *, *, #94, .T. ) ;
#303 = CC_DESIGN_DATE_AND_TIME_ASSIGNMENT ( #67, #92, ( #137 ) ) ;
#304 = VERTEX_POINT ( 'NONE', #35 ) ;
#305 = DATE_AND_TIME ( #247, #285 ) ;
#306 = EDGE_LOOP ( 'NONE', ( #165, #214, #159 ) ) ;
#307 = EDGE_CURVE ( 'NONE', #196, #96, #232, .T. ) ;
#308 = EDGE_LOOP ( 'NONE', ( #275, #161, #274, #91 ) ) ;
#309 = CIRCLE ( 'NONE', #184, 2.649999999999995026 ) ;
#310 = DIRECTION ( 'NONE',  ( 4.275831445896959482E-31, 1.000000000000000000, 1.224646799147353207E-16 ) ) ;
#311 = DIRECTION ( 'NONE',  ( 4.275831445896958607E-31, 1.000000000000000000, 1.224646799147353207E-16 ) ) ;
#312 = DIRECTION ( 'NONE',  ( -2.468850131082275599E-15, 0.7071067811865445751, -0.7071067811865504593 ) ) ;
#313 = DIRECTION ( 'NONE',  ( -3.491481338843133355E-15, 1.224646799147353207E-16, -1.000000000000000000 ) ) ;
#314 = VECTOR ( 'NONE', #236, 1000.000000000000000 ) ;
#315 = DIRECTION ( 'NONE',  ( -3.491481338843133355E-15, 1.224646799147353207E-16, -1.000000000000000000 ) ) ;
#316 = APPLICATION_CONTEXT ( 'configuration controlled 3d designs of mechanical parts and assemblies' ) ;
#317 = CC_DESIGN_PERSON_AND_ORGANIZATION_ASSIGNMENT ( #213, #217, ( #137 ) ) ;
#318 = CONICAL_SURFACE ( 'NONE', #71, 3.349999999999987210, 1.029744258676649871 ) ;
#319 = CARTESIAN_POINT ( 'NONE',  ( 8.030407079339205455E-14, -2.816687638038912352E-15, 23.00000000000000000 ) ) ;
#320 = EDGE_CURVE ( 'NONE', #220, #170, #139, .T. ) ;
#321 = PRODUCT_DEFINITION_SHAPE ( 'NONE', 'NONE',  #149 ) ;
#322 = DIRECTION ( 'NONE',  ( 0.0000000000000000000, 1.000000000000000000, 0.0000000000000000000 ) ) ;
#323 = PERSON_AND_ORGANIZATION ( #121, #179 ) ;
#324 = APPROVAL_DATE_TIME ( #146, #99 ) ;
#325 = ORIENTED_EDGE ( 'NONE', *, *, #245, .F. ) ;
#326 = PERSON_AND_ORGANIZATION ( #121, #179 ) ;
#327 = EDGE_LOOP ( 'NONE', ( #248, #51, #216, #19 ) ) ;
#328 = PERSON_AND_ORGANIZATION_ROLE ( 'design_supplier' ) ;
#329 = ORIENTED_EDGE ( 'NONE', *, *, #282, .T. ) ;
#330 = COORDINATED_UNIVERSAL_TIME_OFFSET ( 1, 0, .AHEAD. ) ;
#331 = DIRECTION ( 'NONE',  ( 3.491481338843133355E-15, -1.224646799147353207E-16, 1.000000000000000000 ) ) ;
#332 = EDGE_LOOP ( 'NONE', ( #42, #194 ) ) ;
#333 = CC_DESIGN_PERSON_AND_ORGANIZATION_ASSIGNMENT ( #74, #90, ( #149 ) ) ;
#334 = CARTESIAN_POINT ( 'NONE',  ( 0.0000000000000000000, 0.0000000000000000000, 0.0000000000000000000 ) ) ;
#335 = CIRCLE ( 'NONE', #272, 3.349999999999995204 ) ;
#336 = CARTESIAN_POINT ( 'NONE',  ( 0.0000000000000000000, 0.0000000000000000000, 0.0000000000000000000 ) ) ;
#337 = APPROVAL_PERSON_ORGANIZATION ( #47, #99, #45 ) ;
ENDSEC;
END-ISO-10303-21;
