ISO-10303-21;
HEADER;
FILE_DESCRIPTION (( 'STEP AP203' ),
    '1' );
FILE_NAME ('54622.step',
    '2021-09-03T07:52:55',
    ( '' ),
    ( '' ),
    'SwSTEP 2.0',
    'SolidWorks 2019',
    '' );
FILE_SCHEMA (( 'CONFIG_CONTROL_DESIGN' ));
ENDSEC;

DATA;
#1 = CARTESIAN_POINT ( 'NONE',  ( 1.615359972313290492E-13, -3.300000000000003375, 69.29999999999999716 ) ) ;
#2 = CYLINDRICAL_SURFACE ( 'NONE', #131, 3.299999999999987832 ) ;
#3 = EDGE_LOOP ( 'NONE', ( #95, #228, #336, #45 ) ) ;
#4 = APPROVAL ( #8, 'UNSPECIFIED' ) ;
#5 = CARTESIAN_POINT ( 'NONE',  ( 8.030407079339205455E-14, -2.816687638038912352E-15, 23.00000000000000000 ) ) ;
#6 = FACE_OUTER_BOUND ( 'NONE', #298, .T. ) ;
#7 = DIRECTION ( 'NONE',  ( 1.000000000000000000, 0.0000000000000000000, 0.0000000000000000000 ) ) ;
#8 = APPROVAL_STATUS ( 'not_yet_approved' ) ;
#9 = AXIS2_PLACEMENT_3D ( 'NONE', #5, #198, #137 ) ;
#10 = PERSON_AND_ORGANIZATION ( #44, #330 ) ;
#11 = SECURITY_CLASSIFICATION_LEVEL ( 'unclassified' ) ;
#12 = EDGE_LOOP ( 'NONE', ( #299, #224 ) ) ;
#13 = CLOSED_SHELL ( 'NONE', ( #144, #236, #279, #243, #227, #200 ) ) ;
#14 = CONICAL_SURFACE ( 'NONE', #267, 2.599999999999994760, 0.7853981633974439491 ) ;
#15 = COORDINATED_UNIVERSAL_TIME_OFFSET ( 1, 0, .AHEAD. ) ;
#16 = VERTEX_POINT ( 'NONE', #264 ) ;
#17 = ADVANCED_FACE ( 'NONE', ( #6 ), #2, .T. ) ;
#18 = DATE_AND_TIME ( #22, #72 ) ;
#19 = ORIENTED_EDGE ( 'NONE', *, *, #302, .T. ) ;
#20 = CONICAL_SURFACE ( 'NONE', #184, 2.599999999999994760, 0.7853981633974439491 ) ;
#21 = CC_DESIGN_SECURITY_CLASSIFICATION ( #222, ( #83 ) ) ;
#22 = CALENDAR_DATE ( 2021, 3, 9 ) ;
#23 = ORIENTED_EDGE ( 'NONE', *, *, #214, .F. ) ;
#24 = ORIENTED_EDGE ( 'NONE', *, *, #205, .F. ) ;
#25 = DIRECTION ( 'NONE',  ( -3.491481338843133355E-15, 1.224646799147353207E-16, -1.000000000000000000 ) ) ;
#26 = AXIS2_PLACEMENT_3D ( 'NONE', #153, #256, #30 ) ;
#27 = DIRECTION ( 'NONE',  ( -3.491481338843133355E-15, 1.224646799147353207E-16, -1.000000000000000000 ) ) ;
#28 = ORIENTED_EDGE ( 'NONE', *, *, #262, .T. ) ;
#29 = DIRECTION ( 'NONE',  ( -2.468850131082275599E-15, 0.7071067811865445751, -0.7071067811865504593 ) ) ;
#30 = DIRECTION ( 'NONE',  ( 4.668921077302408790E-31, 1.000000000000000000, 1.314184451497586436E-16 ) ) ;
#31 = PLANE ( 'NONE',  #249 ) ;
#32 = VERTEX_POINT ( 'NONE', #325 ) ;
#33 = DIRECTION ( 'NONE',  ( 0.0000000000000000000, 1.000000000000000000, 0.0000000000000000000 ) ) ;
#34 = PRODUCT_RELATED_PRODUCT_CATEGORY ( 'detail', '', ( #240 ) ) ;
#35 = AXIS2_PLACEMENT_3D ( 'NONE', #210, #270, #158 ) ;
#36 = DIRECTION ( 'NONE',  ( -3.491481338843133355E-15, 1.224646799147353207E-16, -1.000000000000000000 ) ) ;
#37 = CARTESIAN_POINT ( 'NONE',  ( 2.419596567818291352E-13, -8.486802318091157127E-15, 69.29999999999999716 ) ) ;
#38 = FACE_OUTER_BOUND ( 'NONE', #159, .T. ) ;
#39 = APPLICATION_PROTOCOL_DEFINITION ( 'international standard', 'config_control_design', 1994, #70 ) ;
#40 = APPROVAL_ROLE ( '' ) ;
#41 = DIRECTION ( 'NONE',  ( 0.0000000000000000000, 1.000000000000000000, 0.0000000000000000000 ) ) ;
#42 = APPROVAL_PERSON_ORGANIZATION ( #161, #193, #40 ) ;
#43 = ORIENTED_EDGE ( 'NONE', *, *, #205, .T. ) ;
#44 = PERSON ( 'UNSPECIFIED', 'UNSPECIFIED', 'UNSPECIFIED', ('UNSPECIFIED'), ('UNSPECIFIED'), ('UNSPECIFIED') ) ;
#45 = ORIENTED_EDGE ( 'NONE', *, *, #67, .F. ) ;
#46 = DIRECTION ( 'NONE',  ( -3.491481338843133355E-15, 1.224646799147353207E-16, -1.000000000000000000 ) ) ;
#47 = VECTOR ( 'NONE', #166, 1000.000000000000000 ) ;
#48 = LOCAL_TIME ( 9, 52, 55.00000000000000000, #186 ) ;
#49 = DATE_TIME_ROLE ( 'classification_date' ) ;
#50 = CARTESIAN_POINT ( 'NONE',  ( 8.030407079339205455E-14, 3.299999999999986056, 23.00000000000000000 ) ) ;
#51 = CC_DESIGN_PERSON_AND_ORGANIZATION_ASSIGNMENT ( #85, #140, ( #83 ) ) ;
#52 = VERTEX_POINT ( 'NONE', #50 ) ;
#53 = CC_DESIGN_APPROVAL ( #4, ( #328 ) ) ;
#54 = CARTESIAN_POINT ( 'NONE',  ( 8.030407079339205455E-14, -2.816687638038912352E-15, 23.00000000000000000 ) ) ;
#55 = CARTESIAN_POINT ( 'NONE',  ( 2.444036937190193601E-13, 1.949687717460398195E-32, 70.00000000000000000 ) ) ;
#56 = CARTESIAN_POINT ( 'NONE',  ( 8.030407079339205455E-14, -2.816687638038912352E-15, 23.00000000000000000 ) ) ;
#57 = VECTOR ( 'NONE', #29, 1000.000000000000000 ) ;
#58 = AXIS2_PLACEMENT_3D ( 'NONE', #56, #27, #61 ) ;
#59 = DIRECTION ( 'NONE',  ( -4.275831445896958607E-31, -1.000000000000000000, -1.224646799147353207E-16 ) ) ;
#60 = EDGE_CURVE ( 'NONE', #52, #16, #197, .T. ) ;
#61 = DIRECTION ( 'NONE',  ( 0.0000000000000000000, 1.000000000000000000, 0.0000000000000000000 ) ) ;
#62 = CYLINDRICAL_SURFACE ( 'NONE', #326, 3.299999999999991829 ) ;
#63 = PERSON_AND_ORGANIZATION ( #44, #330 ) ;
#64 = DATE_TIME_ROLE ( 'creation_date' ) ;
#65 = EDGE_LOOP ( 'NONE', ( #89, #181, #19 ) ) ;
#66 =( LENGTH_UNIT ( ) NAMED_UNIT ( * ) SI_UNIT ( .MILLI., .METRE. ) );
#67 = EDGE_CURVE ( 'NONE', #52, #96, #290, .T. ) ;
#68 = CALENDAR_DATE ( 2021, 3, 9 ) ;
#69 = AXIS2_PLACEMENT_3D ( 'NONE', #54, #90, #317 ) ;
#70 = APPLICATION_CONTEXT ( 'configuration controlled 3d designs of mechanical parts and assemblies' ) ;
#71 = EDGE_LOOP ( 'NONE', ( #301, #91, #23, #250 ) ) ;
#72 = LOCAL_TIME ( 9, 52, 55.00000000000000000, #92 ) ;
#73 = DIRECTION ( 'NONE',  ( -3.491481338843133355E-15, 1.224646799147353207E-16, -1.000000000000000000 ) ) ;
#74 = ORIENTED_EDGE ( 'NONE', *, *, #179, .T. ) ;
#75 = CARTESIAN_POINT ( 'NONE',  ( 2.444036937190193601E-13, -8.572527594031472993E-15, 70.00000000000000000 ) ) ;
#76 = FACE_OUTER_BOUND ( 'NONE', #71, .T. ) ;
#77 = CC_DESIGN_APPROVAL ( #217, ( #222 ) ) ;
#78 = EDGE_CURVE ( 'NONE', #233, #320, #296, .T. ) ;
#79 = CARTESIAN_POINT ( 'NONE',  ( 2.444036937190193601E-13, -8.572527594031472993E-15, 70.00000000000000000 ) ) ;
#80 = DIRECTION ( 'NONE',  ( 1.798245827342159528E-15, -0.8571673007021100021, 0.5150380749100580413 ) ) ;
#81 = APPROVAL_ROLE ( '' ) ;
#82 = DIRECTION ( 'NONE',  ( -3.491481338843133355E-15, 1.224646799147353207E-16, -1.000000000000000000 ) ) ;
#83 = PRODUCT_DEFINITION_FORMATION_WITH_SPECIFIED_SOURCE ( 'ANY', '', #240, .NOT_KNOWN. ) ;
#84 = CARTESIAN_POINT ( 'NONE',  ( 7.327182451034191547E-15, 3.299999999999986056, 1.982840042790962709 ) ) ;
#85 = PERSON_AND_ORGANIZATION ( #44, #330 ) ;
#86 = ORIENTED_EDGE ( 'NONE', *, *, #67, .T. ) ;
#87 = DATE_AND_TIME ( #182, #125 ) ;
#88 = ORIENTED_EDGE ( 'NONE', *, *, #322, .F. ) ;
#89 = ORIENTED_EDGE ( 'NONE', *, *, #262, .F. ) ;
#90 = DIRECTION ( 'NONE',  ( -3.491481338843133355E-15, 1.224646799147353207E-16, -1.000000000000000000 ) ) ;
#91 = ORIENTED_EDGE ( 'NONE', *, *, #314, .T. ) ;
#92 = COORDINATED_UNIVERSAL_TIME_OFFSET ( 1, 0, .AHEAD. ) ;
#93 = EDGE_LOOP ( 'NONE', ( #97, #43, #271, #252 ) ) ;
#94 = APPROVAL_PERSON_ORGANIZATION ( #237, #4, #81 ) ;
#95 = ORIENTED_EDGE ( 'NONE', *, *, #60, .T. ) ;
#96 = VERTEX_POINT ( 'NONE', #84 ) ;
#97 = ORIENTED_EDGE ( 'NONE', *, *, #173, .F. ) ;
#98 = ADVANCED_FACE ( 'NONE', ( #183 ), #187, .T. ) ;
#99 = CONICAL_SURFACE ( 'NONE', #35, 3.299999999999986500, 1.029744258676649871 ) ;
#100 = CARTESIAN_POINT ( 'NONE',  ( 2.444036937190193601E-13, -8.572527594031472993E-15, 70.00000000000000000 ) ) ;
#101 = EDGE_CURVE ( 'NONE', #223, #32, #149, .T. ) ;
#102 = DIRECTION ( 'NONE',  ( -3.491481338843133355E-15, 1.224646799147353207E-16, -1.000000000000000000 ) ) ;
#103 = FACE_OUTER_BOUND ( 'NONE', #288, .T. ) ;
#104 = ORIENTED_EDGE ( 'NONE', *, *, #302, .F. ) ;
#105 = DIRECTION ( 'NONE',  ( 4.668921077302408790E-31, 1.000000000000000000, 1.314184451497586436E-16 ) ) ;
#106 = AXIS2_PLACEMENT_3D ( 'NONE', #157, #216, #291 ) ;
#107 = LINE ( 'NONE', #308, #246 ) ;
#108 = CARTESIAN_POINT ( 'NONE',  ( 0.0000000000000000000, 0.0000000000000000000, 0.0000000000000000000 ) ) ;
#109 = CARTESIAN_POINT ( 'NONE',  ( 0.0000000000000000000, 0.0000000000000000000, 0.0000000000000000000 ) ) ;
#110 = CLOSED_SHELL ( 'NONE', ( #98, #324, #332, #17, #300 ) ) ;
#111 = AXIS2_PLACEMENT_3D ( 'NONE', #303, #36, #105 ) ;
#112 = APPROVAL_DATE_TIME ( #87, #4 ) ;
#113 = DIRECTION ( 'NONE',  ( 4.275831445896958607E-31, 1.000000000000000000, 1.224646799147353207E-16 ) ) ;
#114 = DESIGN_CONTEXT ( 'detailed design', #245, 'design' ) ;
#115 = CC_DESIGN_PERSON_AND_ORGANIZATION_ASSIGNMENT ( #10, #316, ( #83 ) ) ;
#116 = DIRECTION ( 'NONE',  ( 0.0000000000000000000, 1.000000000000000000, 0.0000000000000000000 ) ) ;
#117 = PERSON_AND_ORGANIZATION ( #44, #330 ) ;
#118 = VERTEX_POINT ( 'NONE', #259 ) ;
#119 = DIRECTION ( 'NONE',  ( 4.275831445896958607E-31, 1.000000000000000000, 1.224646799147353207E-16 ) ) ;
#120 = APPROVAL_STATUS ( 'not_yet_approved' ) ;
#121 = EDGE_CURVE ( 'NONE', #118, #233, #281, .T. ) ;
#122 = APPROVAL_DATE_TIME ( #196, #217 ) ;
#123 = SHAPE_DEFINITION_REPRESENTATION ( #334, #150 ) ;
#124 = ORIENTED_EDGE ( 'NONE', *, *, #286, .F. ) ;
#125 = LOCAL_TIME ( 9, 52, 55.00000000000000000, #244 ) ;
#126 = ORIENTED_EDGE ( 'NONE', *, *, #295, .T. ) ;
#127 = VERTEX_POINT ( 'NONE', #335 ) ;
#128 = ORIENTED_EDGE ( 'NONE', *, *, #214, .T. ) ;
#129 = ORIENTED_EDGE ( 'NONE', *, *, #314, .F. ) ;
#130 = DIRECTION ( 'NONE',  ( -3.491481338843133355E-15, 1.224646799147353207E-16, -1.000000000000000000 ) ) ;
#131 = AXIS2_PLACEMENT_3D ( 'NONE', #108, #238, #113 ) ;
#132 = VECTOR ( 'NONE', #201, 1000.000000000000114 ) ;
#133 = ORIENTED_EDGE ( 'NONE', *, *, #121, .F. ) ;
#134 = PLANE ( 'NONE',  #219 ) ;
#135 = CARTESIAN_POINT ( 'NONE',  ( 0.0000000000000000000, 0.0000000000000000000, 0.0000000000000000000 ) ) ;
#136 = DIRECTION ( 'NONE',  ( -3.491481338843133355E-15, 1.224646799147353207E-16, -1.000000000000000000 ) ) ;
#137 = DIRECTION ( 'NONE',  ( 0.0000000000000000000, 1.000000000000000000, 0.0000000000000000000 ) ) ;
#138 = CIRCLE ( 'NONE', #26, 3.299999999999986500 ) ;
#139 = COORDINATED_UNIVERSAL_TIME_OFFSET ( 1, 0, .AHEAD. ) ;
#140 = PERSON_AND_ORGANIZATION_ROLE ( 'design_supplier' ) ;
#141 = APPLICATION_PROTOCOL_DEFINITION ( 'international standard', 'config_control_design', 1994, #245 ) ;
#142 = EDGE_LOOP ( 'NONE', ( #128, #211 ) ) ;
#143 = DIRECTION ( 'NONE',  ( -3.491481338843133355E-15, 1.224646799147353207E-16, -1.000000000000000000 ) ) ;
#144 = ADVANCED_FACE ( 'NONE', ( #103 ), #20, .T. ) ;
#145 = EDGE_CURVE ( 'NONE', #16, #127, #177, .T. ) ;
#146 = AXIS2_PLACEMENT_3D ( 'NONE', #109, #167, #7 ) ;
#147 = DIRECTION ( 'NONE',  ( 4.275831445896958607E-31, 1.000000000000000000, 1.224646799147353207E-16 ) ) ;
#148 = FACE_OUTER_BOUND ( 'NONE', #93, .T. ) ;
#149 = CIRCLE ( 'NONE', #207, 3.299999999999988720 ) ;
#150 = ADVANCED_BREP_SHAPE_REPRESENTATION ( '54622', ( #188, #175, #146 ), #241 ) ;
#151 = CARTESIAN_POINT ( 'NONE',  ( 2.444036937190193601E-13, 2.599999999999985878, 70.00000000000000000 ) ) ;
#152 = CIRCLE ( 'NONE', #213, 2.599999999999994760 ) ;
#153 = CARTESIAN_POINT ( 'NONE',  ( 6.923049007315564453E-15, -2.428278711625153081E-16, 1.982840042790962265 ) ) ;
#154 = DIRECTION ( 'NONE',  ( -3.491481338843133355E-15, 1.224646799147353207E-16, -1.000000000000000000 ) ) ;
#155 = CARTESIAN_POINT ( 'NONE',  ( 4.041334437186241351E-16, -3.299999999999991829, -4.041334437186269454E-16 ) ) ;
#156 = CARTESIAN_POINT ( 'NONE',  ( 1.411024377145992889E-30, 3.299999999999991829, 4.041334437186255649E-16 ) ) ;
#157 = CARTESIAN_POINT ( 'NONE',  ( 6.923049007315564453E-15, -2.428278711625153081E-16, 1.982840042790962265 ) ) ;
#158 = DIRECTION ( 'NONE',  ( -4.668921077302408790E-31, -1.000000000000000000, -1.314184451497586436E-16 ) ) ;
#159 = EDGE_LOOP ( 'NONE', ( #88, #28, #74 ) ) ;
#160 = EDGE_LOOP ( 'NONE', ( #129, #323, #311, #172 ) ) ;
#161 = PERSON_AND_ORGANIZATION ( #44, #330 ) ;
#162 = CARTESIAN_POINT ( 'NONE',  ( 2.447221018867977068E-13, -2.600000000000003197, 70.00000000000000000 ) ) ;
#163 = VECTOR ( 'NONE', #154, 1000.000000000000000 ) ;
#164 = VECTOR ( 'NONE', #180, 1000.000000000000000 ) ;
#165 = APPROVAL_STATUS ( 'not_yet_approved' ) ;
#166 = DIRECTION ( 'NONE',  ( -3.491481338843133355E-15, 1.224646799147353207E-16, -1.000000000000000000 ) ) ;
#167 = DIRECTION ( 'NONE',  ( 0.0000000000000000000, 0.0000000000000000000, 1.000000000000000000 ) ) ;
#168 = VECTOR ( 'NONE', #136, 1000.000000000000000 ) ;
#169 = CIRCLE ( 'NONE', #58, 3.299999999999988720 ) ;
#170 = ORIENTED_EDGE ( 'NONE', *, *, #286, .T. ) ;
#171 = DIRECTION ( 'NONE',  ( 0.0000000000000000000, 1.000000000000000000, 0.0000000000000000000 ) ) ;
#172 = ORIENTED_EDGE ( 'NONE', *, *, #101, .F. ) ;
#173 = EDGE_CURVE ( 'NONE', #329, #320, #257, .T. ) ;
#174 = PLANE ( 'NONE',  #199 ) ;
#175 = MANIFOLD_SOLID_BREP ( 'Corps-Déplacer/Copier1[2]', #110 ) ;
#176 = FACE_OUTER_BOUND ( 'NONE', #160, .T. ) ;
#177 = LINE ( 'NONE', #234, #163 ) ;
#178 = CARTESIAN_POINT ( 'NONE',  ( 8.030407079339205455E-14, 2.474603641392053011E-32, 23.00000000000000000 ) ) ;
#179 = EDGE_CURVE ( 'NONE', #96, #127, #313, .T. ) ;
#180 = DIRECTION ( 'NONE',  ( -2.382254525458727330E-15, -0.7071067811865443531, -0.7071067811865506814 ) ) ;
#181 = ORIENTED_EDGE ( 'NONE', *, *, #322, .T. ) ;
#182 = CALENDAR_DATE ( 2021, 3, 9 ) ;
#183 = FACE_OUTER_BOUND ( 'NONE', #3, .T. ) ;
#184 = AXIS2_PLACEMENT_3D ( 'NONE', #204, #309, #33 ) ;
#185 = AXIS2_PLACEMENT_3D ( 'NONE', #265, #191, #116 ) ;
#186 = COORDINATED_UNIVERSAL_TIME_OFFSET ( 1, 0, .AHEAD. ) ;
#187 = CYLINDRICAL_SURFACE ( 'NONE', #253, 3.299999999999987832 ) ;
#188 = MANIFOLD_SOLID_BREP ( 'Corps-Déplacer/Copier1[1]', #13 ) ;
#189 = DATE_AND_TIME ( #287, #48 ) ;
#190 =( NAMED_UNIT ( * ) PLANE_ANGLE_UNIT ( ) SI_UNIT ( $, .RADIAN. ) );
#191 = DIRECTION ( 'NONE',  ( -3.491481338843133355E-15, 1.224646799147353207E-16, -1.000000000000000000 ) ) ;
#192 = ORIENTED_EDGE ( 'NONE', *, *, #145, .F. ) ;
#193 = APPROVAL ( #165, 'UNSPECIFIED' ) ;
#194 = AXIS2_PLACEMENT_3D ( 'NONE', #276, #130, #235 ) ;
#195 = PERSON_AND_ORGANIZATION ( #44, #330 ) ;
#196 = DATE_AND_TIME ( #68, #293 ) ;
#197 = CIRCLE ( 'NONE', #69, 3.299999999999988720 ) ;
#198 = DIRECTION ( 'NONE',  ( -3.491481338843133355E-15, 1.224646799147353207E-16, -1.000000000000000000 ) ) ;
#199 = AXIS2_PLACEMENT_3D ( 'NONE', #55, #206, #147 ) ;
#200 = ADVANCED_FACE ( 'NONE', ( #203 ), #174, .F. ) ;
#201 = DIRECTION ( 'NONE',  ( 1.903218546456021928E-15, 0.8571673007021098911, 0.5150380749100583744 ) ) ;
#202 = CC_DESIGN_PERSON_AND_ORGANIZATION_ASSIGNMENT ( #195, #247, ( #222 ) ) ;
#203 = FACE_OUTER_BOUND ( 'NONE', #275, .T. ) ;
#204 = CARTESIAN_POINT ( 'NONE',  ( 2.444036937190193601E-13, -8.572527594031472993E-15, 70.00000000000000000 ) ) ;
#205 = EDGE_CURVE ( 'NONE', #329, #118, #297, .T. ) ;
#206 = DIRECTION ( 'NONE',  ( -3.491481338843133355E-15, 1.224646799147353207E-16, -1.000000000000000000 ) ) ;
#207 = AXIS2_PLACEMENT_3D ( 'NONE', #220, #143, #321 ) ;
#208 = CC_DESIGN_PERSON_AND_ORGANIZATION_ASSIGNMENT ( #63, #312, ( #328 ) ) ;
#209 = LINE ( 'NONE', #156, #261 ) ;
#210 = CARTESIAN_POINT ( 'NONE',  ( 6.923049007315564453E-15, -2.428278711625153081E-16, 1.982840042790962265 ) ) ;
#211 = ORIENTED_EDGE ( 'NONE', *, *, #101, .T. ) ;
#212 = MECHANICAL_CONTEXT ( 'NONE', #70, 'mechanical' ) ;
#213 = AXIS2_PLACEMENT_3D ( 'NONE', #100, #304, #255 ) ;
#214 = EDGE_CURVE ( 'NONE', #32, #223, #272, .T. ) ;
#215 = UNCERTAINTY_MEASURE_WITH_UNIT (LENGTH_MEASURE( 1.000000000000000082E-05 ), #66, 'distance_accuracy_value', 'NONE');
#216 = DIRECTION ( 'NONE',  ( 3.491481338843133355E-15, -1.224646799147353207E-16, 1.000000000000000000 ) ) ;
#217 = APPROVAL ( #120, 'UNSPECIFIED' ) ;
#218 = APPROVAL_DATE_TIME ( #242, #193 ) ;
#219 = AXIS2_PLACEMENT_3D ( 'NONE', #229, #280, #59 ) ;
#220 = CARTESIAN_POINT ( 'NONE',  ( 8.030407079339205455E-14, -2.816687638038912352E-15, 23.00000000000000000 ) ) ;
#221 = CC_DESIGN_DATE_AND_TIME_ASSIGNMENT ( #18, #49, ( #222 ) ) ;
#222 = SECURITY_CLASSIFICATION ( '', '', #11 ) ;
#223 = VERTEX_POINT ( 'NONE', #305 ) ;
#224 = ORIENTED_EDGE ( 'NONE', *, *, #295, .F. ) ;
#225 = CARTESIAN_POINT ( 'NONE',  ( 7.327182451034191547E-15, 3.299999999999986056, 1.982840042790962709 ) ) ;
#226 = AXIS2_PLACEMENT_3D ( 'NONE', #75, #102, #283 ) ;
#227 = ADVANCED_FACE ( 'NONE', ( #148 ), #14, .T. ) ;
#228 = ORIENTED_EDGE ( 'NONE', *, *, #145, .T. ) ;
#229 = CARTESIAN_POINT ( 'NONE',  ( 8.030407079339205455E-14, 2.474603641392053011E-32, 23.00000000000000000 ) ) ;
#230 = ORIENTED_EDGE ( 'NONE', *, *, #173, .T. ) ;
#231 = DIRECTION ( 'NONE',  ( 3.491481338843133355E-15, -1.224646799147353207E-16, 1.000000000000000000 ) ) ;
#232 = CARTESIAN_POINT ( 'NONE',  ( 0.0000000000000000000, 0.0000000000000000000, 0.0000000000000000000 ) ) ;
#233 = VERTEX_POINT ( 'NONE', #251 ) ;
#234 = CARTESIAN_POINT ( 'NONE',  ( 4.041334437186236914E-16, -3.299999999999987832, -4.041334437186264524E-16 ) ) ;
#235 = DIRECTION ( 'NONE',  ( 4.275831445896958607E-31, 1.000000000000000000, 1.224646799147353207E-16 ) ) ;
#236 = ADVANCED_FACE ( 'NONE', ( #76 ), #62, .T. ) ;
#237 = PERSON_AND_ORGANIZATION ( #44, #330 ) ;
#238 = DIRECTION ( 'NONE',  ( -3.491481338843133355E-15, 1.224646799147353207E-16, -1.000000000000000000 ) ) ;
#239 = CARTESIAN_POINT ( 'NONE',  ( 0.0000000000000000000, 0.0000000000000000000, 0.0000000000000000000 ) ) ;
#240 = PRODUCT ( '54622', '54622', '', ( #212 ) ) ;
#241 =( GEOMETRIC_REPRESENTATION_CONTEXT ( 3 ) GLOBAL_UNCERTAINTY_ASSIGNED_CONTEXT ( ( #215 ) ) GLOBAL_UNIT_ASSIGNED_CONTEXT ( ( #66, #190, #284 ) ) REPRESENTATION_CONTEXT ( 'NONE', 'WORKASPACE' ) );
#242 = DATE_AND_TIME ( #268, #254 ) ;
#243 = ADVANCED_FACE ( 'NONE', ( #176 ), #260, .T. ) ;
#244 = COORDINATED_UNIVERSAL_TIME_OFFSET ( 1, 0, .AHEAD. ) ;
#245 = APPLICATION_CONTEXT ( 'configuration controlled 3d designs of mechanical parts and assemblies' ) ;
#246 = VECTOR ( 'NONE', #80, 1000.000000000000000 ) ;
#247 = PERSON_AND_ORGANIZATION_ROLE ( 'classification_officer' ) ;
#248 = APPROVAL_ROLE ( '' ) ;
#249 = AXIS2_PLACEMENT_3D ( 'NONE', #178, #231, #331 ) ;
#250 = ORIENTED_EDGE ( 'NONE', *, *, #289, .F. ) ;
#251 = CARTESIAN_POINT ( 'NONE',  ( 2.419596567818291352E-13, 3.299999999999986056, 69.29999999999999716 ) ) ;
#252 = ORIENTED_EDGE ( 'NONE', *, *, #327, .F. ) ;
#253 = AXIS2_PLACEMENT_3D ( 'NONE', #239, #46, #119 ) ;
#254 = LOCAL_TIME ( 9, 52, 55.00000000000000000, #139 ) ;
#255 = DIRECTION ( 'NONE',  ( 0.0000000000000000000, 1.000000000000000000, 0.0000000000000000000 ) ) ;
#256 = DIRECTION ( 'NONE',  ( -3.491481338843133355E-15, 1.224646799147353207E-16, -1.000000000000000000 ) ) ;
#257 = LINE ( 'NONE', #162, #164 ) ;
#258 = FACE_OUTER_BOUND ( 'NONE', #12, .T. ) ;
#259 = CARTESIAN_POINT ( 'NONE',  ( 2.444036937190193601E-13, 2.599999999999985878, 70.00000000000000000 ) ) ;
#260 = CYLINDRICAL_SURFACE ( 'NONE', #194, 3.299999999999991829 ) ;
#261 = VECTOR ( 'NONE', #282, 1000.000000000000000 ) ;
#262 = EDGE_CURVE ( 'NONE', #315, #96, #307, .T. ) ;
#263 = CARTESIAN_POINT ( 'NONE',  ( 2.435429460561727050E-13, -2.600000000000003197, 70.00000000000000000 ) ) ;
#264 = CARTESIAN_POINT ( 'NONE',  ( 4.401769334407241569E-14, -3.299999999999990941, 23.00000000000000000 ) ) ;
#265 = CARTESIAN_POINT ( 'NONE',  ( 2.419596567818291352E-13, -8.486802318091157127E-15, 69.29999999999999716 ) ) ;
#266 = CARTESIAN_POINT ( 'NONE',  ( 1.411024377145991138E-30, 3.299999999999987832, 4.041334437186250719E-16 ) ) ;
#267 = AXIS2_PLACEMENT_3D ( 'NONE', #79, #73, #171 ) ;
#268 = CALENDAR_DATE ( 2021, 3, 9 ) ;
#269 = CC_DESIGN_DATE_AND_TIME_ASSIGNMENT ( #189, #64, ( #328 ) ) ;
#270 = DIRECTION ( 'NONE',  ( 3.491481338843133355E-15, -1.224646799147353207E-16, 1.000000000000000000 ) ) ;
#271 = ORIENTED_EDGE ( 'NONE', *, *, #121, .T. ) ;
#272 = CIRCLE ( 'NONE', #9, 3.299999999999988720 ) ;
#273 = CC_DESIGN_PERSON_AND_ORGANIZATION_ASSIGNMENT ( #310, #318, ( #240 ) ) ;
#274 = CC_DESIGN_APPROVAL ( #193, ( #83 ) ) ;
#275 = EDGE_LOOP ( 'NONE', ( #124, #24 ) ) ;
#276 = CARTESIAN_POINT ( 'NONE',  ( 0.0000000000000000000, 0.0000000000000000000, 0.0000000000000000000 ) ) ;
#277 = FACE_OUTER_BOUND ( 'NONE', #142, .T. ) ;
#278 = CONICAL_SURFACE ( 'NONE', #106, 3.299999999999986500, 1.029744258676649871 ) ;
#279 = ADVANCED_FACE ( 'NONE', ( #277 ), #31, .F. ) ;
#280 = DIRECTION ( 'NONE',  ( 3.491481338843133355E-15, -1.224646799147353207E-16, 1.000000000000000000 ) ) ;
#281 = LINE ( 'NONE', #151, #57 ) ;
#282 = DIRECTION ( 'NONE',  ( -3.491481338843133355E-15, 1.224646799147353207E-16, -1.000000000000000000 ) ) ;
#283 = DIRECTION ( 'NONE',  ( 0.0000000000000000000, 1.000000000000000000, 0.0000000000000000000 ) ) ;
#284 =( NAMED_UNIT ( * ) SI_UNIT ( $, .STERADIAN. ) SOLID_ANGLE_UNIT ( ) );
#285 = AXIS2_PLACEMENT_3D ( 'NONE', #37, #82, #41 ) ;
#286 = EDGE_CURVE ( 'NONE', #118, #329, #152, .T. ) ;
#287 = CALENDAR_DATE ( 2021, 3, 9 ) ;
#288 = EDGE_LOOP ( 'NONE', ( #170, #230, #292, #133 ) ) ;
#289 = EDGE_CURVE ( 'NONE', #233, #32, #209, .T. ) ;
#290 = LINE ( 'NONE', #266, #47 ) ;
#291 = DIRECTION ( 'NONE',  ( -4.668921077302408790E-31, -1.000000000000000000, -1.314184451497586436E-16 ) ) ;
#292 = ORIENTED_EDGE ( 'NONE', *, *, #78, .F. ) ;
#293 = LOCAL_TIME ( 9, 52, 55.00000000000000000, #15 ) ;
#294 = FACE_OUTER_BOUND ( 'NONE', #65, .T. ) ;
#295 = EDGE_CURVE ( 'NONE', #16, #52, #169, .T. ) ;
#296 = CIRCLE ( 'NONE', #285, 3.299999999999994937 ) ;
#297 = CIRCLE ( 'NONE', #226, 2.599999999999994760 ) ;
#298 = EDGE_LOOP ( 'NONE', ( #192, #126, #86, #104 ) ) ;
#299 = ORIENTED_EDGE ( 'NONE', *, *, #60, .F. ) ;
#300 = ADVANCED_FACE ( 'NONE', ( #258 ), #134, .T. ) ;
#301 = ORIENTED_EDGE ( 'NONE', *, *, #78, .T. ) ;
#302 = EDGE_CURVE ( 'NONE', #127, #96, #138, .T. ) ;
#303 = CARTESIAN_POINT ( 'NONE',  ( 6.923049007315564453E-15, -2.428278711625153081E-16, 1.982840042790962265 ) ) ;
#304 = DIRECTION ( 'NONE',  ( -3.491481338843133355E-15, 1.224646799147353207E-16, -1.000000000000000000 ) ) ;
#305 = CARTESIAN_POINT ( 'NONE',  ( 1.615359972313291502E-13, -3.299999999999991385, 23.00000000000000000 ) ) ;
#306 = CIRCLE ( 'NONE', #185, 3.299999999999994937 ) ;
#307 = LINE ( 'NONE', #225, #132 ) ;
#308 = CARTESIAN_POINT ( 'NONE',  ( 6.923049007315562876E-15, -3.299999999999986944, 1.982840042790961821 ) ) ;
#309 = DIRECTION ( 'NONE',  ( -3.491481338843133355E-15, 1.224646799147353207E-16, -1.000000000000000000 ) ) ;
#310 = PERSON_AND_ORGANIZATION ( #44, #330 ) ;
#311 = ORIENTED_EDGE ( 'NONE', *, *, #289, .T. ) ;
#312 = PERSON_AND_ORGANIZATION_ROLE ( 'creator' ) ;
#313 = CIRCLE ( 'NONE', #111, 3.299999999999986500 ) ;
#314 = EDGE_CURVE ( 'NONE', #320, #223, #337, .T. ) ;
#315 = VERTEX_POINT ( 'NONE', #232 ) ;
#316 = PERSON_AND_ORGANIZATION_ROLE ( 'creator' ) ;
#317 = DIRECTION ( 'NONE',  ( 0.0000000000000000000, 1.000000000000000000, 0.0000000000000000000 ) ) ;
#318 = PERSON_AND_ORGANIZATION_ROLE ( 'design_owner' ) ;
#319 = APPROVAL_PERSON_ORGANIZATION ( #117, #217, #248 ) ;
#320 = VERTEX_POINT ( 'NONE', #1 ) ;
#321 = DIRECTION ( 'NONE',  ( 0.0000000000000000000, 1.000000000000000000, 0.0000000000000000000 ) ) ;
#322 = EDGE_CURVE ( 'NONE', #315, #127, #107, .T. ) ;
#323 = ORIENTED_EDGE ( 'NONE', *, *, #327, .T. ) ;
#324 = ADVANCED_FACE ( 'NONE', ( #38 ), #99, .T. ) ;
#325 = CARTESIAN_POINT ( 'NONE',  ( 8.030407079339205455E-14, 3.299999999999986056, 23.00000000000000000 ) ) ;
#326 = AXIS2_PLACEMENT_3D ( 'NONE', #135, #25, #333 ) ;
#327 = EDGE_CURVE ( 'NONE', #320, #233, #306, .T. ) ;
#328 = PRODUCT_DEFINITION ( 'UNKNOWN', '', #83, #114 ) ;
#329 = VERTEX_POINT ( 'NONE', #263 ) ;
#330 = ORGANIZATION ( 'UNSPECIFIED', 'UNSPECIFIED', '' ) ;
#331 = DIRECTION ( 'NONE',  ( -4.275831445896958607E-31, -1.000000000000000000, -1.224646799147353207E-16 ) ) ;
#332 = ADVANCED_FACE ( 'NONE', ( #294 ), #278, .T. ) ;
#333 = DIRECTION ( 'NONE',  ( 4.275831445896958607E-31, 1.000000000000000000, 1.224646799147353207E-16 ) ) ;
#334 = PRODUCT_DEFINITION_SHAPE ( 'NONE', 'NONE',  #328 ) ;
#335 = CARTESIAN_POINT ( 'NONE',  ( 6.923049007315562876E-15, -3.299999999999986944, 1.982840042790961821 ) ) ;
#336 = ORIENTED_EDGE ( 'NONE', *, *, #179, .F. ) ;
#337 = LINE ( 'NONE', #155, #168 ) ;
ENDSEC;
END-ISO-10303-21;
