ISO-10303-21;
HEADER;
FILE_DESCRIPTION (( 'STEP AP203' ),
    '1' );
FILE_NAME ('54621.step',
    '2021-09-03T07:52:51',
    ( '' ),
    ( '' ),
    'SwSTEP 2.0',
    'SolidWorks 2019',
    '' );
FILE_SCHEMA (( 'CONFIG_CONTROL_DESIGN' ));
ENDSEC;

DATA;
#1 = CARTESIAN_POINT ( 'NONE',  ( 2.444036937190193601E-13, -8.572527594031472993E-15, 70.00000000000000000 ) ) ;
#2 = EDGE_LOOP ( 'NONE', ( #53, #250 ) ) ;
#3 = ORIENTED_EDGE ( 'NONE', *, *, #199, .F. ) ;
#4 = EDGE_LOOP ( 'NONE', ( #88, #122, #58, #260 ) ) ;
#5 = ADVANCED_FACE ( 'NONE', ( #12 ), #213, .T. ) ;
#6 = ORIENTED_EDGE ( 'NONE', *, *, #218, .F. ) ;
#7 = LOCAL_TIME ( 9, 52, 51.00000000000000000, #308 ) ;
#8 = DIRECTION ( 'NONE',  ( 3.491481338843133355E-15, -1.224646799147353207E-16, 1.000000000000000000 ) ) ;
#9 = EDGE_CURVE ( 'NONE', #97, #282, #265, .T. ) ;
#10 = CARTESIAN_POINT ( 'NONE',  ( 1.615298739973334526E-13, -3.249999999999991562, 23.00000000000000000 ) ) ;
#11 = DIRECTION ( 'NONE',  ( -3.491481338843133355E-15, 1.224646799147353207E-16, -1.000000000000000000 ) ) ;
#12 = FACE_OUTER_BOUND ( 'NONE', #185, .T. ) ;
#13 = DESIGN_CONTEXT ( 'detailed design', #176, 'design' ) ;
#14 = DIRECTION ( 'NONE',  ( 0.0000000000000000000, 1.000000000000000000, 0.0000000000000000000 ) ) ;
#15 = CONICAL_SURFACE ( 'NONE', #62, 2.549999999999994937, 0.7853981633974439491 ) ;
#16 = FACE_OUTER_BOUND ( 'NONE', #316, .T. ) ;
#17 =( GEOMETRIC_REPRESENTATION_CONTEXT ( 3 ) GLOBAL_UNCERTAINTY_ASSIGNED_CONTEXT ( ( #314 ) ) GLOBAL_UNIT_ASSIGNED_CONTEXT ( ( #39, #160, #335 ) ) REPRESENTATION_CONTEXT ( 'NONE', 'WORKASPACE' ) );
#18 = SECURITY_CLASSIFICATION_LEVEL ( 'unclassified' ) ;
#19 = DIRECTION ( 'NONE',  ( 0.0000000000000000000, 1.000000000000000000, 0.0000000000000000000 ) ) ;
#20 = APPROVAL_STATUS ( 'not_yet_approved' ) ;
#21 = DIRECTION ( 'NONE',  ( -3.491481338843133355E-15, 1.224646799147353207E-16, -1.000000000000000000 ) ) ;
#22 = DIRECTION ( 'NONE',  ( -3.491481338843133355E-15, 1.224646799147353207E-16, -1.000000000000000000 ) ) ;
#23 = CARTESIAN_POINT ( 'NONE',  ( 6.818154325386541622E-15, -2.391486609933862546E-16, 1.952797011839584318 ) ) ;
#24 = PERSON_AND_ORGANIZATION ( #271, #268 ) ;
#25 = DIRECTION ( 'NONE',  ( 4.740750632337830396E-31, 1.000000000000000000, 1.334402673828318516E-16 ) ) ;
#26 = VERTEX_POINT ( 'NONE', #326 ) ;
#27 = DATE_AND_TIME ( #329, #215 ) ;
#28 = DIRECTION ( 'NONE',  ( 0.0000000000000000000, 1.000000000000000000, 0.0000000000000000000 ) ) ;
#29 = VECTOR ( 'NONE', #135, 999.9999999999998863 ) ;
#30 = ORIENTED_EDGE ( 'NONE', *, *, #67, .F. ) ;
#31 = CARTESIAN_POINT ( 'NONE',  ( 8.030407079339205455E-14, 3.249999999999986233, 23.00000000000000000 ) ) ;
#32 = CYLINDRICAL_SURFACE ( 'NONE', #44, 3.249999999999992006 ) ;
#33 = DIRECTION ( 'NONE',  ( -3.491481338843133355E-15, 1.224646799147353207E-16, -1.000000000000000000 ) ) ;
#34 = DIRECTION ( 'NONE',  ( -3.491481338843133355E-15, 1.224646799147353207E-16, -1.000000000000000000 ) ) ;
#35 = ORIENTED_EDGE ( 'NONE', *, *, #120, .F. ) ;
#36 = CARTESIAN_POINT ( 'NONE',  ( 1.389645219916508175E-30, 3.249999999999992006, 3.980102097228888371E-16 ) ) ;
#37 = CARTESIAN_POINT ( 'NONE',  ( 2.419596567818291352E-13, -8.486802318091157127E-15, 69.29999999999999716 ) ) ;
#38 = APPROVAL ( #20, 'UNSPECIFIED' ) ;
#39 =( LENGTH_UNIT ( ) NAMED_UNIT ( * ) SI_UNIT ( .MILLI., .METRE. ) );
#40 = AXIS2_PLACEMENT_3D ( 'NONE', #294, #96, #198 ) ;
#41 = EDGE_LOOP ( 'NONE', ( #166, #184, #334 ) ) ;
#42 = ADVANCED_FACE ( 'NONE', ( #154 ), #245, .F. ) ;
#43 = DIRECTION ( 'NONE',  ( -3.491481338843133355E-15, 1.224646799147353207E-16, -1.000000000000000000 ) ) ;
#44 = AXIS2_PLACEMENT_3D ( 'NONE', #87, #119, #192 ) ;
#45 = CALENDAR_DATE ( 2021, 3, 9 ) ;
#46 = ORIENTED_EDGE ( 'NONE', *, *, #202, .T. ) ;
#47 = DIRECTION ( 'NONE',  ( -4.740750632337830396E-31, -1.000000000000000000, -1.334402673828318516E-16 ) ) ;
#48 = PERSON_AND_ORGANIZATION ( #271, #268 ) ;
#49 = LINE ( 'NONE', #36, #74 ) ;
#50 = EDGE_CURVE ( 'NONE', #86, #99, #237, .T. ) ;
#51 = AXIS2_PLACEMENT_3D ( 'NONE', #77, #319, #57 ) ;
#52 = PERSON_AND_ORGANIZATION_ROLE ( 'creator' ) ;
#53 = ORIENTED_EDGE ( 'NONE', *, *, #293, .F. ) ;
#54 = DIRECTION ( 'NONE',  ( -4.740750632337830396E-31, -1.000000000000000000, -1.334402673828318516E-16 ) ) ;
#55 = EDGE_LOOP ( 'NONE', ( #210, #81, #114, #140 ) ) ;
#56 = CIRCLE ( 'NONE', #40, 3.249999999999988898 ) ;
#57 = DIRECTION ( 'NONE',  ( 4.275831445896958607E-31, 1.000000000000000000, 1.224646799147353207E-16 ) ) ;
#58 = ORIENTED_EDGE ( 'NONE', *, *, #50, .F. ) ;
#59 = FACE_OUTER_BOUND ( 'NONE', #105, .T. ) ;
#60 = EDGE_CURVE ( 'NONE', #189, #26, #128, .T. ) ;
#61 = CARTESIAN_POINT ( 'NONE',  ( 2.419596567818291352E-13, 3.249999999999986233, 69.29999999999999716 ) ) ;
#62 = AXIS2_PLACEMENT_3D ( 'NONE', #148, #34, #241 ) ;
#63 = MANIFOLD_SOLID_BREP ( 'Corps-Déplacer/Copier1[2]', #292 ) ;
#64 = APPROVAL_PERSON_ORGANIZATION ( #48, #205, #157 ) ;
#65 = CARTESIAN_POINT ( 'NONE',  ( 2.444036937190193601E-13, 2.549999999999986500, 70.00000000000000000 ) ) ;
#66 = MANIFOLD_SOLID_BREP ( 'Corps-Déplacer/Copier1[1]', #144 ) ;
#67 = EDGE_CURVE ( 'NONE', #313, #324, #240, .T. ) ;
#68 = LINE ( 'NONE', #79, #145 ) ;
#69 = CARTESIAN_POINT ( 'NONE',  ( 6.818154325386541622E-15, -2.391486609933862546E-16, 1.952797011839584318 ) ) ;
#70 = ADVANCED_FACE ( 'NONE', ( #59 ), #167, .F. ) ;
#71 = PRODUCT ( '54621', '54621', '', ( #110 ) ) ;
#72 = DIRECTION ( 'NONE',  ( -3.491481338843133355E-15, 1.224646799147353207E-16, -1.000000000000000000 ) ) ;
#73 = SHAPE_DEFINITION_REPRESENTATION ( #217, #221 ) ;
#74 = VECTOR ( 'NONE', #137, 1000.000000000000000 ) ;
#75 = DIRECTION ( 'NONE',  ( -3.491481338843133355E-15, 1.224646799147353207E-16, -1.000000000000000000 ) ) ;
#76 = VECTOR ( 'NONE', #98, 1000.000000000000000 ) ;
#77 = CARTESIAN_POINT ( 'NONE',  ( 2.444036937190193601E-13, 1.912193722893851755E-32, 70.00000000000000000 ) ) ;
#78 = PERSON_AND_ORGANIZATION ( #271, #268 ) ;
#79 = CARTESIAN_POINT ( 'NONE',  ( 2.447159786528019082E-13, -2.550000000000003819, 70.00000000000000000 ) ) ;
#80 = PERSON_AND_ORGANIZATION_ROLE ( 'creator' ) ;
#81 = ORIENTED_EDGE ( 'NONE', *, *, #278, .T. ) ;
#82 = DATE_AND_TIME ( #113, #219 ) ;
#83 = AXIS2_PLACEMENT_3D ( 'NONE', #23, #197, #47 ) ;
#84 = SECURITY_CLASSIFICATION ( '', '', #18 ) ;
#85 = PRODUCT_DEFINITION ( 'UNKNOWN', '', #138, #13 ) ;
#86 = VERTEX_POINT ( 'NONE', #61 ) ;
#87 = CARTESIAN_POINT ( 'NONE',  ( 0.0000000000000000000, 0.0000000000000000000, 0.0000000000000000000 ) ) ;
#88 = ORIENTED_EDGE ( 'NONE', *, *, #60, .T. ) ;
#89 = DIRECTION ( 'NONE',  ( 3.491481338843133355E-15, -1.224646799147353207E-16, 1.000000000000000000 ) ) ;
#90 = CIRCLE ( 'NONE', #223, 3.249999999999988898 ) ;
#91 = DIRECTION ( 'NONE',  ( -4.275831445896958607E-31, -1.000000000000000000, -1.224646799147353207E-16 ) ) ;
#92 = CARTESIAN_POINT ( 'NONE',  ( 0.0000000000000000000, 0.0000000000000000000, 0.0000000000000000000 ) ) ;
#93 = ADVANCED_FACE ( 'NONE', ( #170 ), #15, .T. ) ;
#94 = LINE ( 'NONE', #270, #76 ) ;
#95 = DIRECTION ( 'NONE',  ( 0.0000000000000000000, 1.000000000000000000, 0.0000000000000000000 ) ) ;
#96 = DIRECTION ( 'NONE',  ( -3.491481338843133355E-15, 1.224646799147353207E-16, -1.000000000000000000 ) ) ;
#97 = VERTEX_POINT ( 'NONE', #10 ) ;
#98 = DIRECTION ( 'NONE',  ( 1.798245827342160317E-15, -0.8571673007021098911, 0.5150380749100582634 ) ) ;
#99 = VERTEX_POINT ( 'NONE', #200 ) ;
#100 = DIRECTION ( 'NONE',  ( -3.491481338843133355E-15, 1.224646799147353207E-16, -1.000000000000000000 ) ) ;
#101 = CARTESIAN_POINT ( 'NONE',  ( 8.030407079339205455E-14, -2.816687638038912352E-15, 23.00000000000000000 ) ) ;
#102 = AXIS2_PLACEMENT_3D ( 'NONE', #249, #257, #28 ) ;
#103 = CARTESIAN_POINT ( 'NONE',  ( 8.030407079339205455E-14, 3.249999999999986233, 23.00000000000000000 ) ) ;
#104 = COORDINATED_UNIVERSAL_TIME_OFFSET ( 1, 0, .AHEAD. ) ;
#105 = EDGE_LOOP ( 'NONE', ( #310, #337 ) ) ;
#106 = PLANE ( 'NONE',  #109 ) ;
#107 = APPROVAL_STATUS ( 'not_yet_approved' ) ;
#108 = EDGE_CURVE ( 'NONE', #324, #206, #233, .T. ) ;
#109 = AXIS2_PLACEMENT_3D ( 'NONE', #276, #89, #91 ) ;
#110 = MECHANICAL_CONTEXT ( 'NONE', #227, 'mechanical' ) ;
#111 = DATE_AND_TIME ( #277, #7 ) ;
#112 = ORIENTED_EDGE ( 'NONE', *, *, #196, .T. ) ;
#113 = CALENDAR_DATE ( 2021, 3, 9 ) ;
#114 = ORIENTED_EDGE ( 'NONE', *, *, #153, .T. ) ;
#115 = CARTESIAN_POINT ( 'NONE',  ( 7.216164535109430853E-15, 3.249999999999986233, 1.952797011839584762 ) ) ;
#116 = VECTOR ( 'NONE', #321, 1000.000000000000000 ) ;
#117 = ORIENTED_EDGE ( 'NONE', *, *, #60, .F. ) ;
#118 = ORIENTED_EDGE ( 'NONE', *, *, #50, .T. ) ;
#119 = DIRECTION ( 'NONE',  ( -3.491481338843133355E-15, 1.224646799147353207E-16, -1.000000000000000000 ) ) ;
#120 = EDGE_CURVE ( 'NONE', #179, #324, #306, .T. ) ;
#121 = EDGE_LOOP ( 'NONE', ( #238, #307, #164, #30 ) ) ;
#122 = ORIENTED_EDGE ( 'NONE', *, *, #199, .T. ) ;
#123 = CC_DESIGN_PERSON_AND_ORGANIZATION_ASSIGNMENT ( #330, #52, ( #85 ) ) ;
#124 = APPROVAL ( #175, 'UNSPECIFIED' ) ;
#125 = CIRCLE ( 'NONE', #254, 3.249999999999986677 ) ;
#126 = DIRECTION ( 'NONE',  ( -3.491481338843133355E-15, 1.224646799147353207E-16, -1.000000000000000000 ) ) ;
#127 = CARTESIAN_POINT ( 'NONE',  ( 7.216164535109430853E-15, 3.249999999999986233, 1.952797011839584762 ) ) ;
#128 = CIRCLE ( 'NONE', #323, 2.549999999999994937 ) ;
#129 = DIRECTION ( 'NONE',  ( 4.275831445896958607E-31, 1.000000000000000000, 1.224646799147353207E-16 ) ) ;
#130 = DATE_TIME_ROLE ( 'classification_date' ) ;
#131 = DIRECTION ( 'NONE',  ( 0.0000000000000000000, 1.000000000000000000, 0.0000000000000000000 ) ) ;
#132 = DIRECTION ( 'NONE',  ( -3.491481338843133355E-15, 1.224646799147353207E-16, -1.000000000000000000 ) ) ;
#133 = COORDINATED_UNIVERSAL_TIME_OFFSET ( 1, 0, .AHEAD. ) ;
#134 = CARTESIAN_POINT ( 'NONE',  ( 0.0000000000000000000, 0.0000000000000000000, 0.0000000000000000000 ) ) ;
#135 = DIRECTION ( 'NONE',  ( 1.903218546456022717E-15, 0.8571673007021097801, 0.5150380749100585964 ) ) ;
#136 = CALENDAR_DATE ( 2021, 3, 9 ) ;
#137 = DIRECTION ( 'NONE',  ( -3.491481338843133355E-15, 1.224646799147353207E-16, -1.000000000000000000 ) ) ;
#138 = PRODUCT_DEFINITION_FORMATION_WITH_SPECIFIED_SOURCE ( 'ANY', '', #71, .NOT_KNOWN. ) ;
#139 = PERSON_AND_ORGANIZATION ( #271, #268 ) ;
#140 = ORIENTED_EDGE ( 'NONE', *, *, #9, .F. ) ;
#141 = ADVANCED_FACE ( 'NONE', ( #158 ), #235, .T. ) ;
#142 = VECTOR ( 'NONE', #286, 1000.000000000000000 ) ;
#143 = AXIS2_PLACEMENT_3D ( 'NONE', #211, #279, #54 ) ;
#144 = CLOSED_SHELL ( 'NONE', ( #93, #285, #70, #162, #188, #42 ) ) ;
#145 = VECTOR ( 'NONE', #230, 1000.000000000000000 ) ;
#146 = DIRECTION ( 'NONE',  ( -3.491481338843133355E-15, 1.224646799147353207E-16, -1.000000000000000000 ) ) ;
#147 = AXIS2_PLACEMENT_3D ( 'NONE', #149, #146, #236 ) ;
#148 = CARTESIAN_POINT ( 'NONE',  ( 2.444036937190193601E-13, -8.572527594031472993E-15, 70.00000000000000000 ) ) ;
#149 = CARTESIAN_POINT ( 'NONE',  ( 2.419596567818291352E-13, -8.486802318091157127E-15, 69.29999999999999716 ) ) ;
#150 = LINE ( 'NONE', #155, #264 ) ;
#151 = CIRCLE ( 'NONE', #244, 2.549999999999994937 ) ;
#152 = CARTESIAN_POINT ( 'NONE',  ( 6.818154325386540044E-15, -3.249999999999987121, 1.952797011839583874 ) ) ;
#153 = EDGE_CURVE ( 'NONE', #86, #282, #49, .T. ) ;
#154 = FACE_OUTER_BOUND ( 'NONE', #261, .T. ) ;
#155 = CARTESIAN_POINT ( 'NONE',  ( 3.980102097228874566E-16, -3.249999999999992006, -3.980102097228901683E-16 ) ) ;
#156 = PERSON_AND_ORGANIZATION ( #271, #268 ) ;
#157 = APPROVAL_ROLE ( '' ) ;
#158 = FACE_OUTER_BOUND ( 'NONE', #168, .T. ) ;
#159 = PERSON_AND_ORGANIZATION ( #271, #268 ) ;
#160 =( NAMED_UNIT ( * ) PLANE_ANGLE_UNIT ( ) SI_UNIT ( $, .RADIAN. ) );
#161 = CARTESIAN_POINT ( 'NONE',  ( 0.0000000000000000000, 0.0000000000000000000, 0.0000000000000000000 ) ) ;
#162 = ADVANCED_FACE ( 'NONE', ( #208 ), #32, .T. ) ;
#163 = CONICAL_SURFACE ( 'NONE', #102, 2.549999999999994937, 0.7853981633974439491 ) ;
#164 = ORIENTED_EDGE ( 'NONE', *, *, #108, .F. ) ;
#165 = AXIS2_PLACEMENT_3D ( 'NONE', #161, #280, #180 ) ;
#166 = ORIENTED_EDGE ( 'NONE', *, *, #224, .F. ) ;
#167 = PLANE ( 'NONE',  #182 ) ;
#168 = EDGE_LOOP ( 'NONE', ( #35, #332, #281 ) ) ;
#169 = EDGE_CURVE ( 'NONE', #99, #97, #150, .T. ) ;
#170 = FACE_OUTER_BOUND ( 'NONE', #4, .T. ) ;
#171 = DIRECTION ( 'NONE',  ( 4.740750632337830396E-31, 1.000000000000000000, 1.334402673828318516E-16 ) ) ;
#172 = DIRECTION ( 'NONE',  ( -3.491481338843133355E-15, 1.224646799147353207E-16, -1.000000000000000000 ) ) ;
#173 = ADVANCED_FACE ( 'NONE', ( #300 ), #232, .T. ) ;
#174 = AXIS2_PLACEMENT_3D ( 'NONE', #295, #43, #243 ) ;
#175 = APPROVAL_STATUS ( 'not_yet_approved' ) ;
#176 = APPLICATION_CONTEXT ( 'configuration controlled 3d designs of mechanical parts and assemblies' ) ;
#177 = CC_DESIGN_APPROVAL ( #205, ( #138 ) ) ;
#178 = PERSON_AND_ORGANIZATION_ROLE ( 'design_supplier' ) ;
#179 = VERTEX_POINT ( 'NONE', #92 ) ;
#180 = DIRECTION ( 'NONE',  ( 1.000000000000000000, 0.0000000000000000000, 0.0000000000000000000 ) ) ;
#181 = ORIENTED_EDGE ( 'NONE', *, *, #322, .F. ) ;
#182 = AXIS2_PLACEMENT_3D ( 'NONE', #263, #8, #216 ) ;
#183 = VERTEX_POINT ( 'NONE', #195 ) ;
#184 = ORIENTED_EDGE ( 'NONE', *, *, #120, .T. ) ;
#185 = EDGE_LOOP ( 'NONE', ( #311, #46, #258, #181 ) ) ;
#186 = APPROVAL_PERSON_ORGANIZATION ( #78, #124, #333 ) ;
#187 = APPROVAL_DATE_TIME ( #111, #124 ) ;
#188 = ADVANCED_FACE ( 'NONE', ( #303 ), #163, .T. ) ;
#189 = VERTEX_POINT ( 'NONE', #228 ) ;
#190 = FACE_OUTER_BOUND ( 'NONE', #121, .T. ) ;
#191 = CC_DESIGN_SECURITY_CLASSIFICATION ( #84, ( #138 ) ) ;
#192 = DIRECTION ( 'NONE',  ( 4.275831445896958607E-31, 1.000000000000000000, 1.224646799147353207E-16 ) ) ;
#193 = CYLINDRICAL_SURFACE ( 'NONE', #320, 3.249999999999988010 ) ;
#194 = CARTESIAN_POINT ( 'NONE',  ( 1.389645219916506599E-30, 3.249999999999988010, 3.980102097228883440E-16 ) ) ;
#195 = CARTESIAN_POINT ( 'NONE',  ( 4.395912276911217312E-14, -3.249999999999991118, 23.00000000000000000 ) ) ;
#196 = EDGE_CURVE ( 'NONE', #26, #189, #151, .T. ) ;
#197 = DIRECTION ( 'NONE',  ( 3.491481338843133355E-15, -1.224646799147353207E-16, 1.000000000000000000 ) ) ;
#198 = DIRECTION ( 'NONE',  ( 0.0000000000000000000, 1.000000000000000000, 0.0000000000000000000 ) ) ;
#199 = EDGE_CURVE ( 'NONE', #26, #99, #68, .T. ) ;
#200 = CARTESIAN_POINT ( 'NONE',  ( 1.615298739973333516E-13, -3.250000000000003109, 69.29999999999999716 ) ) ;
#201 = DIRECTION ( 'NONE',  ( 4.275831445896959482E-31, 1.000000000000000000, 1.224646799147353207E-16 ) ) ;
#202 = EDGE_CURVE ( 'NONE', #183, #313, #56, .T. ) ;
#203 = APPROVAL_ROLE ( '' ) ;
#204 = APPROVAL_DATE_TIME ( #297, #205 ) ;
#205 = APPROVAL ( #107, 'UNSPECIFIED' ) ;
#206 = VERTEX_POINT ( 'NONE', #152 ) ;
#207 = PERSON_AND_ORGANIZATION_ROLE ( 'design_owner' ) ;
#208 = FACE_OUTER_BOUND ( 'NONE', #55, .T. ) ;
#209 = CC_DESIGN_DATE_AND_TIME_ASSIGNMENT ( #82, #130, ( #84 ) ) ;
#210 = ORIENTED_EDGE ( 'NONE', *, *, #169, .F. ) ;
#211 = CARTESIAN_POINT ( 'NONE',  ( 6.818154325386541622E-15, -2.391486609933862546E-16, 1.952797011839584318 ) ) ;
#212 = EDGE_LOOP ( 'NONE', ( #3, #112, #247, #231 ) ) ;
#213 = CYLINDRICAL_SURFACE ( 'NONE', #214, 3.249999999999988010 ) ;
#214 = AXIS2_PLACEMENT_3D ( 'NONE', #296, #132, #201 ) ;
#215 = LOCAL_TIME ( 9, 52, 51.00000000000000000, #133 ) ;
#216 = DIRECTION ( 'NONE',  ( -4.275831445896958607E-31, -1.000000000000000000, -1.224646799147353207E-16 ) ) ;
#217 = PRODUCT_DEFINITION_SHAPE ( 'NONE', 'NONE',  #85 ) ;
#218 = EDGE_CURVE ( 'NONE', #282, #97, #325, .T. ) ;
#219 = LOCAL_TIME ( 9, 52, 51.00000000000000000, #336 ) ;
#220 = FACE_OUTER_BOUND ( 'NONE', #2, .T. ) ;
#221 = ADVANCED_BREP_SHAPE_REPRESENTATION ( '54621', ( #66, #63, #165 ), #17 ) ;
#222 = CARTESIAN_POINT ( 'NONE',  ( 8.030407079339205455E-14, -2.816687638038912352E-15, 23.00000000000000000 ) ) ;
#223 = AXIS2_PLACEMENT_3D ( 'NONE', #222, #172, #131 ) ;
#224 = EDGE_CURVE ( 'NONE', #179, #206, #94, .T. ) ;
#225 = ORIENTED_EDGE ( 'NONE', *, *, #153, .F. ) ;
#226 = PERSON_AND_ORGANIZATION_ROLE ( 'classification_officer' ) ;
#227 = APPLICATION_CONTEXT ( 'configuration controlled 3d designs of mechanical parts and assemblies' ) ;
#228 = CARTESIAN_POINT ( 'NONE',  ( 2.444036937190193601E-13, 2.549999999999986500, 70.00000000000000000 ) ) ;
#229 = DATE_TIME_ROLE ( 'creation_date' ) ;
#230 = DIRECTION ( 'NONE',  ( -2.382254525458727330E-15, -0.7071067811865443531, -0.7071067811865506814 ) ) ;
#231 = ORIENTED_EDGE ( 'NONE', *, *, #278, .F. ) ;
#232 = CONICAL_SURFACE ( 'NONE', #143, 3.249999999999986677, 1.029744258676649649 ) ;
#233 = CIRCLE ( 'NONE', #274, 3.249999999999986677 ) ;
#234 = CC_DESIGN_PERSON_AND_ORGANIZATION_ASSIGNMENT ( #301, #80, ( #138 ) ) ;
#235 = CONICAL_SURFACE ( 'NONE', #83, 3.249999999999986677, 1.029744258676649649 ) ;
#236 = DIRECTION ( 'NONE',  ( 0.0000000000000000000, 1.000000000000000000, 0.0000000000000000000 ) ) ;
#237 = CIRCLE ( 'NONE', #147, 3.249999999999995115 ) ;
#238 = ORIENTED_EDGE ( 'NONE', *, *, #293, .T. ) ;
#239 = CARTESIAN_POINT ( 'NONE',  ( 0.0000000000000000000, 0.0000000000000000000, 0.0000000000000000000 ) ) ;
#240 = LINE ( 'NONE', #194, #142 ) ;
#241 = DIRECTION ( 'NONE',  ( 0.0000000000000000000, 1.000000000000000000, 0.0000000000000000000 ) ) ;
#242 = CIRCLE ( 'NONE', #283, 3.249999999999995115 ) ;
#243 = DIRECTION ( 'NONE',  ( 0.0000000000000000000, 1.000000000000000000, 0.0000000000000000000 ) ) ;
#244 = AXIS2_PLACEMENT_3D ( 'NONE', #1, #11, #312 ) ;
#245 = PLANE ( 'NONE',  #51 ) ;
#246 = APPLICATION_PROTOCOL_DEFINITION ( 'international standard', 'config_control_design', 1994, #227 ) ;
#247 = ORIENTED_EDGE ( 'NONE', *, *, #273, .T. ) ;
#248 = CYLINDRICAL_SURFACE ( 'NONE', #259, 3.249999999999992006 ) ;
#249 = CARTESIAN_POINT ( 'NONE',  ( 2.444036937190193601E-13, -8.572527594031472993E-15, 70.00000000000000000 ) ) ;
#250 = ORIENTED_EDGE ( 'NONE', *, *, #202, .F. ) ;
#251 = DATE_AND_TIME ( #45, #272 ) ;
#252 = CC_DESIGN_APPROVAL ( #38, ( #85 ) ) ;
#253 = PRODUCT_RELATED_PRODUCT_CATEGORY ( 'detail', '', ( #71 ) ) ;
#254 = AXIS2_PLACEMENT_3D ( 'NONE', #266, #33, #171 ) ;
#255 = ORIENTED_EDGE ( 'NONE', *, *, #169, .T. ) ;
#256 = APPROVAL_DATE_TIME ( #251, #38 ) ;
#257 = DIRECTION ( 'NONE',  ( -3.491481338843133355E-15, 1.224646799147353207E-16, -1.000000000000000000 ) ) ;
#258 = ORIENTED_EDGE ( 'NONE', *, *, #67, .T. ) ;
#259 = AXIS2_PLACEMENT_3D ( 'NONE', #134, #75, #129 ) ;
#260 = ORIENTED_EDGE ( 'NONE', *, *, #273, .F. ) ;
#261 = EDGE_LOOP ( 'NONE', ( #117, #305 ) ) ;
#262 = CC_DESIGN_PERSON_AND_ORGANIZATION_ASSIGNMENT ( #156, #207, ( #71 ) ) ;
#263 = CARTESIAN_POINT ( 'NONE',  ( 8.030407079339205455E-14, 2.437109646825506570E-32, 23.00000000000000000 ) ) ;
#264 = VECTOR ( 'NONE', #22, 1000.000000000000000 ) ;
#265 = CIRCLE ( 'NONE', #174, 3.249999999999988898 ) ;
#266 = CARTESIAN_POINT ( 'NONE',  ( 6.818154325386541622E-15, -2.391486609933862546E-16, 1.952797011839584318 ) ) ;
#267 = DIRECTION ( 'NONE',  ( -3.491481338843133355E-15, 1.224646799147353207E-16, -1.000000000000000000 ) ) ;
#268 = ORGANIZATION ( 'UNSPECIFIED', 'UNSPECIFIED', '' ) ;
#269 = CC_DESIGN_PERSON_AND_ORGANIZATION_ASSIGNMENT ( #159, #226, ( #84 ) ) ;
#270 = CARTESIAN_POINT ( 'NONE',  ( 6.818154325386540044E-15, -3.249999999999987121, 1.952797011839583874 ) ) ;
#271 = PERSON ( 'UNSPECIFIED', 'UNSPECIFIED', 'UNSPECIFIED', ('UNSPECIFIED'), ('UNSPECIFIED'), ('UNSPECIFIED') ) ;
#272 = LOCAL_TIME ( 9, 52, 51.00000000000000000, #104 ) ;
#273 = EDGE_CURVE ( 'NONE', #189, #86, #289, .T. ) ;
#274 = AXIS2_PLACEMENT_3D ( 'NONE', #69, #72, #25 ) ;
#275 = APPLICATION_PROTOCOL_DEFINITION ( 'international standard', 'config_control_design', 1994, #176 ) ;
#276 = CARTESIAN_POINT ( 'NONE',  ( 8.030407079339205455E-14, 2.437109646825506570E-32, 23.00000000000000000 ) ) ;
#277 = CALENDAR_DATE ( 2021, 3, 9 ) ;
#278 = EDGE_CURVE ( 'NONE', #99, #86, #242, .T. ) ;
#279 = DIRECTION ( 'NONE',  ( 3.491481338843133355E-15, -1.224646799147353207E-16, 1.000000000000000000 ) ) ;
#280 = DIRECTION ( 'NONE',  ( 0.0000000000000000000, 0.0000000000000000000, 1.000000000000000000 ) ) ;
#281 = ORIENTED_EDGE ( 'NONE', *, *, #322, .T. ) ;
#282 = VERTEX_POINT ( 'NONE', #103 ) ;
#283 = AXIS2_PLACEMENT_3D ( 'NONE', #37, #100, #19 ) ;
#284 = EDGE_CURVE ( 'NONE', #183, #206, #298, .T. ) ;
#285 = ADVANCED_FACE ( 'NONE', ( #16 ), #248, .T. ) ;
#286 = DIRECTION ( 'NONE',  ( -3.491481338843133355E-15, 1.224646799147353207E-16, -1.000000000000000000 ) ) ;
#287 = DIRECTION ( 'NONE',  ( -3.491481338843133355E-15, 1.224646799147353207E-16, -1.000000000000000000 ) ) ;
#288 = CARTESIAN_POINT ( 'NONE',  ( 2.444036937190193601E-13, -8.572527594031472993E-15, 70.00000000000000000 ) ) ;
#289 = LINE ( 'NONE', #65, #116 ) ;
#290 = CC_DESIGN_DATE_AND_TIME_ASSIGNMENT ( #27, #229, ( #85 ) ) ;
#291 = AXIS2_PLACEMENT_3D ( 'NONE', #101, #126, #14 ) ;
#292 = CLOSED_SHELL ( 'NONE', ( #317, #173, #141, #5, #299 ) ) ;
#293 = EDGE_CURVE ( 'NONE', #313, #183, #90, .T. ) ;
#294 = CARTESIAN_POINT ( 'NONE',  ( 8.030407079339205455E-14, -2.816687638038912352E-15, 23.00000000000000000 ) ) ;
#295 = CARTESIAN_POINT ( 'NONE',  ( 8.030407079339205455E-14, -2.816687638038912352E-15, 23.00000000000000000 ) ) ;
#296 = CARTESIAN_POINT ( 'NONE',  ( 0.0000000000000000000, 0.0000000000000000000, 0.0000000000000000000 ) ) ;
#297 = DATE_AND_TIME ( #136, #315 ) ;
#298 = LINE ( 'NONE', #328, #309 ) ;
#299 = ADVANCED_FACE ( 'NONE', ( #220 ), #106, .T. ) ;
#300 = FACE_OUTER_BOUND ( 'NONE', #41, .T. ) ;
#301 = PERSON_AND_ORGANIZATION ( #271, #268 ) ;
#302 = APPROVAL_PERSON_ORGANIZATION ( #24, #38, #203 ) ;
#303 = FACE_OUTER_BOUND ( 'NONE', #212, .T. ) ;
#304 = COORDINATED_UNIVERSAL_TIME_OFFSET ( 1, 0, .AHEAD. ) ;
#305 = ORIENTED_EDGE ( 'NONE', *, *, #196, .F. ) ;
#306 = LINE ( 'NONE', #115, #29 ) ;
#307 = ORIENTED_EDGE ( 'NONE', *, *, #284, .T. ) ;
#308 = COORDINATED_UNIVERSAL_TIME_OFFSET ( 1, 0, .AHEAD. ) ;
#309 = VECTOR ( 'NONE', #21, 1000.000000000000000 ) ;
#310 = ORIENTED_EDGE ( 'NONE', *, *, #218, .T. ) ;
#311 = ORIENTED_EDGE ( 'NONE', *, *, #284, .F. ) ;
#312 = DIRECTION ( 'NONE',  ( 0.0000000000000000000, 1.000000000000000000, 0.0000000000000000000 ) ) ;
#313 = VERTEX_POINT ( 'NONE', #31 ) ;
#314 = UNCERTAINTY_MEASURE_WITH_UNIT (LENGTH_MEASURE( 1.000000000000000082E-05 ), #39, 'distance_accuracy_value', 'NONE');
#315 = LOCAL_TIME ( 9, 52, 51.00000000000000000, #304 ) ;
#316 = EDGE_LOOP ( 'NONE', ( #118, #255, #6, #225 ) ) ;
#317 = ADVANCED_FACE ( 'NONE', ( #190 ), #193, .T. ) ;
#318 = DIRECTION ( 'NONE',  ( 4.275831445896959482E-31, 1.000000000000000000, 1.224646799147353207E-16 ) ) ;
#319 = DIRECTION ( 'NONE',  ( -3.491481338843133355E-15, 1.224646799147353207E-16, -1.000000000000000000 ) ) ;
#320 = AXIS2_PLACEMENT_3D ( 'NONE', #239, #287, #318 ) ;
#321 = DIRECTION ( 'NONE',  ( -2.468850131082275599E-15, 0.7071067811865445751, -0.7071067811865504593 ) ) ;
#322 = EDGE_CURVE ( 'NONE', #206, #324, #125, .T. ) ;
#323 = AXIS2_PLACEMENT_3D ( 'NONE', #288, #267, #95 ) ;
#324 = VERTEX_POINT ( 'NONE', #127 ) ;
#325 = CIRCLE ( 'NONE', #291, 3.249999999999988898 ) ;
#326 = CARTESIAN_POINT ( 'NONE',  ( 2.435368228221770074E-13, -2.550000000000003819, 70.00000000000000000 ) ) ;
#327 = CC_DESIGN_PERSON_AND_ORGANIZATION_ASSIGNMENT ( #139, #178, ( #138 ) ) ;
#328 = CARTESIAN_POINT ( 'NONE',  ( 3.980102097228869635E-16, -3.249999999999988010, -3.980102097228896752E-16 ) ) ;
#329 = CALENDAR_DATE ( 2021, 3, 9 ) ;
#330 = PERSON_AND_ORGANIZATION ( #271, #268 ) ;
#331 = CC_DESIGN_APPROVAL ( #124, ( #84 ) ) ;
#332 = ORIENTED_EDGE ( 'NONE', *, *, #224, .T. ) ;
#333 = APPROVAL_ROLE ( '' ) ;
#334 = ORIENTED_EDGE ( 'NONE', *, *, #108, .T. ) ;
#335 =( NAMED_UNIT ( * ) SI_UNIT ( $, .STERADIAN. ) SOLID_ANGLE_UNIT ( ) );
#336 = COORDINATED_UNIVERSAL_TIME_OFFSET ( 1, 0, .AHEAD. ) ;
#337 = ORIENTED_EDGE ( 'NONE', *, *, #9, .T. ) ;
ENDSEC;
END-ISO-10303-21;
