ISO-10303-21;
HEADER;
FILE_DESCRIPTION (( 'STEP AP203' ),
    '1' );
FILE_NAME ('54620.step',
    '2021-09-03T07:52:46',
    ( '' ),
    ( '' ),
    'SwSTEP 2.0',
    'SolidWorks 2019',
    '' );
FILE_SCHEMA (( 'CONFIG_CONTROL_DESIGN' ));
ENDSEC;

DATA;
#1 =( NAMED_UNIT ( * ) PLANE_ANGLE_UNIT ( ) SI_UNIT ( $, .RADIAN. ) );
#2 = CARTESIAN_POINT ( 'NONE',  ( 0.0000000000000000000, 0.0000000000000000000, 0.0000000000000000000 ) ) ;
#3 = MECHANICAL_CONTEXT ( 'NONE', #276, 'mechanical' ) ;
#4 = LINE ( 'NONE', #59, #219 ) ;
#5 = AXIS2_PLACEMENT_3D ( 'NONE', #78, #83, #154 ) ;
#6 = ADVANCED_FACE ( 'NONE', ( #137 ), #309, .T. ) ;
#7 = DIRECTION ( 'NONE',  ( 0.0000000000000000000, 0.0000000000000000000, 1.000000000000000000 ) ) ;
#8 = ORIENTED_EDGE ( 'NONE', *, *, #82, .T. ) ;
#9 = VERTEX_POINT ( 'NONE', #283 ) ;
#10 = AXIS2_PLACEMENT_3D ( 'NONE', #272, #279, #60 ) ;
#11 = DIRECTION ( 'NONE',  ( 3.491481338843133355E-15, -1.224646799147353207E-16, 1.000000000000000000 ) ) ;
#12 = VECTOR ( 'NONE', #90, 1000.000000000000000 ) ;
#13 = CC_DESIGN_PERSON_AND_ORGANIZATION_ASSIGNMENT ( #241, #326, ( #162 ) ) ;
#14 = EDGE_LOOP ( 'NONE', ( #240, #116, #36, #289 ) ) ;
#15 = LINE ( 'NONE', #322, #284 ) ;
#16 =( NAMED_UNIT ( * ) SI_UNIT ( $, .STERADIAN. ) SOLID_ANGLE_UNIT ( ) );
#17 = PERSON_AND_ORGANIZATION_ROLE ( 'creator' ) ;
#18 = PERSON_AND_ORGANIZATION_ROLE ( 'creator' ) ;
#19 = DATE_AND_TIME ( #43, #53 ) ;
#20 = EDGE_LOOP ( 'NONE', ( #49, #70, #142, #218 ) ) ;
#21 = APPROVAL_DATE_TIME ( #19, #293 ) ;
#22 = DIRECTION ( 'NONE',  ( 4.814824860968101894E-31, 1.000000000000000000, 1.355252715606883994E-16 ) ) ;
#23 = DIRECTION ( 'NONE',  ( 4.275831445896958607E-31, 1.000000000000000000, 1.224646799147353207E-16 ) ) ;
#24 = LINE ( 'NONE', #89, #268 ) ;
#25 = CARTESIAN_POINT ( 'NONE',  ( 2.419596567818291352E-13, -8.486802318091157127E-15, 69.29999999999999716 ) ) ;
#26 = VECTOR ( 'NONE', #236, 1000.000000000000000 ) ;
#27 = VECTOR ( 'NONE', #95, 1000.000000000000000 ) ;
#28 = CYLINDRICAL_SURFACE ( 'NONE', #198, 3.199999999999997069 ) ;
#29 = CARTESIAN_POINT ( 'NONE',  ( 1.615237507633376792E-13, -3.199999999999996625, 23.00000000000000000 ) ) ;
#30 =( LENGTH_UNIT ( ) NAMED_UNIT ( * ) SI_UNIT ( .MILLI., .METRE. ) );
#31 = DIRECTION ( 'NONE',  ( 4.275831445896958607E-31, 1.000000000000000000, 1.224646799147353207E-16 ) ) ;
#32 = FACE_OUTER_BOUND ( 'NONE', #38, .T. ) ;
#33 = ADVANCED_FACE ( 'NONE', ( #114 ), #206, .T. ) ;
#34 = CARTESIAN_POINT ( 'NONE',  ( 2.444036937190193601E-13, -8.572527594031472993E-15, 70.00000000000000000 ) ) ;
#35 = CYLINDRICAL_SURFACE ( 'NONE', #323, 3.199999999999992628 ) ;
#36 = ORIENTED_EDGE ( 'NONE', *, *, #159, .F. ) ;
#37 = CARTESIAN_POINT ( 'NONE',  ( 2.444036937190193601E-13, 1.874699728327308873E-32, 70.00000000000000000 ) ) ;
#38 = EDGE_LOOP ( 'NONE', ( #329, #291 ) ) ;
#39 = DIRECTION ( 'NONE',  ( -4.814824860968101894E-31, -1.000000000000000000, -1.355252715606883994E-16 ) ) ;
#40 = CC_DESIGN_SECURITY_CLASSIFICATION ( #76, ( #328 ) ) ;
#41 = DATE_AND_TIME ( #167, #94 ) ;
#42 = DIRECTION ( 'NONE',  ( -3.491481338843133355E-15, 1.224646799147353207E-16, -1.000000000000000000 ) ) ;
#43 = CALENDAR_DATE ( 2021, 3, 9 ) ;
#44 = CC_DESIGN_DATE_AND_TIME_ASSIGNMENT ( #75, #324, ( #76 ) ) ;
#45 = CIRCLE ( 'NONE', #80, 3.199999999999993960 ) ;
#46 = CONICAL_SURFACE ( 'NONE', #251, 3.199999999999991740, 1.029744258676649649 ) ;
#47 = PERSON_AND_ORGANIZATION ( #171, #105 ) ;
#48 = ADVANCED_FACE ( 'NONE', ( #286 ), #197, .T. ) ;
#49 = ORIENTED_EDGE ( 'NONE', *, *, #180, .T. ) ;
#50 = DATE_AND_TIME ( #304, #212 ) ;
#51 = UNCERTAINTY_MEASURE_WITH_UNIT (LENGTH_MEASURE( 1.000000000000000082E-05 ), #30, 'distance_accuracy_value', 'NONE');
#52 = ORIENTED_EDGE ( 'NONE', *, *, #307, .T. ) ;
#53 = LOCAL_TIME ( 9, 52, 46.00000000000000000, #267 ) ;
#54 = APPROVAL_STATUS ( 'not_yet_approved' ) ;
#55 = LINE ( 'NONE', #57, #12 ) ;
#56 = ORIENTED_EDGE ( 'NONE', *, *, #159, .T. ) ;
#57 = CARTESIAN_POINT ( 'NONE',  ( 1.368266062687023636E-30, 3.199999999999992628, 3.918869757271521092E-16 ) ) ;
#58 = ADVANCED_FACE ( 'NONE', ( #32 ), #161, .T. ) ;
#59 = CARTESIAN_POINT ( 'NONE',  ( 2.444036937190193601E-13, 2.499999999999991562, 70.00000000000000000 ) ) ;
#60 = DIRECTION ( 'NONE',  ( 0.0000000000000000000, 1.000000000000000000, 0.0000000000000000000 ) ) ;
#61 = CIRCLE ( 'NONE', #332, 3.199999999999993960 ) ;
#62 = PRODUCT_RELATED_PRODUCT_CATEGORY ( 'detail', '', ( #162 ) ) ;
#63 = DIRECTION ( 'NONE',  ( -3.491481338843133355E-15, 1.224646799147353207E-16, -1.000000000000000000 ) ) ;
#64 = CARTESIAN_POINT ( 'NONE',  ( 3.918869757271507780E-16, -3.199999999999992628, -3.918869757271534898E-16 ) ) ;
#65 = ORIENTED_EDGE ( 'NONE', *, *, #275, .T. ) ;
#66 = DIRECTION ( 'NONE',  ( -3.491481338843133355E-15, 1.224646799147353207E-16, -1.000000000000000000 ) ) ;
#67 = AXIS2_PLACEMENT_3D ( 'NONE', #311, #253, #86 ) ;
#68 = VERTEX_POINT ( 'NONE', #85 ) ;
#69 = LINE ( 'NONE', #140, #327 ) ;
#70 = ORIENTED_EDGE ( 'NONE', *, *, #325, .T. ) ;
#71 = FACE_OUTER_BOUND ( 'NONE', #188, .T. ) ;
#72 = ORIENTED_EDGE ( 'NONE', *, *, #117, .T. ) ;
#73 = ADVANCED_FACE ( 'NONE', ( #277 ), #258, .T. ) ;
#74 = CARTESIAN_POINT ( 'NONE',  ( 6.713259643457528257E-15, -2.354694508242576449E-16, 1.922753980888208813 ) ) ;
#75 = DATE_AND_TIME ( #124, #269 ) ;
#76 = SECURITY_CLASSIFICATION ( '', '', #99 ) ;
#77 = CC_DESIGN_PERSON_AND_ORGANIZATION_ASSIGNMENT ( #104, #303, ( #328 ) ) ;
#78 = CARTESIAN_POINT ( 'NONE',  ( 6.713259643457528257E-15, -2.354694508242576449E-16, 1.922753980888208813 ) ) ;
#79 = ORIENTED_EDGE ( 'NONE', *, *, #223, .T. ) ;
#80 = AXIS2_PLACEMENT_3D ( 'NONE', #160, #314, #336 ) ;
#81 = CIRCLE ( 'NONE', #333, 3.199999999999991740 ) ;
#82 = EDGE_CURVE ( 'NONE', #261, #68, #134, .T. ) ;
#83 = DIRECTION ( 'NONE',  ( -3.491481338843133355E-15, 1.224646799147353207E-16, -1.000000000000000000 ) ) ;
#84 = DATE_AND_TIME ( #129, #220 ) ;
#85 = CARTESIAN_POINT ( 'NONE',  ( 8.030407079339205455E-14, 3.199999999999991296, 23.00000000000000000 ) ) ;
#86 = DIRECTION ( 'NONE',  ( 4.275831445896958607E-31, 1.000000000000000000, 1.224646799147353207E-16 ) ) ;
#87 = DIRECTION ( 'NONE',  ( 0.0000000000000000000, 1.000000000000000000, 0.0000000000000000000 ) ) ;
#88 = AXIS2_PLACEMENT_3D ( 'NONE', #207, #63, #87 ) ;
#89 = CARTESIAN_POINT ( 'NONE',  ( 6.713259643457526679E-15, -3.199999999999992184, 1.922753980888208369 ) ) ;
#90 = DIRECTION ( 'NONE',  ( -3.491481338843133355E-15, 1.224646799147353207E-16, -1.000000000000000000 ) ) ;
#91 = DIRECTION ( 'NONE',  ( -3.491481338843133355E-15, 1.224646799147353207E-16, -1.000000000000000000 ) ) ;
#92 = ORIENTED_EDGE ( 'NONE', *, *, #96, .F. ) ;
#93 = ORIENTED_EDGE ( 'NONE', *, *, #290, .F. ) ;
#94 = LOCAL_TIME ( 9, 52, 46.00000000000000000, #320 ) ;
#95 = DIRECTION ( 'NONE',  ( -3.491481338843133355E-15, 1.224646799147353207E-16, -1.000000000000000000 ) ) ;
#96 = EDGE_CURVE ( 'NONE', #119, #192, #316, .T. ) ;
#97 = PERSON_AND_ORGANIZATION ( #171, #105 ) ;
#98 = DIRECTION ( 'NONE',  ( 1.903218546456022717E-15, 0.8571673007021097801, 0.5150380749100585964 ) ) ;
#99 = SECURITY_CLASSIFICATION_LEVEL ( 'unclassified' ) ;
#100 = AXIS2_PLACEMENT_3D ( 'NONE', #196, #42, #131 ) ;
#101 = COORDINATED_UNIVERSAL_TIME_OFFSET ( 1, 0, .AHEAD. ) ;
#102 = APPLICATION_PROTOCOL_DEFINITION ( 'international standard', 'config_control_design', 1994, #156 ) ;
#103 = APPROVAL_STATUS ( 'not_yet_approved' ) ;
#104 = PERSON_AND_ORGANIZATION ( #171, #105 ) ;
#105 = ORGANIZATION ( 'UNSPECIFIED', 'UNSPECIFIED', '' ) ;
#106 = ORIENTED_EDGE ( 'NONE', *, *, #228, .T. ) ;
#107 = CC_DESIGN_PERSON_AND_ORGANIZATION_ASSIGNMENT ( #122, #296, ( #76 ) ) ;
#108 = DIRECTION ( 'NONE',  ( -3.491481338843133355E-15, 1.224646799147353207E-16, -1.000000000000000000 ) ) ;
#109 = AXIS2_PLACEMENT_3D ( 'NONE', #34, #233, #257 ) ;
#110 = PLANE ( 'NONE',  #300 ) ;
#111 = DIRECTION ( 'NONE',  ( 0.0000000000000000000, 1.000000000000000000, 0.0000000000000000000 ) ) ;
#112 = FACE_OUTER_BOUND ( 'NONE', #287, .T. ) ;
#113 = CARTESIAN_POINT ( 'NONE',  ( 3.918869757271513204E-16, -3.199999999999997069, -3.918869757271540321E-16 ) ) ;
#114 = FACE_OUTER_BOUND ( 'NONE', #14, .T. ) ;
#115 = CARTESIAN_POINT ( 'NONE',  ( 0.0000000000000000000, 0.0000000000000000000, 0.0000000000000000000 ) ) ;
#116 = ORIENTED_EDGE ( 'NONE', *, *, #96, .T. ) ;
#117 = EDGE_CURVE ( 'NONE', #317, #9, #61, .T. ) ;
#118 = AXIS2_PLACEMENT_3D ( 'NONE', #177, #184, #155 ) ;
#119 = VERTEX_POINT ( 'NONE', #313 ) ;
#120 = ORIENTED_EDGE ( 'NONE', *, *, #225, .F. ) ;
#121 = CC_DESIGN_DATE_AND_TIME_ASSIGNMENT ( #50, #249, ( #169 ) ) ;
#122 = PERSON_AND_ORGANIZATION ( #171, #105 ) ;
#123 = VECTOR ( 'NONE', #108, 1000.000000000000000 ) ;
#124 = CALENDAR_DATE ( 2021, 3, 9 ) ;
#125 = ORIENTED_EDGE ( 'NONE', *, *, #135, .F. ) ;
#126 = AXIS2_PLACEMENT_3D ( 'NONE', #214, #66, #185 ) ;
#127 = CONICAL_SURFACE ( 'NONE', #315, 3.199999999999991740, 1.029744258676649649 ) ;
#128 = VERTEX_POINT ( 'NONE', #231 ) ;
#129 = CALENDAR_DATE ( 2021, 3, 9 ) ;
#130 = CARTESIAN_POINT ( 'NONE',  ( 0.0000000000000000000, 0.0000000000000000000, 0.0000000000000000000 ) ) ;
#131 = DIRECTION ( 'NONE',  ( 0.0000000000000000000, 1.000000000000000000, 0.0000000000000000000 ) ) ;
#132 = DIRECTION ( 'NONE',  ( 1.798245827342160317E-15, -0.8571673007021098911, 0.5150380749100582634 ) ) ;
#133 = APPROVAL_PERSON_ORGANIZATION ( #147, #293, #199 ) ;
#134 = LINE ( 'NONE', #280, #26 ) ;
#135 = EDGE_CURVE ( 'NONE', #128, #172, #247, .T. ) ;
#136 = DIRECTION ( 'NONE',  ( -4.275831445896958607E-31, -1.000000000000000000, -1.224646799147353207E-16 ) ) ;
#137 = FACE_OUTER_BOUND ( 'NONE', #294, .T. ) ;
#138 = DIRECTION ( 'NONE',  ( 3.491481338843133355E-15, -1.224646799147353207E-16, 1.000000000000000000 ) ) ;
#139 = ORIENTED_EDGE ( 'NONE', *, *, #186, .T. ) ;
#140 = CARTESIAN_POINT ( 'NONE',  ( 2.447098554188062106E-13, -2.500000000000008882, 70.00000000000000000 ) ) ;
#141 = ORIENTED_EDGE ( 'NONE', *, *, #223, .F. ) ;
#142 = ORIENTED_EDGE ( 'NONE', *, *, #275, .F. ) ;
#143 = CC_DESIGN_APPROVAL ( #331, ( #328 ) ) ;
#144 = FACE_OUTER_BOUND ( 'NONE', #150, .T. ) ;
#145 = FACE_OUTER_BOUND ( 'NONE', #200, .T. ) ;
#146 = DIRECTION ( 'NONE',  ( 4.275831445896958607E-31, 1.000000000000000000, 1.224646799147353207E-16 ) ) ;
#147 = PERSON_AND_ORGANIZATION ( #171, #105 ) ;
#148 = DIRECTION ( 'NONE',  ( 4.275831445896958607E-31, 1.000000000000000000, 1.224646799147353207E-16 ) ) ;
#149 = EDGE_CURVE ( 'NONE', #128, #261, #4, .T. ) ;
#150 = EDGE_LOOP ( 'NONE', ( #204, #221, #52 ) ) ;
#151 = APPROVAL_ROLE ( '' ) ;
#152 = CARTESIAN_POINT ( 'NONE',  ( 6.713259643457528257E-15, -2.354694508242576449E-16, 1.922753980888208813 ) ) ;
#153 = ORIENTED_EDGE ( 'NONE', *, *, #270, .T. ) ;
#154 = DIRECTION ( 'NONE',  ( 4.814824860968101894E-31, 1.000000000000000000, 1.355252715606883994E-16 ) ) ;
#155 = DIRECTION ( 'NONE',  ( 0.0000000000000000000, 1.000000000000000000, 0.0000000000000000000 ) ) ;
#156 = APPLICATION_CONTEXT ( 'configuration controlled 3d designs of mechanical parts and assemblies' ) ;
#157 = ORIENTED_EDGE ( 'NONE', *, *, #297, .T. ) ;
#158 = CIRCLE ( 'NONE', #10, 3.199999999999993960 ) ;
#159 = EDGE_CURVE ( 'NONE', #68, #192, #190, .T. ) ;
#160 = CARTESIAN_POINT ( 'NONE',  ( 8.030407079339205455E-14, -2.816687638038912352E-15, 23.00000000000000000 ) ) ;
#161 = PLANE ( 'NONE',  #224 ) ;
#162 = PRODUCT ( '54620', '54620', '', ( #3 ) ) ;
#163 = CARTESIAN_POINT ( 'NONE',  ( 8.030407079339205455E-14, -2.816687638038912352E-15, 23.00000000000000000 ) ) ;
#164 = EDGE_LOOP ( 'NONE', ( #125, #168 ) ) ;
#165 = ORIENTED_EDGE ( 'NONE', *, *, #149, .F. ) ;
#166 = CARTESIAN_POINT ( 'NONE',  ( 7.105146619184681993E-15, 3.199999999999991296, 1.922753980888209258 ) ) ;
#167 = CALENDAR_DATE ( 2021, 3, 9 ) ;
#168 = ORIENTED_EDGE ( 'NONE', *, *, #186, .F. ) ;
#169 = PRODUCT_DEFINITION ( 'UNKNOWN', '', #328, #319 ) ;
#170 = CARTESIAN_POINT ( 'NONE',  ( 8.030407079339205455E-14, 2.399615652258963962E-32, 23.00000000000000000 ) ) ;
#171 = PERSON ( 'UNSPECIFIED', 'UNSPECIFIED', 'UNSPECIFIED', ('UNSPECIFIED'), ('UNSPECIFIED'), ('UNSPECIFIED') ) ;
#172 = VERTEX_POINT ( 'NONE', #211 ) ;
#173 = CC_DESIGN_PERSON_AND_ORGANIZATION_ASSIGNMENT ( #217, #17, ( #169 ) ) ;
#174 = ORIENTED_EDGE ( 'NONE', *, *, #135, .T. ) ;
#175 = CLOSED_SHELL ( 'NONE', ( #6, #33, #232, #281, #48, #208 ) ) ;
#176 = CC_DESIGN_APPROVAL ( #293, ( #76 ) ) ;
#177 = CARTESIAN_POINT ( 'NONE',  ( 2.444036937190193601E-13, -8.572527594031472993E-15, 70.00000000000000000 ) ) ;
#178 = ORIENTED_EDGE ( 'NONE', *, *, #307, .F. ) ;
#179 = APPLICATION_PROTOCOL_DEFINITION ( 'international standard', 'config_control_design', 1994, #276 ) ;
#180 = EDGE_CURVE ( 'NONE', #9, #317, #45, .T. ) ;
#181 = CARTESIAN_POINT ( 'NONE',  ( 2.444036937190193601E-13, -8.572527594031472993E-15, 70.00000000000000000 ) ) ;
#182 = AXIS2_PLACEMENT_3D ( 'NONE', #170, #292, #295 ) ;
#183 = APPROVAL_PERSON_ORGANIZATION ( #330, #331, #151 ) ;
#184 = DIRECTION ( 'NONE',  ( -3.491481338843133355E-15, 1.224646799147353207E-16, -1.000000000000000000 ) ) ;
#185 = DIRECTION ( 'NONE',  ( 0.0000000000000000000, 1.000000000000000000, 0.0000000000000000000 ) ) ;
#186 = EDGE_CURVE ( 'NONE', #172, #128, #254, .T. ) ;
#187 = CARTESIAN_POINT ( 'NONE',  ( 0.0000000000000000000, 0.0000000000000000000, 0.0000000000000000000 ) ) ;
#188 = EDGE_LOOP ( 'NONE', ( #216, #153, #65 ) ) ;
#189 = DIRECTION ( 'NONE',  ( -3.491481338843133355E-15, 1.224646799147353207E-16, -1.000000000000000000 ) ) ;
#190 = CIRCLE ( 'NONE', #88, 3.199999999999993960 ) ;
#191 =( GEOMETRIC_REPRESENTATION_CONTEXT ( 3 ) GLOBAL_UNCERTAINTY_ASSIGNED_CONTEXT ( ( #51 ) ) GLOBAL_UNIT_ASSIGNED_CONTEXT ( ( #30, #1, #16 ) ) REPRESENTATION_CONTEXT ( 'NONE', 'WORKASPACE' ) );
#192 = VERTEX_POINT ( 'NONE', #29 ) ;
#193 = PLANE ( 'NONE',  #182 ) ;
#194 = EDGE_CURVE ( 'NONE', #264, #271, #24, .T. ) ;
#195 = EDGE_LOOP ( 'NONE', ( #248, #72, #157, #178 ) ) ;
#196 = CARTESIAN_POINT ( 'NONE',  ( 2.419596567818291352E-13, -8.486802318091157127E-15, 69.29999999999999716 ) ) ;
#197 = CONICAL_SURFACE ( 'NONE', #126, 2.500000000000000000, 0.7853981633974439491 ) ;
#198 = AXIS2_PLACEMENT_3D ( 'NONE', #130, #312, #23 ) ;
#199 = APPROVAL_ROLE ( '' ) ;
#200 = EDGE_LOOP ( 'NONE', ( #56, #79 ) ) ;
#201 = CARTESIAN_POINT ( 'NONE',  ( 6.713259643457526679E-15, -3.199999999999992184, 1.922753980888208369 ) ) ;
#202 = CIRCLE ( 'NONE', #282, 3.200000000000000178 ) ;
#203 = COORDINATED_UNIVERSAL_TIME_OFFSET ( 1, 0, .AHEAD. ) ;
#204 = ORIENTED_EDGE ( 'NONE', *, *, #270, .F. ) ;
#205 = SHAPE_DEFINITION_REPRESENTATION ( #335, #299 ) ;
#206 = CYLINDRICAL_SURFACE ( 'NONE', #298, 3.199999999999997069 ) ;
#207 = CARTESIAN_POINT ( 'NONE',  ( 8.030407079339205455E-14, -2.816687638038912352E-15, 23.00000000000000000 ) ) ;
#208 = ADVANCED_FACE ( 'NONE', ( #334 ), #110, .F. ) ;
#209 = DIRECTION ( 'NONE',  ( -3.491481338843133355E-15, 1.224646799147353207E-16, -1.000000000000000000 ) ) ;
#210 = FACE_OUTER_BOUND ( 'NONE', #20, .T. ) ;
#211 = CARTESIAN_POINT ( 'NONE',  ( 2.435306995881813097E-13, -2.500000000000008882, 70.00000000000000000 ) ) ;
#212 = LOCAL_TIME ( 9, 52, 46.00000000000000000, #203 ) ;
#213 = CC_DESIGN_PERSON_AND_ORGANIZATION_ASSIGNMENT ( #97, #18, ( #328 ) ) ;
#214 = CARTESIAN_POINT ( 'NONE',  ( 2.444036937190193601E-13, -8.572527594031472993E-15, 70.00000000000000000 ) ) ;
#215 = CARTESIAN_POINT ( 'NONE',  ( 4.390055219415191792E-14, -3.199999999999996625, 23.00000000000000000 ) ) ;
#216 = ORIENTED_EDGE ( 'NONE', *, *, #194, .F. ) ;
#217 = PERSON_AND_ORGANIZATION ( #171, #105 ) ;
#218 = ORIENTED_EDGE ( 'NONE', *, *, #297, .F. ) ;
#219 = VECTOR ( 'NONE', #255, 1000.000000000000000 ) ;
#220 = LOCAL_TIME ( 9, 52, 46.00000000000000000, #252 ) ;
#221 = ORIENTED_EDGE ( 'NONE', *, *, #194, .T. ) ;
#222 = CARTESIAN_POINT ( 'NONE',  ( 2.419596567818291352E-13, 3.199999999999991296, 69.29999999999999716 ) ) ;
#223 = EDGE_CURVE ( 'NONE', #192, #68, #158, .T. ) ;
#224 = AXIS2_PLACEMENT_3D ( 'NONE', #310, #138, #136 ) ;
#225 = EDGE_CURVE ( 'NONE', #261, #119, #202, .T. ) ;
#226 = DIRECTION ( 'NONE',  ( -3.491481338843133355E-15, 1.224646799147353207E-16, -1.000000000000000000 ) ) ;
#227 = ORIENTED_EDGE ( 'NONE', *, *, #228, .F. ) ;
#228 = EDGE_CURVE ( 'NONE', #172, #119, #69, .T. ) ;
#229 = EDGE_LOOP ( 'NONE', ( #227, #139, #238, #93 ) ) ;
#230 = DIRECTION ( 'NONE',  ( 0.0000000000000000000, 1.000000000000000000, 0.0000000000000000000 ) ) ;
#231 = CARTESIAN_POINT ( 'NONE',  ( 2.444036937190193601E-13, 2.499999999999991562, 70.00000000000000000 ) ) ;
#232 = ADVANCED_FACE ( 'NONE', ( #145 ), #193, .F. ) ;
#233 = DIRECTION ( 'NONE',  ( -3.491481338843133355E-15, 1.224646799147353207E-16, -1.000000000000000000 ) ) ;
#234 = AXIS2_PLACEMENT_3D ( 'NONE', #187, #7, #260 ) ;
#235 = CC_DESIGN_APPROVAL ( #321, ( #169 ) ) ;
#236 = DIRECTION ( 'NONE',  ( -3.491481338843133355E-15, 1.224646799147353207E-16, -1.000000000000000000 ) ) ;
#237 = DIRECTION ( 'NONE',  ( 0.0000000000000000000, 1.000000000000000000, 0.0000000000000000000 ) ) ;
#238 = ORIENTED_EDGE ( 'NONE', *, *, #149, .T. ) ;
#239 = DIRECTION ( 'NONE',  ( -2.382254525458727330E-15, -0.7071067811865443531, -0.7071067811865506814 ) ) ;
#240 = ORIENTED_EDGE ( 'NONE', *, *, #225, .T. ) ;
#241 = PERSON_AND_ORGANIZATION ( #171, #105 ) ;
#242 = DIRECTION ( 'NONE',  ( -3.491481338843133355E-15, 1.224646799147353207E-16, -1.000000000000000000 ) ) ;
#243 = CARTESIAN_POINT ( 'NONE',  ( 6.713259643457528257E-15, -2.354694508242576449E-16, 1.922753980888208813 ) ) ;
#244 = CLOSED_SHELL ( 'NONE', ( #301, #262, #266, #73, #58 ) ) ;
#245 = VERTEX_POINT ( 'NONE', #166 ) ;
#246 = DIRECTION ( 'NONE',  ( -4.814824860968101894E-31, -1.000000000000000000, -1.355252715606883994E-16 ) ) ;
#247 = CIRCLE ( 'NONE', #109, 2.500000000000000000 ) ;
#248 = ORIENTED_EDGE ( 'NONE', *, *, #325, .F. ) ;
#249 = DATE_TIME_ROLE ( 'creation_date' ) ;
#250 = AXIS2_PLACEMENT_3D ( 'NONE', #181, #209, #111 ) ;
#251 = AXIS2_PLACEMENT_3D ( 'NONE', #74, #265, #39 ) ;
#252 = COORDINATED_UNIVERSAL_TIME_OFFSET ( 1, 0, .AHEAD. ) ;
#253 = DIRECTION ( 'NONE',  ( -3.491481338843133355E-15, 1.224646799147353207E-16, -1.000000000000000000 ) ) ;
#254 = CIRCLE ( 'NONE', #118, 2.500000000000000000 ) ;
#255 = DIRECTION ( 'NONE',  ( -2.468850131082275599E-15, 0.7071067811865445751, -0.7071067811865504593 ) ) ;
#256 = APPROVAL_PERSON_ORGANIZATION ( #47, #321, #337 ) ;
#257 = DIRECTION ( 'NONE',  ( 0.0000000000000000000, 1.000000000000000000, 0.0000000000000000000 ) ) ;
#258 = CYLINDRICAL_SURFACE ( 'NONE', #67, 3.199999999999992628 ) ;
#259 = DIRECTION ( 'NONE',  ( -3.491481338843133355E-15, 1.224646799147353207E-16, -1.000000000000000000 ) ) ;
#260 = DIRECTION ( 'NONE',  ( 1.000000000000000000, 0.0000000000000000000, 0.0000000000000000000 ) ) ;
#261 = VERTEX_POINT ( 'NONE', #222 ) ;
#262 = ADVANCED_FACE ( 'NONE', ( #71 ), #46, .T. ) ;
#263 = CARTESIAN_POINT ( 'NONE',  ( 0.0000000000000000000, 0.0000000000000000000, 0.0000000000000000000 ) ) ;
#264 = VERTEX_POINT ( 'NONE', #263 ) ;
#265 = DIRECTION ( 'NONE',  ( 3.491481338843133355E-15, -1.224646799147353207E-16, 1.000000000000000000 ) ) ;
#266 = ADVANCED_FACE ( 'NONE', ( #144 ), #127, .T. ) ;
#267 = COORDINATED_UNIVERSAL_TIME_OFFSET ( 1, 0, .AHEAD. ) ;
#268 = VECTOR ( 'NONE', #132, 1000.000000000000000 ) ;
#269 = LOCAL_TIME ( 9, 52, 46.00000000000000000, #101 ) ;
#270 = EDGE_CURVE ( 'NONE', #264, #245, #15, .T. ) ;
#271 = VERTEX_POINT ( 'NONE', #201 ) ;
#272 = CARTESIAN_POINT ( 'NONE',  ( 8.030407079339205455E-14, -2.816687638038912352E-15, 23.00000000000000000 ) ) ;
#273 = CIRCLE ( 'NONE', #5, 3.199999999999991740 ) ;
#274 = MANIFOLD_SOLID_BREP ( 'Corps-Déplacer/Copier1[1]', #175 ) ;
#275 = EDGE_CURVE ( 'NONE', #245, #271, #273, .T. ) ;
#276 = APPLICATION_CONTEXT ( 'configuration controlled 3d designs of mechanical parts and assemblies' ) ;
#277 = FACE_OUTER_BOUND ( 'NONE', #195, .T. ) ;
#278 = LINE ( 'NONE', #64, #27 ) ;
#279 = DIRECTION ( 'NONE',  ( -3.491481338843133355E-15, 1.224646799147353207E-16, -1.000000000000000000 ) ) ;
#280 = CARTESIAN_POINT ( 'NONE',  ( 1.368266062687025563E-30, 3.199999999999997069, 3.918869757271526516E-16 ) ) ;
#281 = ADVANCED_FACE ( 'NONE', ( #112 ), #28, .T. ) ;
#282 = AXIS2_PLACEMENT_3D ( 'NONE', #25, #226, #237 ) ;
#283 = CARTESIAN_POINT ( 'NONE',  ( 8.030407079339205455E-14, 3.199999999999991296, 23.00000000000000000 ) ) ;
#284 = VECTOR ( 'NONE', #98, 999.9999999999998863 ) ;
#285 = APPROVAL_DATE_TIME ( #84, #331 ) ;
#286 = FACE_OUTER_BOUND ( 'NONE', #229, .T. ) ;
#287 = EDGE_LOOP ( 'NONE', ( #92, #305, #8, #141 ) ) ;
#288 = MANIFOLD_SOLID_BREP ( 'Corps-Déplacer/Copier1[2]', #244 ) ;
#289 = ORIENTED_EDGE ( 'NONE', *, *, #82, .F. ) ;
#290 = EDGE_CURVE ( 'NONE', #119, #261, #302, .T. ) ;
#291 = ORIENTED_EDGE ( 'NONE', *, *, #117, .F. ) ;
#292 = DIRECTION ( 'NONE',  ( 3.491481338843133355E-15, -1.224646799147353207E-16, 1.000000000000000000 ) ) ;
#293 = APPROVAL ( #103, 'UNSPECIFIED' ) ;
#294 = EDGE_LOOP ( 'NONE', ( #174, #106, #120, #165 ) ) ;
#295 = DIRECTION ( 'NONE',  ( -4.275831445896958607E-31, -1.000000000000000000, -1.224646799147353207E-16 ) ) ;
#296 = PERSON_AND_ORGANIZATION_ROLE ( 'classification_officer' ) ;
#297 = EDGE_CURVE ( 'NONE', #9, #245, #55, .T. ) ;
#298 = AXIS2_PLACEMENT_3D ( 'NONE', #2, #259, #31 ) ;
#299 = ADVANCED_BREP_SHAPE_REPRESENTATION ( '54620', ( #274, #288, #234 ), #191 ) ;
#300 = AXIS2_PLACEMENT_3D ( 'NONE', #37, #242, #148 ) ;
#301 = ADVANCED_FACE ( 'NONE', ( #210 ), #35, .T. ) ;
#302 = CIRCLE ( 'NONE', #100, 3.200000000000000178 ) ;
#303 = PERSON_AND_ORGANIZATION_ROLE ( 'design_supplier' ) ;
#304 = CALENDAR_DATE ( 2021, 3, 9 ) ;
#305 = ORIENTED_EDGE ( 'NONE', *, *, #290, .T. ) ;
#306 = APPROVAL_STATUS ( 'not_yet_approved' ) ;
#307 = EDGE_CURVE ( 'NONE', #271, #245, #81, .T. ) ;
#308 = DIRECTION ( 'NONE',  ( -3.491481338843133355E-15, 1.224646799147353207E-16, -1.000000000000000000 ) ) ;
#309 = CONICAL_SURFACE ( 'NONE', #250, 2.500000000000000000, 0.7853981633974439491 ) ;
#310 = CARTESIAN_POINT ( 'NONE',  ( 8.030407079339205455E-14, 2.399615652258963962E-32, 23.00000000000000000 ) ) ;
#311 = CARTESIAN_POINT ( 'NONE',  ( 0.0000000000000000000, 0.0000000000000000000, 0.0000000000000000000 ) ) ;
#312 = DIRECTION ( 'NONE',  ( -3.491481338843133355E-15, 1.224646799147353207E-16, -1.000000000000000000 ) ) ;
#313 = CARTESIAN_POINT ( 'NONE',  ( 1.615237507633375782E-13, -3.200000000000009059, 69.29999999999999716 ) ) ;
#314 = DIRECTION ( 'NONE',  ( -3.491481338843133355E-15, 1.224646799147353207E-16, -1.000000000000000000 ) ) ;
#315 = AXIS2_PLACEMENT_3D ( 'NONE', #243, #11, #246 ) ;
#316 = LINE ( 'NONE', #113, #123 ) ;
#317 = VERTEX_POINT ( 'NONE', #215 ) ;
#318 = APPROVAL_DATE_TIME ( #41, #321 ) ;
#319 = DESIGN_CONTEXT ( 'detailed design', #156, 'design' ) ;
#320 = COORDINATED_UNIVERSAL_TIME_OFFSET ( 1, 0, .AHEAD. ) ;
#321 = APPROVAL ( #54, 'UNSPECIFIED' ) ;
#322 = CARTESIAN_POINT ( 'NONE',  ( 7.105146619184681993E-15, 3.199999999999991296, 1.922753980888209258 ) ) ;
#323 = AXIS2_PLACEMENT_3D ( 'NONE', #115, #189, #146 ) ;
#324 = DATE_TIME_ROLE ( 'classification_date' ) ;
#325 = EDGE_CURVE ( 'NONE', #317, #271, #278, .T. ) ;
#326 = PERSON_AND_ORGANIZATION_ROLE ( 'design_owner' ) ;
#327 = VECTOR ( 'NONE', #239, 1000.000000000000000 ) ;
#328 = PRODUCT_DEFINITION_FORMATION_WITH_SPECIFIED_SOURCE ( 'ANY', '', #162, .NOT_KNOWN. ) ;
#329 = ORIENTED_EDGE ( 'NONE', *, *, #180, .F. ) ;
#330 = PERSON_AND_ORGANIZATION ( #171, #105 ) ;
#331 = APPROVAL ( #306, 'UNSPECIFIED' ) ;
#332 = AXIS2_PLACEMENT_3D ( 'NONE', #163, #91, #230 ) ;
#333 = AXIS2_PLACEMENT_3D ( 'NONE', #152, #308, #22 ) ;
#334 = FACE_OUTER_BOUND ( 'NONE', #164, .T. ) ;
#335 = PRODUCT_DEFINITION_SHAPE ( 'NONE', 'NONE',  #169 ) ;
#336 = DIRECTION ( 'NONE',  ( 0.0000000000000000000, 1.000000000000000000, 0.0000000000000000000 ) ) ;
#337 = APPROVAL_ROLE ( '' ) ;
ENDSEC;
END-ISO-10303-21;
