ISO-10303-21;
HEADER;
FILE_DESCRIPTION (( 'STEP AP203' ),
    '1' );
FILE_NAME ('54619.step',
    '2021-09-03T07:52:42',
    ( '' ),
    ( '' ),
    'SwSTEP 2.0',
    'SolidWorks 2019',
    '' );
FILE_SCHEMA (( 'CONFIG_CONTROL_DESIGN' ));
ENDSEC;

DATA;
#1 = FACE_OUTER_BOUND ( 'NONE', #82, .T. ) ;
#2 = AXIS2_PLACEMENT_3D ( 'NONE', #322, #285, #149 ) ;
#3 = DIRECTION ( 'NONE',  ( 0.0000000000000000000, 1.000000000000000000, 0.0000000000000000000 ) ) ;
#4 = ADVANCED_FACE ( 'NONE', ( #113 ), #94, .T. ) ;
#5 = VERTEX_POINT ( 'NONE', #41 ) ;
#6 = VERTEX_POINT ( 'NONE', #274 ) ;
#7 = EDGE_CURVE ( 'NONE', #269, #293, #252, .T. ) ;
#8 = APPROVAL_STATUS ( 'not_yet_approved' ) ;
#9 = PRODUCT_DEFINITION_FORMATION_WITH_SPECIFIED_SOURCE ( 'ANY', '', #139, .NOT_KNOWN. ) ;
#10 = ORIENTED_EDGE ( 'NONE', *, *, #25, .F. ) ;
#11 = ORIENTED_EDGE ( 'NONE', *, *, #39, .T. ) ;
#12 = CARTESIAN_POINT ( 'NONE',  ( 8.030407079339205455E-14, 2.362121657692417248E-32, 23.00000000000000000 ) ) ;
#13 = DIRECTION ( 'NONE',  ( 0.0000000000000000000, 1.000000000000000000, 0.0000000000000000000 ) ) ;
#14 = ORIENTED_EDGE ( 'NONE', *, *, #95, .T. ) ;
#15 = SECURITY_CLASSIFICATION_LEVEL ( 'unclassified' ) ;
#16 = DIRECTION ( 'NONE',  ( -3.491481338843133355E-15, 1.224646799147353207E-16, -1.000000000000000000 ) ) ;
#17 = AXIS2_PLACEMENT_3D ( 'NONE', #333, #204, #207 ) ;
#18 = CONICAL_SURFACE ( 'NONE', #262, 2.449999999999999734, 0.7853981633974439491 ) ;
#19 = CARTESIAN_POINT ( 'NONE',  ( 1.615176275293418806E-13, -3.150000000000009237, 69.29999999999999716 ) ) ;
#20 = DIRECTION ( 'NONE',  ( 0.0000000000000000000, 1.000000000000000000, 0.0000000000000000000 ) ) ;
#21 = CALENDAR_DATE ( 2021, 3, 9 ) ;
#22 = CARTESIAN_POINT ( 'NONE',  ( 3.857637417314145926E-16, -3.149999999999996803, -3.857637417314172057E-16 ) ) ;
#23 = DIRECTION ( 'NONE',  ( 3.491481338843133355E-15, -1.224646799147353207E-16, 1.000000000000000000 ) ) ;
#24 = CARTESIAN_POINT ( 'NONE',  ( 6.994128703259920511E-15, 3.149999999999991473, 1.892710949936830866 ) ) ;
#25 = EDGE_CURVE ( 'NONE', #195, #130, #115, .T. ) ;
#26 = CARTESIAN_POINT ( 'NONE',  ( 2.444036937190193601E-13, -8.572527594031472993E-15, 70.00000000000000000 ) ) ;
#27 = AXIS2_PLACEMENT_3D ( 'NONE', #26, #98, #3 ) ;
#28 = PERSON_AND_ORGANIZATION ( #286, #59 ) ;
#29 = VERTEX_POINT ( 'NONE', #299 ) ;
#30 = CALENDAR_DATE ( 2021, 3, 9 ) ;
#31 = AXIS2_PLACEMENT_3D ( 'NONE', #45, #96, #180 ) ;
#32 = VECTOR ( 'NONE', #114, 1000.000000000000000 ) ;
#33 = VERTEX_POINT ( 'NONE', #143 ) ;
#34 = ADVANCED_FACE ( 'NONE', ( #247 ), #18, .T. ) ;
#35 = VERTEX_POINT ( 'NONE', #120 ) ;
#36 = DIRECTION ( 'NONE',  ( -3.491481338843133355E-15, 1.224646799147353207E-16, -1.000000000000000000 ) ) ;
#37 = SECURITY_CLASSIFICATION ( '', '', #15 ) ;
#38 = ORIENTED_EDGE ( 'NONE', *, *, #25, .T. ) ;
#39 = EDGE_CURVE ( 'NONE', #29, #130, #241, .T. ) ;
#40 = APPROVAL_DATE_TIME ( #171, #187 ) ;
#41 = CARTESIAN_POINT ( 'NONE',  ( 2.444036937190193601E-13, 2.449999999999991296, 70.00000000000000000 ) ) ;
#42 = APPROVAL_STATUS ( 'not_yet_approved' ) ;
#43 = DIRECTION ( 'NONE',  ( 1.903218546456022717E-15, 0.8571673007021097801, 0.5150380749100585964 ) ) ;
#44 = CIRCLE ( 'NONE', #76, 3.149999999999999911 ) ;
#45 = CARTESIAN_POINT ( 'NONE',  ( 6.608364961528503848E-15, -2.317902406551285915E-16, 1.892710949936830422 ) ) ;
#46 = EDGE_CURVE ( 'NONE', #5, #195, #174, .T. ) ;
#47 = CYLINDRICAL_SURFACE ( 'NONE', #134, 3.149999999999996803 ) ;
#48 = DIRECTION ( 'NONE',  ( 4.275831445896958607E-31, 1.000000000000000000, 1.224646799147353207E-16 ) ) ;
#49 = AXIS2_PLACEMENT_3D ( 'NONE', #70, #308, #257 ) ;
#50 = DIRECTION ( 'NONE',  ( 1.798245827342160317E-15, -0.8571673007021098911, 0.5150380749100582634 ) ) ;
#51 = VECTOR ( 'NONE', #169, 1000.000000000000000 ) ;
#52 = FACE_OUTER_BOUND ( 'NONE', #238, .T. ) ;
#53 = DATE_AND_TIME ( #21, #112 ) ;
#54 = APPLICATION_PROTOCOL_DEFINITION ( 'international standard', 'config_control_design', 1994, #324 ) ;
#55 = AXIS2_PLACEMENT_3D ( 'NONE', #232, #157, #151 ) ;
#56 = CC_DESIGN_PERSON_AND_ORGANIZATION_ASSIGNMENT ( #64, #248, ( #9 ) ) ;
#57 = ORIENTED_EDGE ( 'NONE', *, *, #95, .F. ) ;
#58 = EDGE_LOOP ( 'NONE', ( #14, #11 ) ) ;
#59 = ORGANIZATION ( 'UNSPECIFIED', 'UNSPECIFIED', '' ) ;
#60 = ORIENTED_EDGE ( 'NONE', *, *, #7, .F. ) ;
#61 = EDGE_CURVE ( 'NONE', #6, #35, #92, .T. ) ;
#62 = CIRCLE ( 'NONE', #55, 2.449999999999999734 ) ;
#63 = PLANE ( 'NONE',  #225 ) ;
#64 = PERSON_AND_ORGANIZATION ( #286, #59 ) ;
#65 = DIRECTION ( 'NONE',  ( -3.491481338843133355E-15, 1.224646799147353207E-16, -1.000000000000000000 ) ) ;
#66 = EDGE_CURVE ( 'NONE', #35, #6, #142, .T. ) ;
#67 = DIRECTION ( 'NONE',  ( 0.0000000000000000000, 1.000000000000000000, 0.0000000000000000000 ) ) ;
#68 = DIRECTION ( 'NONE',  ( -3.491481338843133355E-15, 1.224646799147353207E-16, -1.000000000000000000 ) ) ;
#69 = CARTESIAN_POINT ( 'NONE',  ( 8.030407079339205455E-14, -2.816687638038912352E-15, 23.00000000000000000 ) ) ;
#70 = CARTESIAN_POINT ( 'NONE',  ( 6.608364961528503848E-15, -2.317902406551285915E-16, 1.892710949936830422 ) ) ;
#71 = LINE ( 'NONE', #22, #250 ) ;
#72 = DIRECTION ( 'NONE',  ( 0.0000000000000000000, 1.000000000000000000, 0.0000000000000000000 ) ) ;
#73 = EDGE_CURVE ( 'NONE', #35, #269, #221, .T. ) ;
#74 = LOCAL_TIME ( 9, 52, 42.00000000000000000, #332 ) ;
#75 = CARTESIAN_POINT ( 'NONE',  ( 2.444036937190193601E-13, 1.837205733760762432E-32, 70.00000000000000000 ) ) ;
#76 = AXIS2_PLACEMENT_3D ( 'NONE', #166, #65, #138 ) ;
#77 = MECHANICAL_CONTEXT ( 'NONE', #179, 'mechanical' ) ;
#78 = CARTESIAN_POINT ( 'NONE',  ( 0.0000000000000000000, 0.0000000000000000000, 0.0000000000000000000 ) ) ;
#79 = ORIENTED_EDGE ( 'NONE', *, *, #39, .F. ) ;
#80 = CC_DESIGN_DATE_AND_TIME_ASSIGNMENT ( #132, #239, ( #264 ) ) ;
#81 = DATE_AND_TIME ( #159, #90 ) ;
#82 = EDGE_LOOP ( 'NONE', ( #190, #199, #185 ) ) ;
#83 = ORIENTED_EDGE ( 'NONE', *, *, #209, .F. ) ;
#84 = VECTOR ( 'NONE', #337, 1000.000000000000000 ) ;
#85 = ORIENTED_EDGE ( 'NONE', *, *, #162, .F. ) ;
#86 = ORIENTED_EDGE ( 'NONE', *, *, #162, .T. ) ;
#87 = DIRECTION ( 'NONE',  ( 3.491481338843133355E-15, -1.224646799147353207E-16, 1.000000000000000000 ) ) ;
#88 = APPROVAL ( #42, 'UNSPECIFIED' ) ;
#89 = DIRECTION ( 'NONE',  ( 4.275831445896957731E-31, 1.000000000000000000, 1.224646799147352961E-16 ) ) ;
#90 = LOCAL_TIME ( 9, 52, 42.00000000000000000, #184 ) ;
#91 = CALENDAR_DATE ( 2021, 3, 9 ) ;
#92 = CIRCLE ( 'NONE', #136, 3.149999999999994138 ) ;
#93 = DIRECTION ( 'NONE',  ( -3.491481338843133355E-15, 1.224646799147353207E-16, -1.000000000000000000 ) ) ;
#94 = CYLINDRICAL_SURFACE ( 'NONE', #234, 3.149999999999993250 ) ;
#95 = EDGE_CURVE ( 'NONE', #130, #29, #103, .T. ) ;
#96 = DIRECTION ( 'NONE',  ( -3.491481338843133355E-15, 1.224646799147353207E-16, -1.000000000000000000 ) ) ;
#97 = CC_DESIGN_APPROVAL ( #187, ( #9 ) ) ;
#98 = DIRECTION ( 'NONE',  ( -3.491481338843133355E-15, 1.224646799147353207E-16, -1.000000000000000000 ) ) ;
#99 = CARTESIAN_POINT ( 'NONE',  ( 2.419596567818291352E-13, 3.149999999999991473, 69.29999999999999716 ) ) ;
#100 = PRODUCT_RELATED_PRODUCT_CATEGORY ( 'detail', '', ( #139 ) ) ;
#101 = CARTESIAN_POINT ( 'NONE',  ( 0.0000000000000000000, 0.0000000000000000000, 0.0000000000000000000 ) ) ;
#102 = APPROVAL_PERSON_ORGANIZATION ( #277, #88, #128 ) ;
#103 = CIRCLE ( 'NONE', #215, 3.149999999999994138 ) ;
#104 = FACE_OUTER_BOUND ( 'NONE', #106, .T. ) ;
#105 = AXIS2_PLACEMENT_3D ( 'NONE', #75, #229, #208 ) ;
#106 = EDGE_LOOP ( 'NONE', ( #191, #260 ) ) ;
#107 = EDGE_CURVE ( 'NONE', #33, #293, #218, .T. ) ;
#108 = ORIENTED_EDGE ( 'NONE', *, *, #73, .T. ) ;
#109 = ORIENTED_EDGE ( 'NONE', *, *, #231, .F. ) ;
#110 = CC_DESIGN_PERSON_AND_ORGANIZATION_ASSIGNMENT ( #188, #263, ( #264 ) ) ;
#111 = VERTEX_POINT ( 'NONE', #19 ) ;
#112 = LOCAL_TIME ( 9, 52, 42.00000000000000000, #150 ) ;
#113 = FACE_OUTER_BOUND ( 'NONE', #243, .T. ) ;
#114 = DIRECTION ( 'NONE',  ( -3.491481338843133355E-15, 1.224646799147353207E-16, -1.000000000000000000 ) ) ;
#115 = LINE ( 'NONE', #167, #51 ) ;
#116 = PERSON_AND_ORGANIZATION ( #286, #59 ) ;
#117 = CARTESIAN_POINT ( 'NONE',  ( 8.030407079339205455E-14, -2.816687638038912352E-15, 23.00000000000000000 ) ) ;
#118 = LOCAL_TIME ( 9, 52, 42.00000000000000000, #327 ) ;
#119 = AXIS2_PLACEMENT_3D ( 'NONE', #244, #68, #305 ) ;
#120 = CARTESIAN_POINT ( 'NONE',  ( 4.384198161919167535E-14, -3.149999999999995914, 23.00000000000000000 ) ) ;
#121 = FACE_OUTER_BOUND ( 'NONE', #172, .T. ) ;
#122 = CARTESIAN_POINT ( 'NONE',  ( 8.030407079339205455E-14, 2.362121657692417248E-32, 23.00000000000000000 ) ) ;
#123 = ADVANCED_FACE ( 'NONE', ( #325 ), #63, .F. ) ;
#124 = CYLINDRICAL_SURFACE ( 'NONE', #240, 3.149999999999996803 ) ;
#125 = APPROVAL_DATE_TIME ( #53, #88 ) ;
#126 = FACE_OUTER_BOUND ( 'NONE', #135, .T. ) ;
#127 = CARTESIAN_POINT ( 'NONE',  ( 6.608364961528502270E-15, -3.149999999999992362, 1.892710949936829978 ) ) ;
#128 = APPROVAL_ROLE ( '' ) ;
#129 = CIRCLE ( 'NONE', #31, 3.149999999999991918 ) ;
#130 = VERTEX_POINT ( 'NONE', #226 ) ;
#131 = ORIENTED_EDGE ( 'NONE', *, *, #177, .F. ) ;
#132 = DATE_AND_TIME ( #30, #261 ) ;
#133 = ORIENTED_EDGE ( 'NONE', *, *, #7, .T. ) ;
#134 = AXIS2_PLACEMENT_3D ( 'NONE', #101, #309, #48 ) ;
#135 = EDGE_LOOP ( 'NONE', ( #236, #137 ) ) ;
#136 = AXIS2_PLACEMENT_3D ( 'NONE', #69, #93, #67 ) ;
#137 = ORIENTED_EDGE ( 'NONE', *, *, #66, .F. ) ;
#138 = DIRECTION ( 'NONE',  ( 0.0000000000000000000, 1.000000000000000000, 0.0000000000000000000 ) ) ;
#139 = PRODUCT ( '54619', '54619', '', ( #77 ) ) ;
#140 = CARTESIAN_POINT ( 'NONE',  ( 2.444036937190193601E-13, -8.572527594031472993E-15, 70.00000000000000000 ) ) ;
#141 = CC_DESIGN_PERSON_AND_ORGANIZATION_ASSIGNMENT ( #144, #194, ( #9 ) ) ;
#142 = CIRCLE ( 'NONE', #336, 3.149999999999994138 ) ;
#143 = CARTESIAN_POINT ( 'NONE',  ( 0.0000000000000000000, 0.0000000000000000000, 0.0000000000000000000 ) ) ;
#144 = PERSON_AND_ORGANIZATION ( #286, #59 ) ;
#145 = CARTESIAN_POINT ( 'NONE',  ( 8.030407079339205455E-14, -2.816687638038912352E-15, 23.00000000000000000 ) ) ;
#146 = DIRECTION ( 'NONE',  ( -4.275831445896958607E-31, -1.000000000000000000, -1.224646799147353207E-16 ) ) ;
#147 = CONICAL_SURFACE ( 'NONE', #49, 3.149999999999991918, 1.029744258676649649 ) ;
#148 = APPROVAL_ROLE ( '' ) ;
#149 = DIRECTION ( 'NONE',  ( 4.275831445896957731E-31, 1.000000000000000000, 1.224646799147352961E-16 ) ) ;
#150 = COORDINATED_UNIVERSAL_TIME_OFFSET ( 1, 0, .AHEAD. ) ;
#151 = DIRECTION ( 'NONE',  ( 0.0000000000000000000, 1.000000000000000000, 0.0000000000000000000 ) ) ;
#152 = DIRECTION ( 'NONE',  ( -3.491481338843133355E-15, 1.224646799147353207E-16, -1.000000000000000000 ) ) ;
#153 = APPROVAL ( #314, 'UNSPECIFIED' ) ;
#154 = MANIFOLD_SOLID_BREP ( 'Corps-Déplacer/Copier1[1]', #316 ) ;
#155 = CC_DESIGN_APPROVAL ( #153, ( #264 ) ) ;
#156 = DIRECTION ( 'NONE',  ( -3.491481338843133355E-15, 1.224646799147353207E-16, -1.000000000000000000 ) ) ;
#157 = DIRECTION ( 'NONE',  ( -3.491481338843133355E-15, 1.224646799147353207E-16, -1.000000000000000000 ) ) ;
#158 = ORIENTED_EDGE ( 'NONE', *, *, #177, .T. ) ;
#159 = CALENDAR_DATE ( 2021, 3, 9 ) ;
#160 = APPROVAL_DATE_TIME ( #81, #153 ) ;
#161 = ORIENTED_EDGE ( 'NONE', *, *, #61, .T. ) ;
#162 = EDGE_CURVE ( 'NONE', #111, #195, #44, .T. ) ;
#163 = EDGE_LOOP ( 'NONE', ( #292, #158, #313, #303 ) ) ;
#164 = DESIGN_CONTEXT ( 'detailed design', #324, 'design' ) ;
#165 = VERTEX_POINT ( 'NONE', #196 ) ;
#166 = CARTESIAN_POINT ( 'NONE',  ( 2.419596567818291352E-13, -8.486802318091157127E-15, 69.29999999999999716 ) ) ;
#167 = CARTESIAN_POINT ( 'NONE',  ( 1.346886905457540674E-30, 3.149999999999996803, 3.857637417314158745E-16 ) ) ;
#168 = CONICAL_SURFACE ( 'NONE', #17, 3.149999999999991918, 1.029744258676649649 ) ;
#169 = DIRECTION ( 'NONE',  ( -3.491481338843133355E-15, 1.224646799147353207E-16, -1.000000000000000000 ) ) ;
#170 = VECTOR ( 'NONE', #251, 1000.000000000000000 ) ;
#171 = DATE_AND_TIME ( #219, #74 ) ;
#172 = EDGE_LOOP ( 'NONE', ( #213, #266, #133 ) ) ;
#173 = ADVANCED_FACE ( 'NONE', ( #217 ), #301, .T. ) ;
#174 = LINE ( 'NONE', #202, #170 ) ;
#175 =( LENGTH_UNIT ( ) NAMED_UNIT ( * ) SI_UNIT ( .MILLI., .METRE. ) );
#176 = CARTESIAN_POINT ( 'NONE',  ( 2.444036937190193601E-13, -8.572527594031472993E-15, 70.00000000000000000 ) ) ;
#177 = EDGE_CURVE ( 'NONE', #165, #111, #254, .T. ) ;
#178 = DIRECTION ( 'NONE',  ( -3.491481338843133355E-15, 1.224646799147353207E-16, -1.000000000000000000 ) ) ;
#179 = APPLICATION_CONTEXT ( 'configuration controlled 3d designs of mechanical parts and assemblies' ) ;
#180 = DIRECTION ( 'NONE',  ( 4.891250652412039964E-31, 1.000000000000000000, 1.376764663473659915E-16 ) ) ;
#181 = VECTOR ( 'NONE', #50, 1000.000000000000000 ) ;
#182 = PLANE ( 'NONE',  #105 ) ;
#183 = EDGE_CURVE ( 'NONE', #33, #269, #256, .T. ) ;
#184 = COORDINATED_UNIVERSAL_TIME_OFFSET ( 1, 0, .AHEAD. ) ;
#185 = ORIENTED_EDGE ( 'NONE', *, *, #268, .T. ) ;
#186 = CONICAL_SURFACE ( 'NONE', #27, 2.449999999999999734, 0.7853981633974439491 ) ;
#187 = APPROVAL ( #8, 'UNSPECIFIED' ) ;
#188 = PERSON_AND_ORGANIZATION ( #286, #59 ) ;
#189 = EDGE_LOOP ( 'NONE', ( #109, #86, #38, #79 ) ) ;
#190 = ORIENTED_EDGE ( 'NONE', *, *, #183, .F. ) ;
#191 = ORIENTED_EDGE ( 'NONE', *, *, #300, .F. ) ;
#192 = UNCERTAINTY_MEASURE_WITH_UNIT (LENGTH_MEASURE( 1.000000000000000082E-05 ), #175, 'distance_accuracy_value', 'NONE');
#193 = EDGE_LOOP ( 'NONE', ( #315, #242, #57, #10 ) ) ;
#194 = PERSON_AND_ORGANIZATION_ROLE ( 'creator' ) ;
#195 = VERTEX_POINT ( 'NONE', #99 ) ;
#196 = CARTESIAN_POINT ( 'NONE',  ( 2.435245763541855111E-13, -2.450000000000008615, 70.00000000000000000 ) ) ;
#197 = ADVANCED_BREP_SHAPE_REPRESENTATION ( '54619', ( #154, #270, #210 ), #297 ) ;
#198 = CC_DESIGN_SECURITY_CLASSIFICATION ( #37, ( #9 ) ) ;
#199 = ORIENTED_EDGE ( 'NONE', *, *, #107, .T. ) ;
#200 = CLOSED_SHELL ( 'NONE', ( #4, #228, #306, #173, #294 ) ) ;
#201 = DATE_AND_TIME ( #91, #118 ) ;
#202 = CARTESIAN_POINT ( 'NONE',  ( 2.444036937190193601E-13, 2.449999999999991296, 70.00000000000000000 ) ) ;
#203 = DIRECTION ( 'NONE',  ( 0.0000000000000000000, 1.000000000000000000, 0.0000000000000000000 ) ) ;
#204 = DIRECTION ( 'NONE',  ( 3.491481338843133355E-15, -1.224646799147353207E-16, 1.000000000000000000 ) ) ;
#205 = ADVANCED_FACE ( 'NONE', ( #104 ), #182, .F. ) ;
#206 = CARTESIAN_POINT ( 'NONE',  ( 6.608364961528502270E-15, -3.149999999999992362, 1.892710949936829978 ) ) ;
#207 = DIRECTION ( 'NONE',  ( -4.891250652412039964E-31, -1.000000000000000000, -1.376764663473659915E-16 ) ) ;
#208 = DIRECTION ( 'NONE',  ( 4.275831445896958607E-31, 1.000000000000000000, 1.224646799147353207E-16 ) ) ;
#209 = EDGE_CURVE ( 'NONE', #6, #293, #227, .T. ) ;
#210 = AXIS2_PLACEMENT_3D ( 'NONE', #78, #211, #259 ) ;
#211 = DIRECTION ( 'NONE',  ( 0.0000000000000000000, 0.0000000000000000000, 1.000000000000000000 ) ) ;
#212 = PERSON_AND_ORGANIZATION_ROLE ( 'design_owner' ) ;
#213 = ORIENTED_EDGE ( 'NONE', *, *, #107, .F. ) ;
#214 = CC_DESIGN_DATE_AND_TIME_ASSIGNMENT ( #201, #304, ( #37 ) ) ;
#215 = AXIS2_PLACEMENT_3D ( 'NONE', #249, #278, #224 ) ;
#216 = ORIENTED_EDGE ( 'NONE', *, *, #66, .T. ) ;
#217 = FACE_OUTER_BOUND ( 'NONE', #320, .T. ) ;
#218 = LINE ( 'NONE', #330, #296 ) ;
#219 = CALENDAR_DATE ( 2021, 3, 9 ) ;
#220 = EDGE_CURVE ( 'NONE', #165, #5, #280, .T. ) ;
#221 = LINE ( 'NONE', #326, #32 ) ;
#222 = PERSON_AND_ORGANIZATION_ROLE ( 'classification_officer' ) ;
#223 = AXIS2_PLACEMENT_3D ( 'NONE', #284, #152, #20 ) ;
#224 = DIRECTION ( 'NONE',  ( 0.0000000000000000000, 1.000000000000000000, 0.0000000000000000000 ) ) ;
#225 = AXIS2_PLACEMENT_3D ( 'NONE', #12, #87, #146 ) ;
#226 = CARTESIAN_POINT ( 'NONE',  ( 8.030407079339205455E-14, 3.149999999999991473, 23.00000000000000000 ) ) ;
#227 = LINE ( 'NONE', #258, #267 ) ;
#228 = ADVANCED_FACE ( 'NONE', ( #1 ), #147, .T. ) ;
#229 = DIRECTION ( 'NONE',  ( -3.491481338843133355E-15, 1.224646799147353207E-16, -1.000000000000000000 ) ) ;
#230 = DIRECTION ( 'NONE',  ( -3.491481338843133355E-15, 1.224646799147353207E-16, -1.000000000000000000 ) ) ;
#231 = EDGE_CURVE ( 'NONE', #111, #29, #71, .T. ) ;
#232 = CARTESIAN_POINT ( 'NONE',  ( 2.444036937190193601E-13, -8.572527594031472993E-15, 70.00000000000000000 ) ) ;
#233 = FACE_OUTER_BOUND ( 'NONE', #193, .T. ) ;
#234 = AXIS2_PLACEMENT_3D ( 'NONE', #272, #36, #89 ) ;
#235 =( NAMED_UNIT ( * ) PLANE_ANGLE_UNIT ( ) SI_UNIT ( $, .RADIAN. ) );
#236 = ORIENTED_EDGE ( 'NONE', *, *, #61, .F. ) ;
#237 =( NAMED_UNIT ( * ) SI_UNIT ( $, .STERADIAN. ) SOLID_ANGLE_UNIT ( ) );
#238 = EDGE_LOOP ( 'NONE', ( #131, #319, #331, #85 ) ) ;
#239 = DATE_TIME_ROLE ( 'creation_date' ) ;
#240 = AXIS2_PLACEMENT_3D ( 'NONE', #311, #287, #255 ) ;
#241 = CIRCLE ( 'NONE', #302, 3.149999999999994138 ) ;
#242 = ORIENTED_EDGE ( 'NONE', *, *, #231, .T. ) ;
#243 = EDGE_LOOP ( 'NONE', ( #161, #108, #318, #83 ) ) ;
#244 = CARTESIAN_POINT ( 'NONE',  ( 6.608364961528503848E-15, -2.317902406551285915E-16, 1.892710949936830422 ) ) ;
#245 = APPROVAL_PERSON_ORGANIZATION ( #291, #153, #312 ) ;
#246 = DIRECTION ( 'NONE',  ( -3.491481338843133355E-15, 1.224646799147353207E-16, -1.000000000000000000 ) ) ;
#247 = FACE_OUTER_BOUND ( 'NONE', #163, .T. ) ;
#248 = PERSON_AND_ORGANIZATION_ROLE ( 'design_supplier' ) ;
#249 = CARTESIAN_POINT ( 'NONE',  ( 8.030407079339205455E-14, -2.816687638038912352E-15, 23.00000000000000000 ) ) ;
#250 = VECTOR ( 'NONE', #178, 1000.000000000000000 ) ;
#251 = DIRECTION ( 'NONE',  ( -2.468850131082275599E-15, 0.7071067811865445751, -0.7071067811865504593 ) ) ;
#252 = CIRCLE ( 'NONE', #119, 3.149999999999991918 ) ;
#253 = CIRCLE ( 'NONE', #223, 3.149999999999999911 ) ;
#254 = LINE ( 'NONE', #283, #84 ) ;
#255 = DIRECTION ( 'NONE',  ( 4.275831445896958607E-31, 1.000000000000000000, 1.224646799147353207E-16 ) ) ;
#256 = LINE ( 'NONE', #206, #181 ) ;
#257 = DIRECTION ( 'NONE',  ( -4.891250652412039964E-31, -1.000000000000000000, -1.376764663473659915E-16 ) ) ;
#258 = CARTESIAN_POINT ( 'NONE',  ( 1.346886905457538922E-30, 3.149999999999993250, 3.857637417314153814E-16 ) ) ;
#259 = DIRECTION ( 'NONE',  ( 1.000000000000000000, 0.0000000000000000000, 0.0000000000000000000 ) ) ;
#260 = ORIENTED_EDGE ( 'NONE', *, *, #220, .F. ) ;
#261 = LOCAL_TIME ( 9, 52, 42.00000000000000000, #265 ) ;
#262 = AXIS2_PLACEMENT_3D ( 'NONE', #140, #16, #276 ) ;
#263 = PERSON_AND_ORGANIZATION_ROLE ( 'creator' ) ;
#264 = PRODUCT_DEFINITION ( 'UNKNOWN', '', #9, #164 ) ;
#265 = COORDINATED_UNIVERSAL_TIME_OFFSET ( 1, 0, .AHEAD. ) ;
#266 = ORIENTED_EDGE ( 'NONE', *, *, #183, .T. ) ;
#267 = VECTOR ( 'NONE', #156, 1000.000000000000000 ) ;
#268 = EDGE_CURVE ( 'NONE', #293, #269, #129, .T. ) ;
#269 = VERTEX_POINT ( 'NONE', #127 ) ;
#270 = MANIFOLD_SOLID_BREP ( 'Corps-Déplacer/Copier1[2]', #200 ) ;
#271 = DIRECTION ( 'NONE',  ( -3.491481338843133355E-15, 1.224646799147353207E-16, -1.000000000000000000 ) ) ;
#272 = CARTESIAN_POINT ( 'NONE',  ( 0.0000000000000000000, 0.0000000000000000000, 0.0000000000000000000 ) ) ;
#273 = AXIS2_PLACEMENT_3D ( 'NONE', #176, #230, #72 ) ;
#274 = CARTESIAN_POINT ( 'NONE',  ( 8.030407079339205455E-14, 3.149999999999991473, 23.00000000000000000 ) ) ;
#275 = CC_DESIGN_PERSON_AND_ORGANIZATION_ASSIGNMENT ( #116, #222, ( #37 ) ) ;
#276 = DIRECTION ( 'NONE',  ( 0.0000000000000000000, 1.000000000000000000, 0.0000000000000000000 ) ) ;
#277 = PERSON_AND_ORGANIZATION ( #286, #59 ) ;
#278 = DIRECTION ( 'NONE',  ( -3.491481338843133355E-15, 1.224646799147353207E-16, -1.000000000000000000 ) ) ;
#279 = ADVANCED_FACE ( 'NONE', ( #233 ), #47, .T. ) ;
#280 = CIRCLE ( 'NONE', #273, 2.449999999999999734 ) ;
#281 = FACE_OUTER_BOUND ( 'NONE', #189, .T. ) ;
#282 = SHAPE_DEFINITION_REPRESENTATION ( #328, #197 ) ;
#283 = CARTESIAN_POINT ( 'NONE',  ( 2.447037321848104625E-13, -2.450000000000008615, 70.00000000000000000 ) ) ;
#284 = CARTESIAN_POINT ( 'NONE',  ( 2.419596567818291352E-13, -8.486802318091157127E-15, 69.29999999999999716 ) ) ;
#285 = DIRECTION ( 'NONE',  ( -3.491481338843133355E-15, 1.224646799147353207E-16, -1.000000000000000000 ) ) ;
#286 = PERSON ( 'UNSPECIFIED', 'UNSPECIFIED', 'UNSPECIFIED', ('UNSPECIFIED'), ('UNSPECIFIED'), ('UNSPECIFIED') ) ;
#287 = DIRECTION ( 'NONE',  ( -3.491481338843133355E-15, 1.224646799147353207E-16, -1.000000000000000000 ) ) ;
#288 = PERSON_AND_ORGANIZATION ( #286, #59 ) ;
#289 = EDGE_CURVE ( 'NONE', #195, #111, #253, .T. ) ;
#290 = APPLICATION_PROTOCOL_DEFINITION ( 'international standard', 'config_control_design', 1994, #179 ) ;
#291 = PERSON_AND_ORGANIZATION ( #286, #59 ) ;
#292 = ORIENTED_EDGE ( 'NONE', *, *, #300, .T. ) ;
#293 = VERTEX_POINT ( 'NONE', #24 ) ;
#294 = ADVANCED_FACE ( 'NONE', ( #126 ), #307, .T. ) ;
#295 = ORIENTED_EDGE ( 'NONE', *, *, #209, .T. ) ;
#296 = VECTOR ( 'NONE', #43, 999.9999999999998863 ) ;
#297 =( GEOMETRIC_REPRESENTATION_CONTEXT ( 3 ) GLOBAL_UNCERTAINTY_ASSIGNED_CONTEXT ( ( #192 ) ) GLOBAL_UNIT_ASSIGNED_CONTEXT ( ( #175, #235, #237 ) ) REPRESENTATION_CONTEXT ( 'NONE', 'WORKASPACE' ) );
#298 = ORIENTED_EDGE ( 'NONE', *, *, #73, .F. ) ;
#299 = CARTESIAN_POINT ( 'NONE',  ( 1.615176275293419816E-13, -3.149999999999996358, 23.00000000000000000 ) ) ;
#300 = EDGE_CURVE ( 'NONE', #5, #165, #62, .T. ) ;
#301 = CYLINDRICAL_SURFACE ( 'NONE', #2, 3.149999999999993250 ) ;
#302 = AXIS2_PLACEMENT_3D ( 'NONE', #117, #271, #203 ) ;
#303 = ORIENTED_EDGE ( 'NONE', *, *, #46, .F. ) ;
#304 = DATE_TIME_ROLE ( 'classification_date' ) ;
#305 = DIRECTION ( 'NONE',  ( 4.891250652412039964E-31, 1.000000000000000000, 1.376764663473659915E-16 ) ) ;
#306 = ADVANCED_FACE ( 'NONE', ( #121 ), #168, .T. ) ;
#307 = PLANE ( 'NONE',  #321 ) ;
#308 = DIRECTION ( 'NONE',  ( 3.491481338843133355E-15, -1.224646799147353207E-16, 1.000000000000000000 ) ) ;
#309 = DIRECTION ( 'NONE',  ( -3.491481338843133355E-15, 1.224646799147353207E-16, -1.000000000000000000 ) ) ;
#310 = CC_DESIGN_APPROVAL ( #88, ( #37 ) ) ;
#311 = CARTESIAN_POINT ( 'NONE',  ( 0.0000000000000000000, 0.0000000000000000000, 0.0000000000000000000 ) ) ;
#312 = APPROVAL_ROLE ( '' ) ;
#313 = ORIENTED_EDGE ( 'NONE', *, *, #289, .F. ) ;
#314 = APPROVAL_STATUS ( 'not_yet_approved' ) ;
#315 = ORIENTED_EDGE ( 'NONE', *, *, #289, .T. ) ;
#316 = CLOSED_SHELL ( 'NONE', ( #34, #279, #123, #317, #329, #205 ) ) ;
#317 = ADVANCED_FACE ( 'NONE', ( #281 ), #124, .T. ) ;
#318 = ORIENTED_EDGE ( 'NONE', *, *, #268, .F. ) ;
#319 = ORIENTED_EDGE ( 'NONE', *, *, #220, .T. ) ;
#320 = EDGE_LOOP ( 'NONE', ( #298, #216, #295, #60 ) ) ;
#321 = AXIS2_PLACEMENT_3D ( 'NONE', #122, #23, #335 ) ;
#322 = CARTESIAN_POINT ( 'NONE',  ( 0.0000000000000000000, 0.0000000000000000000, 0.0000000000000000000 ) ) ;
#323 = CC_DESIGN_PERSON_AND_ORGANIZATION_ASSIGNMENT ( #288, #212, ( #139 ) ) ;
#324 = APPLICATION_CONTEXT ( 'configuration controlled 3d designs of mechanical parts and assemblies' ) ;
#325 = FACE_OUTER_BOUND ( 'NONE', #58, .T. ) ;
#326 = CARTESIAN_POINT ( 'NONE',  ( 3.857637417314140995E-16, -3.149999999999993250, -3.857637417314167619E-16 ) ) ;
#327 = COORDINATED_UNIVERSAL_TIME_OFFSET ( 1, 0, .AHEAD. ) ;
#328 = PRODUCT_DEFINITION_SHAPE ( 'NONE', 'NONE',  #264 ) ;
#329 = ADVANCED_FACE ( 'NONE', ( #52 ), #186, .T. ) ;
#330 = CARTESIAN_POINT ( 'NONE',  ( 6.994128703259920511E-15, 3.149999999999991473, 1.892710949936830866 ) ) ;
#331 = ORIENTED_EDGE ( 'NONE', *, *, #46, .T. ) ;
#332 = COORDINATED_UNIVERSAL_TIME_OFFSET ( 1, 0, .AHEAD. ) ;
#333 = CARTESIAN_POINT ( 'NONE',  ( 6.608364961528503848E-15, -2.317902406551285915E-16, 1.892710949936830422 ) ) ;
#334 = APPROVAL_PERSON_ORGANIZATION ( #28, #187, #148 ) ;
#335 = DIRECTION ( 'NONE',  ( -4.275831445896958607E-31, -1.000000000000000000, -1.224646799147353207E-16 ) ) ;
#336 = AXIS2_PLACEMENT_3D ( 'NONE', #145, #246, #13 ) ;
#337 = DIRECTION ( 'NONE',  ( -2.382254525458727330E-15, -0.7071067811865443531, -0.7071067811865506814 ) ) ;
ENDSEC;
END-ISO-10303-21;
