ISO-10303-21;
HEADER;
FILE_DESCRIPTION (( 'STEP AP203' ),
    '1' );
FILE_NAME ('54618.step',
    '2021-09-03T07:52:37',
    ( '' ),
    ( '' ),
    'SwSTEP 2.0',
    'SolidWorks 2019',
    '' );
FILE_SCHEMA (( 'CONFIG_CONTROL_DESIGN' ));
ENDSEC;

DATA;
#1 = AXIS2_PLACEMENT_3D ( 'NONE', #222, #273, #65 ) ;
#2 = DIRECTION ( 'NONE',  ( 3.491481338843133355E-15, -1.224646799147353207E-16, 1.000000000000000000 ) ) ;
#3 = CARTESIAN_POINT ( 'NONE',  ( 1.615115042953461072E-13, -3.100000000000008527, 69.29999999999999716 ) ) ;
#4 = ADVANCED_FACE ( 'NONE', ( #182 ), #258, .T. ) ;
#5 = PERSON_AND_ORGANIZATION_ROLE ( 'classification_officer' ) ;
#6 = ORIENTED_EDGE ( 'NONE', *, *, #325, .F. ) ;
#7 = AXIS2_PLACEMENT_3D ( 'NONE', #284, #337, #144 ) ;
#8 = PERSON_AND_ORGANIZATION_ROLE ( 'design_supplier' ) ;
#9 = ORIENTED_EDGE ( 'NONE', *, *, #260, .F. ) ;
#10 = ADVANCED_FACE ( 'NONE', ( #268 ), #147, .T. ) ;
#11 = DATE_AND_TIME ( #102, #164 ) ;
#12 = VERTEX_POINT ( 'NONE', #247 ) ;
#13 = VERTEX_POINT ( 'NONE', #270 ) ;
#14 = COORDINATED_UNIVERSAL_TIME_OFFSET ( 1, 0, .AHEAD. ) ;
#15 = AXIS2_PLACEMENT_3D ( 'NONE', #40, #88, #220 ) ;
#16 = ORIENTED_EDGE ( 'NONE', *, *, #331, .F. ) ;
#17 = DATE_AND_TIME ( #283, #90 ) ;
#18 = CARTESIAN_POINT ( 'NONE',  ( 1.325507748228055784E-30, 3.099999999999996980, 3.796405077356790973E-16 ) ) ;
#19 = CARTESIAN_POINT ( 'NONE',  ( 0.0000000000000000000, 0.0000000000000000000, 0.0000000000000000000 ) ) ;
#20 = LINE ( 'NONE', #130, #24 ) ;
#21 = CARTESIAN_POINT ( 'NONE',  ( 6.883110787335158240E-15, 3.099999999999991207, 1.862667918985452475 ) ) ;
#22 = CYLINDRICAL_SURFACE ( 'NONE', #101, 3.099999999999992539 ) ;
#23 = DIRECTION ( 'NONE',  ( -3.491481338843133355E-15, 1.224646799147353207E-16, -1.000000000000000000 ) ) ;
#24 = VECTOR ( 'NONE', #221, 1000.000000000000000 ) ;
#25 = CARTESIAN_POINT ( 'NONE',  ( 8.030407079339205455E-14, -2.816687638038912352E-15, 23.00000000000000000 ) ) ;
#26 = DIRECTION ( 'NONE',  ( -4.970141791967074025E-31, -1.000000000000000000, -1.398970545142590239E-16 ) ) ;
#27 = CONICAL_SURFACE ( 'NONE', #7, 2.399999999999999911, 0.7853981633974439491 ) ;
#28 = LINE ( 'NONE', #171, #89 ) ;
#29 = PERSON_AND_ORGANIZATION ( #70, #198 ) ;
#30 = ORIENTED_EDGE ( 'NONE', *, *, #331, .T. ) ;
#31 = CALENDAR_DATE ( 2021, 3, 9 ) ;
#32 = ORIENTED_EDGE ( 'NONE', *, *, #325, .T. ) ;
#33 = CLOSED_SHELL ( 'NONE', ( #143, #184, #10, #174, #272 ) ) ;
#34 = PERSON_AND_ORGANIZATION ( #70, #198 ) ;
#35 = ORIENTED_EDGE ( 'NONE', *, *, #277, .F. ) ;
#36 = ORIENTED_EDGE ( 'NONE', *, *, #288, .T. ) ;
#37 = ORIENTED_EDGE ( 'NONE', *, *, #196, .T. ) ;
#38 = EDGE_CURVE ( 'NONE', #212, #296, #228, .T. ) ;
#39 = AXIS2_PLACEMENT_3D ( 'NONE', #195, #2, #26 ) ;
#40 = CARTESIAN_POINT ( 'NONE',  ( 2.444036937190193601E-13, 1.799711739194215992E-32, 70.00000000000000000 ) ) ;
#41 = CARTESIAN_POINT ( 'NONE',  ( 2.419596567818291352E-13, -8.486802318091157127E-15, 69.29999999999999716 ) ) ;
#42 = FACE_OUTER_BOUND ( 'NONE', #177, .T. ) ;
#43 = CC_DESIGN_DATE_AND_TIME_ASSIGNMENT ( #149, #203, ( #219 ) ) ;
#44 = DIRECTION ( 'NONE',  ( 3.491481338843133355E-15, -1.224646799147353207E-16, 1.000000000000000000 ) ) ;
#45 = FACE_OUTER_BOUND ( 'NONE', #318, .T. ) ;
#46 = DIRECTION ( 'NONE',  ( -3.491481338843133355E-15, 1.224646799147353207E-16, -1.000000000000000000 ) ) ;
#47 = DATE_TIME_ROLE ( 'classification_date' ) ;
#48 = EDGE_CURVE ( 'NONE', #152, #237, #20, .T. ) ;
#49 = CC_DESIGN_APPROVAL ( #75, ( #328 ) ) ;
#50 = FACE_OUTER_BOUND ( 'NONE', #183, .T. ) ;
#51 = CARTESIAN_POINT ( 'NONE',  ( 8.030407079339205455E-14, 2.324627663125870808E-32, 23.00000000000000000 ) ) ;
#52 = DIRECTION ( 'NONE',  ( -2.468850131082275599E-15, 0.7071067811865445751, -0.7071067811865504593 ) ) ;
#53 = CIRCLE ( 'NONE', #241, 3.099999999999993872 ) ;
#54 = PERSON_AND_ORGANIZATION ( #70, #198 ) ;
#55 = PERSON_AND_ORGANIZATION ( #70, #198 ) ;
#56 = EDGE_LOOP ( 'NONE', ( #320, #103, #37 ) ) ;
#57 = ADVANCED_FACE ( 'NONE', ( #42 ), #244, .F. ) ;
#58 = VERTEX_POINT ( 'NONE', #332 ) ;
#59 = EDGE_LOOP ( 'NONE', ( #105, #265, #180 ) ) ;
#60 = ORIENTED_EDGE ( 'NONE', *, *, #100, .F. ) ;
#61 = ADVANCED_FACE ( 'NONE', ( #69 ), #321, .T. ) ;
#62 = CARTESIAN_POINT ( 'NONE',  ( 2.435184531201897630E-13, -2.400000000000008349, 70.00000000000000000 ) ) ;
#63 = CONICAL_SURFACE ( 'NONE', #39, 3.099999999999991651, 1.029744258676649649 ) ;
#64 = CC_DESIGN_APPROVAL ( #252, ( #306 ) ) ;
#65 = DIRECTION ( 'NONE',  ( 4.275831445896958607E-31, 1.000000000000000000, 1.224646799147353207E-16 ) ) ;
#66 = LINE ( 'NONE', #216, #206 ) ;
#67 = APPROVAL_STATUS ( 'not_yet_approved' ) ;
#68 = FACE_OUTER_BOUND ( 'NONE', #87, .T. ) ;
#69 = FACE_OUTER_BOUND ( 'NONE', #155, .T. ) ;
#70 = PERSON ( 'UNSPECIFIED', 'UNSPECIFIED', 'UNSPECIFIED', ('UNSPECIFIED'), ('UNSPECIFIED'), ('UNSPECIFIED') ) ;
#71 = DIRECTION ( 'NONE',  ( 0.0000000000000000000, 1.000000000000000000, 0.0000000000000000000 ) ) ;
#72 = DIRECTION ( 'NONE',  ( 4.970141791967074025E-31, 1.000000000000000000, 1.398970545142590239E-16 ) ) ;
#73 = AXIS2_PLACEMENT_3D ( 'NONE', #41, #157, #246 ) ;
#74 = CARTESIAN_POINT ( 'NONE',  ( 8.030407079339205455E-14, -2.816687638038912352E-15, 23.00000000000000000 ) ) ;
#75 = APPROVAL ( #313, 'UNSPECIFIED' ) ;
#76 = CARTESIAN_POINT ( 'NONE',  ( 2.419596567818291352E-13, 3.099999999999991207, 69.29999999999999716 ) ) ;
#77 = APPROVAL_DATE_TIME ( #11, #153 ) ;
#78 = CIRCLE ( 'NONE', #255, 3.099999999999993872 ) ;
#79 = LOCAL_TIME ( 9, 52, 37.00000000000000000, #205 ) ;
#80 = PERSON_AND_ORGANIZATION_ROLE ( 'creator' ) ;
#81 = CARTESIAN_POINT ( 'NONE',  ( 0.0000000000000000000, 0.0000000000000000000, 0.0000000000000000000 ) ) ;
#82 = ADVANCED_FACE ( 'NONE', ( #133 ), #188, .F. ) ;
#83 = APPLICATION_PROTOCOL_DEFINITION ( 'international standard', 'config_control_design', 1994, #111 ) ;
#84 = ORIENTED_EDGE ( 'NONE', *, *, #100, .T. ) ;
#85 = AXIS2_PLACEMENT_3D ( 'NONE', #107, #112, #91 ) ;
#86 = ORIENTED_EDGE ( 'NONE', *, *, #299, .T. ) ;
#87 = EDGE_LOOP ( 'NONE', ( #99, #86, #128, #35 ) ) ;
#88 = DIRECTION ( 'NONE',  ( -3.491481338843133355E-15, 1.224646799147353207E-16, -1.000000000000000000 ) ) ;
#89 = VECTOR ( 'NONE', #251, 1000.000000000000000 ) ;
#90 = LOCAL_TIME ( 9, 52, 37.00000000000000000, #163 ) ;
#91 = DIRECTION ( 'NONE',  ( 0.0000000000000000000, 1.000000000000000000, 0.0000000000000000000 ) ) ;
#92 = FACE_OUTER_BOUND ( 'NONE', #179, .T. ) ;
#93 = DIRECTION ( 'NONE',  ( -3.491481338843133355E-15, 1.224646799147353207E-16, -1.000000000000000000 ) ) ;
#94 = DIRECTION ( 'NONE',  ( 4.275831445896958607E-31, 1.000000000000000000, 1.224646799147353207E-16 ) ) ;
#95 = EDGE_CURVE ( 'NONE', #212, #123, #249, .T. ) ;
#96 = APPLICATION_PROTOCOL_DEFINITION ( 'international standard', 'config_control_design', 1994, #333 ) ;
#97 = DIRECTION ( 'NONE',  ( -3.491481338843133355E-15, 1.224646799147353207E-16, -1.000000000000000000 ) ) ;
#98 = PERSON_AND_ORGANIZATION_ROLE ( 'design_owner' ) ;
#99 = ORIENTED_EDGE ( 'NONE', *, *, #225, .F. ) ;
#100 = EDGE_CURVE ( 'NONE', #13, #148, #158, .T. ) ;
#101 = AXIS2_PLACEMENT_3D ( 'NONE', #113, #334, #94 ) ;
#102 = CALENDAR_DATE ( 2021, 3, 9 ) ;
#103 = ORIENTED_EDGE ( 'NONE', *, *, #48, .T. ) ;
#104 = CC_DESIGN_DATE_AND_TIME_ASSIGNMENT ( #17, #47, ( #306 ) ) ;
#105 = ORIENTED_EDGE ( 'NONE', *, *, #48, .F. ) ;
#106 = EDGE_LOOP ( 'NONE', ( #235, #32, #36, #240 ) ) ;
#107 = CARTESIAN_POINT ( 'NONE',  ( 2.444036937190193601E-13, -8.572527594031472993E-15, 70.00000000000000000 ) ) ;
#108 = DIRECTION ( 'NONE',  ( 4.275831445896958607E-31, 1.000000000000000000, 1.224646799147353207E-16 ) ) ;
#109 = AXIS2_PLACEMENT_3D ( 'NONE', #167, #97, #71 ) ;
#110 = DIRECTION ( 'NONE',  ( 3.491481338843133355E-15, -1.224646799147353207E-16, 1.000000000000000000 ) ) ;
#111 = APPLICATION_CONTEXT ( 'configuration controlled 3d designs of mechanical parts and assemblies' ) ;
#112 = DIRECTION ( 'NONE',  ( -3.491481338843133355E-15, 1.224646799147353207E-16, -1.000000000000000000 ) ) ;
#113 = CARTESIAN_POINT ( 'NONE',  ( 0.0000000000000000000, 0.0000000000000000000, 0.0000000000000000000 ) ) ;
#114 = CARTESIAN_POINT ( 'NONE',  ( 8.030407079339205455E-14, -2.816687638038912352E-15, 23.00000000000000000 ) ) ;
#115 = EDGE_CURVE ( 'NONE', #12, #237, #66, .T. ) ;
#116 = CARTESIAN_POINT ( 'NONE',  ( 8.030407079339205455E-14, -2.816687638038912352E-15, 23.00000000000000000 ) ) ;
#117 = CARTESIAN_POINT ( 'NONE',  ( 1.615115042953462082E-13, -3.099999999999996536, 23.00000000000000000 ) ) ;
#118 = AXIS2_PLACEMENT_3D ( 'NONE', #285, #166, #256 ) ;
#119 = LINE ( 'NONE', #307, #214 ) ;
#120 = PERSON_AND_ORGANIZATION ( #70, #198 ) ;
#121 = ORIENTED_EDGE ( 'NONE', *, *, #225, .T. ) ;
#122 = PERSON_AND_ORGANIZATION ( #70, #198 ) ;
#123 = VERTEX_POINT ( 'NONE', #297 ) ;
#124 =( GEOMETRIC_REPRESENTATION_CONTEXT ( 3 ) GLOBAL_UNCERTAINTY_ASSIGNED_CONTEXT ( ( #245 ) ) GLOBAL_UNIT_ASSIGNED_CONTEXT ( ( #226, #308, #280 ) ) REPRESENTATION_CONTEXT ( 'NONE', 'WORKASPACE' ) );
#125 = CARTESIAN_POINT ( 'NONE',  ( 0.0000000000000000000, 0.0000000000000000000, 0.0000000000000000000 ) ) ;
#126 = ORIENTED_EDGE ( 'NONE', *, *, #288, .F. ) ;
#127 = ORIENTED_EDGE ( 'NONE', *, *, #115, .F. ) ;
#128 = ORIENTED_EDGE ( 'NONE', *, *, #95, .T. ) ;
#129 = CIRCLE ( 'NONE', #305, 3.099999999999993872 ) ;
#130 = CARTESIAN_POINT ( 'NONE',  ( 6.503470279599477861E-15, -3.099999999999992095, 1.862667918985451587 ) ) ;
#131 = CARTESIAN_POINT ( 'NONE',  ( 8.030407079339205455E-14, 2.324627663125870808E-32, 23.00000000000000000 ) ) ;
#132 = EDGE_CURVE ( 'NONE', #148, #296, #329, .T. ) ;
#133 = FACE_OUTER_BOUND ( 'NONE', #323, .T. ) ;
#134 = AXIS2_PLACEMENT_3D ( 'NONE', #131, #110, #300 ) ;
#135 = LINE ( 'NONE', #21, #248 ) ;
#136 = CARTESIAN_POINT ( 'NONE',  ( 0.0000000000000000000, 0.0000000000000000000, 0.0000000000000000000 ) ) ;
#137 = DIRECTION ( 'NONE',  ( -4.275831445896958607E-31, -1.000000000000000000, -1.224646799147353207E-16 ) ) ;
#138 = MANIFOLD_SOLID_BREP ( 'Corps-Déplacer/Copier1[1]', #298 ) ;
#139 = PERSON_AND_ORGANIZATION ( #70, #198 ) ;
#140 = VECTOR ( 'NONE', #93, 1000.000000000000000 ) ;
#141 = CARTESIAN_POINT ( 'NONE',  ( 6.503470279599478650E-15, -2.281110304859995381E-16, 1.862667918985452031 ) ) ;
#142 = DIRECTION ( 'NONE',  ( 0.0000000000000000000, 1.000000000000000000, 0.0000000000000000000 ) ) ;
#143 = ADVANCED_FACE ( 'NONE', ( #92 ), #191, .T. ) ;
#144 = DIRECTION ( 'NONE',  ( 0.0000000000000000000, 1.000000000000000000, 0.0000000000000000000 ) ) ;
#145 = APPROVAL_ROLE ( '' ) ;
#146 = DIRECTION ( 'NONE',  ( -3.491481338843133355E-15, 1.224646799147353207E-16, -1.000000000000000000 ) ) ;
#147 = CONICAL_SURFACE ( 'NONE', #154, 3.099999999999991651, 1.029744258676649649 ) ;
#148 = VERTEX_POINT ( 'NONE', #62 ) ;
#149 = DATE_AND_TIME ( #262, #275 ) ;
#150 = ORIENTED_EDGE ( 'NONE', *, *, #95, .F. ) ;
#151 = APPROVAL_STATUS ( 'not_yet_approved' ) ;
#152 = VERTEX_POINT ( 'NONE', #19 ) ;
#153 = APPROVAL ( #151, 'UNSPECIFIED' ) ;
#154 = AXIS2_PLACEMENT_3D ( 'NONE', #192, #44, #303 ) ;
#155 = EDGE_LOOP ( 'NONE', ( #84, #316, #213, #126 ) ) ;
#156 = ORIENTED_EDGE ( 'NONE', *, *, #319, .F. ) ;
#157 = DIRECTION ( 'NONE',  ( -3.491481338843133355E-15, 1.224646799147353207E-16, -1.000000000000000000 ) ) ;
#158 = CIRCLE ( 'NONE', #85, 2.399999999999999911 ) ;
#159 = DIRECTION ( 'NONE',  ( -3.491481338843133355E-15, 1.224646799147353207E-16, -1.000000000000000000 ) ) ;
#160 = DIRECTION ( 'NONE',  ( 4.275831445896958607E-31, 1.000000000000000000, 1.224646799147353207E-16 ) ) ;
#161 = DIRECTION ( 'NONE',  ( -2.382254525458727330E-15, -0.7071067811865443531, -0.7071067811865506814 ) ) ;
#162 = ADVANCED_FACE ( 'NONE', ( #68 ), #185, .T. ) ;
#163 = COORDINATED_UNIVERSAL_TIME_OFFSET ( 1, 0, .AHEAD. ) ;
#164 = LOCAL_TIME ( 9, 52, 37.00000000000000000, #236 ) ;
#165 = CARTESIAN_POINT ( 'NONE',  ( 2.446976089508147649E-13, -2.400000000000008349, 70.00000000000000000 ) ) ;
#166 = DIRECTION ( 'NONE',  ( -3.491481338843133355E-15, 1.224646799147353207E-16, -1.000000000000000000 ) ) ;
#167 = CARTESIAN_POINT ( 'NONE',  ( 2.444036937190193601E-13, -8.572527594031472993E-15, 70.00000000000000000 ) ) ;
#168 = PRODUCT_DEFINITION_SHAPE ( 'NONE', 'NONE',  #219 ) ;
#169 = CIRCLE ( 'NONE', #109, 2.399999999999999911 ) ;
#170 = EDGE_CURVE ( 'NONE', #152, #58, #135, .T. ) ;
#171 = CARTESIAN_POINT ( 'NONE',  ( 1.325507748228053857E-30, 3.099999999999992539, 3.796405077356785550E-16 ) ) ;
#172 = DIRECTION ( 'NONE',  ( 0.0000000000000000000, 1.000000000000000000, 0.0000000000000000000 ) ) ;
#173 = DIRECTION ( 'NONE',  ( -3.491481338843133355E-15, 1.224646799147353207E-16, -1.000000000000000000 ) ) ;
#174 = ADVANCED_FACE ( 'NONE', ( #45 ), #22, .T. ) ;
#175 = CIRCLE ( 'NONE', #261, 3.099999999999991651 ) ;
#176 = PERSON_AND_ORGANIZATION_ROLE ( 'creator' ) ;
#177 = EDGE_LOOP ( 'NONE', ( #295, #238 ) ) ;
#178 = DIRECTION ( 'NONE',  ( 0.0000000000000000000, 0.0000000000000000000, 1.000000000000000000 ) ) ;
#179 = EDGE_LOOP ( 'NONE', ( #293, #263, #322, #290 ) ) ;
#180 = ORIENTED_EDGE ( 'NONE', *, *, #211, .T. ) ;
#181 = AXIS2_PLACEMENT_3D ( 'NONE', #250, #271, #327 ) ;
#182 = FACE_OUTER_BOUND ( 'NONE', #232, .T. ) ;
#183 = EDGE_LOOP ( 'NONE', ( #156, #16 ) ) ;
#184 = ADVANCED_FACE ( 'NONE', ( #217 ), #63, .T. ) ;
#185 = CYLINDRICAL_SURFACE ( 'NONE', #1, 3.099999999999996980 ) ;
#186 = CIRCLE ( 'NONE', #193, 3.099999999999993872 ) ;
#187 = CC_DESIGN_SECURITY_CLASSIFICATION ( #306, ( #328 ) ) ;
#188 = PLANE ( 'NONE',  #15 ) ;
#189 = APPROVAL_DATE_TIME ( #330, #252 ) ;
#190 = ADVANCED_FACE ( 'NONE', ( #278 ), #27, .T. ) ;
#191 = CYLINDRICAL_SURFACE ( 'NONE', #286, 3.099999999999992539 ) ;
#192 = CARTESIAN_POINT ( 'NONE',  ( 6.503470279599478650E-15, -2.281110304859995381E-16, 1.862667918985452031 ) ) ;
#193 = AXIS2_PLACEMENT_3D ( 'NONE', #25, #311, #312 ) ;
#194 = APPROVAL_PERSON_ORGANIZATION ( #139, #252, #145 ) ;
#195 = CARTESIAN_POINT ( 'NONE',  ( 6.503470279599478650E-15, -2.281110304859995381E-16, 1.862667918985452031 ) ) ;
#196 = EDGE_CURVE ( 'NONE', #237, #58, #175, .T. ) ;
#197 = CARTESIAN_POINT ( 'NONE',  ( 6.503470279599478650E-15, -2.281110304859995381E-16, 1.862667918985452031 ) ) ;
#198 = ORGANIZATION ( 'UNSPECIFIED', 'UNSPECIFIED', '' ) ;
#199 = CARTESIAN_POINT ( 'NONE',  ( 6.503470279599477861E-15, -3.099999999999992095, 1.862667918985451587 ) ) ;
#200 = LINE ( 'NONE', #224, #223 ) ;
#201 = CC_DESIGN_PERSON_AND_ORGANIZATION_ASSIGNMENT ( #54, #80, ( #328 ) ) ;
#202 = ADVANCED_BREP_SHAPE_REPRESENTATION ( '54618', ( #138, #264, #310 ), #124 ) ;
#203 = DATE_TIME_ROLE ( 'creation_date' ) ;
#204 = CALENDAR_DATE ( 2021, 3, 9 ) ;
#205 = COORDINATED_UNIVERSAL_TIME_OFFSET ( 1, 0, .AHEAD. ) ;
#206 = VECTOR ( 'NONE', #324, 1000.000000000000000 ) ;
#207 = LOCAL_TIME ( 9, 52, 37.00000000000000000, #14 ) ;
#208 = ORIENTED_EDGE ( 'NONE', *, *, #196, .F. ) ;
#209 = DATE_AND_TIME ( #31, #79 ) ;
#210 = VERTEX_POINT ( 'NONE', #117 ) ;
#211 = EDGE_CURVE ( 'NONE', #58, #237, #218, .T. ) ;
#212 = VERTEX_POINT ( 'NONE', #76 ) ;
#213 = ORIENTED_EDGE ( 'NONE', *, *, #38, .F. ) ;
#214 = VECTOR ( 'NONE', #52, 1000.000000000000000 ) ;
#215 = ORIENTED_EDGE ( 'NONE', *, *, #304, .T. ) ;
#216 = CARTESIAN_POINT ( 'NONE',  ( 3.796405077356772731E-16, -3.099999999999992539, -3.796405077356798862E-16 ) ) ;
#217 = FACE_OUTER_BOUND ( 'NONE', #59, .T. ) ;
#218 = CIRCLE ( 'NONE', #274, 3.099999999999991651 ) ;
#219 = PRODUCT_DEFINITION ( 'UNKNOWN', '', #328, #239 ) ;
#220 = DIRECTION ( 'NONE',  ( 4.275831445896958607E-31, 1.000000000000000000, 1.224646799147353207E-16 ) ) ;
#221 = DIRECTION ( 'NONE',  ( 1.798245827342160317E-15, -0.8571673007021098911, 0.5150380749100582634 ) ) ;
#222 = CARTESIAN_POINT ( 'NONE',  ( 0.0000000000000000000, 0.0000000000000000000, 0.0000000000000000000 ) ) ;
#223 = VECTOR ( 'NONE', #173, 1000.000000000000000 ) ;
#224 = CARTESIAN_POINT ( 'NONE',  ( 3.796405077356778154E-16, -3.099999999999996980, -3.796405077356803792E-16 ) ) ;
#225 = EDGE_CURVE ( 'NONE', #296, #210, #200, .T. ) ;
#226 =( LENGTH_UNIT ( ) NAMED_UNIT ( * ) SI_UNIT ( .MILLI., .METRE. ) );
#227 = CC_DESIGN_PERSON_AND_ORGANIZATION_ASSIGNMENT ( #34, #5, ( #306 ) ) ;
#228 = CIRCLE ( 'NONE', #73, 3.100000000000000089 ) ;
#229 = DIRECTION ( 'NONE',  ( 0.0000000000000000000, 1.000000000000000000, 0.0000000000000000000 ) ) ;
#230 = DIRECTION ( 'NONE',  ( 3.491481338843133355E-15, -1.224646799147353207E-16, 1.000000000000000000 ) ) ;
#231 = SECURITY_CLASSIFICATION_LEVEL ( 'unclassified' ) ;
#232 = EDGE_LOOP ( 'NONE', ( #291, #121, #9, #150 ) ) ;
#233 = APPROVAL_ROLE ( '' ) ;
#234 = AXIS2_PLACEMENT_3D ( 'NONE', #51, #230, #137 ) ;
#235 = ORIENTED_EDGE ( 'NONE', *, *, #132, .F. ) ;
#236 = COORDINATED_UNIVERSAL_TIME_OFFSET ( 1, 0, .AHEAD. ) ;
#237 = VERTEX_POINT ( 'NONE', #199 ) ;
#238 = ORIENTED_EDGE ( 'NONE', *, *, #277, .T. ) ;
#239 = DESIGN_CONTEXT ( 'detailed design', #111, 'design' ) ;
#240 = ORIENTED_EDGE ( 'NONE', *, *, #299, .F. ) ;
#241 = AXIS2_PLACEMENT_3D ( 'NONE', #116, #23, #172 ) ;
#242 = APPROVAL_PERSON_ORGANIZATION ( #55, #75, #233 ) ;
#243 = PRODUCT_RELATED_PRODUCT_CATEGORY ( 'detail', '', ( #279 ) ) ;
#244 = PLANE ( 'NONE',  #134 ) ;
#245 = UNCERTAINTY_MEASURE_WITH_UNIT (LENGTH_MEASURE( 1.000000000000000082E-05 ), #226, 'distance_accuracy_value', 'NONE');
#246 = DIRECTION ( 'NONE',  ( 0.0000000000000000000, 1.000000000000000000, 0.0000000000000000000 ) ) ;
#247 = CARTESIAN_POINT ( 'NONE',  ( 4.378341104423142016E-14, -3.099999999999996536, 23.00000000000000000 ) ) ;
#248 = VECTOR ( 'NONE', #276, 999.9999999999998863 ) ;
#249 = LINE ( 'NONE', #18, #140 ) ;
#250 = CARTESIAN_POINT ( 'NONE',  ( 2.444036937190193601E-13, -8.572527594031472993E-15, 70.00000000000000000 ) ) ;
#251 = DIRECTION ( 'NONE',  ( -3.491481338843133355E-15, 1.224646799147353207E-16, -1.000000000000000000 ) ) ;
#252 = APPROVAL ( #67, 'UNSPECIFIED' ) ;
#253 = DIRECTION ( 'NONE',  ( -3.491481338843133355E-15, 1.224646799147353207E-16, -1.000000000000000000 ) ) ;
#254 = DIRECTION ( 'NONE',  ( 4.970141791967074025E-31, 1.000000000000000000, 1.398970545142590239E-16 ) ) ;
#255 = AXIS2_PLACEMENT_3D ( 'NONE', #74, #46, #142 ) ;
#256 = DIRECTION ( 'NONE',  ( 0.0000000000000000000, 1.000000000000000000, 0.0000000000000000000 ) ) ;
#257 = PERSON_AND_ORGANIZATION ( #70, #198 ) ;
#258 = CYLINDRICAL_SURFACE ( 'NONE', #335, 3.099999999999996980 ) ;
#259 = APPROVAL_DATE_TIME ( #209, #75 ) ;
#260 = EDGE_CURVE ( 'NONE', #123, #210, #186, .T. ) ;
#261 = AXIS2_PLACEMENT_3D ( 'NONE', #141, #309, #254 ) ;
#262 = CALENDAR_DATE ( 2021, 3, 9 ) ;
#263 = ORIENTED_EDGE ( 'NONE', *, *, #115, .T. ) ;
#264 = MANIFOLD_SOLID_BREP ( 'Corps-Déplacer/Copier1[2]', #33 ) ;
#265 = ORIENTED_EDGE ( 'NONE', *, *, #170, .T. ) ;
#266 = CC_DESIGN_PERSON_AND_ORGANIZATION_ASSIGNMENT ( #122, #176, ( #219 ) ) ;
#267 = VERTEX_POINT ( 'NONE', #281 ) ;
#268 = FACE_OUTER_BOUND ( 'NONE', #56, .T. ) ;
#269 = CIRCLE ( 'NONE', #118, 3.100000000000000089 ) ;
#270 = CARTESIAN_POINT ( 'NONE',  ( 2.444036937190193601E-13, 2.399999999999991029, 70.00000000000000000 ) ) ;
#271 = DIRECTION ( 'NONE',  ( -3.491481338843133355E-15, 1.224646799147353207E-16, -1.000000000000000000 ) ) ;
#272 = ADVANCED_FACE ( 'NONE', ( #50 ), #336, .T. ) ;
#273 = DIRECTION ( 'NONE',  ( -3.491481338843133355E-15, 1.224646799147353207E-16, -1.000000000000000000 ) ) ;
#274 = AXIS2_PLACEMENT_3D ( 'NONE', #197, #146, #72 ) ;
#275 = LOCAL_TIME ( 9, 52, 37.00000000000000000, #317 ) ;
#276 = DIRECTION ( 'NONE',  ( 1.903218546456022717E-15, 0.8571673007021097801, 0.5150380749100585964 ) ) ;
#277 = EDGE_CURVE ( 'NONE', #210, #123, #78, .T. ) ;
#278 = FACE_OUTER_BOUND ( 'NONE', #106, .T. ) ;
#279 = PRODUCT ( '54618', '54618', '', ( #289 ) ) ;
#280 =( NAMED_UNIT ( * ) SI_UNIT ( $, .STERADIAN. ) SOLID_ANGLE_UNIT ( ) );
#281 = CARTESIAN_POINT ( 'NONE',  ( 8.030407079339205455E-14, 3.099999999999991207, 23.00000000000000000 ) ) ;
#282 = CC_DESIGN_PERSON_AND_ORGANIZATION_ASSIGNMENT ( #120, #98, ( #279 ) ) ;
#283 = CALENDAR_DATE ( 2021, 3, 9 ) ;
#284 = CARTESIAN_POINT ( 'NONE',  ( 2.444036937190193601E-13, -8.572527594031472993E-15, 70.00000000000000000 ) ) ;
#285 = CARTESIAN_POINT ( 'NONE',  ( 2.419596567818291352E-13, -8.486802318091157127E-15, 69.29999999999999716 ) ) ;
#286 = AXIS2_PLACEMENT_3D ( 'NONE', #136, #301, #108 ) ;
#287 = APPROVAL_ROLE ( '' ) ;
#288 = EDGE_CURVE ( 'NONE', #13, #212, #119, .T. ) ;
#289 = MECHANICAL_CONTEXT ( 'NONE', #333, 'mechanical' ) ;
#290 = ORIENTED_EDGE ( 'NONE', *, *, #304, .F. ) ;
#291 = ORIENTED_EDGE ( 'NONE', *, *, #38, .T. ) ;
#292 = APPROVAL_PERSON_ORGANIZATION ( #257, #153, #287 ) ;
#293 = ORIENTED_EDGE ( 'NONE', *, *, #319, .T. ) ;
#294 = CC_DESIGN_PERSON_AND_ORGANIZATION_ASSIGNMENT ( #29, #8, ( #328 ) ) ;
#295 = ORIENTED_EDGE ( 'NONE', *, *, #260, .T. ) ;
#296 = VERTEX_POINT ( 'NONE', #3 ) ;
#297 = CARTESIAN_POINT ( 'NONE',  ( 8.030407079339205455E-14, 3.099999999999991207, 23.00000000000000000 ) ) ;
#298 = CLOSED_SHELL ( 'NONE', ( #61, #4, #57, #162, #190, #82 ) ) ;
#299 = EDGE_CURVE ( 'NONE', #296, #212, #269, .T. ) ;
#300 = DIRECTION ( 'NONE',  ( -4.275831445896958607E-31, -1.000000000000000000, -1.224646799147353207E-16 ) ) ;
#301 = DIRECTION ( 'NONE',  ( -3.491481338843133355E-15, 1.224646799147353207E-16, -1.000000000000000000 ) ) ;
#302 = SHAPE_DEFINITION_REPRESENTATION ( #168, #202 ) ;
#303 = DIRECTION ( 'NONE',  ( -4.970141791967074025E-31, -1.000000000000000000, -1.398970545142590239E-16 ) ) ;
#304 = EDGE_CURVE ( 'NONE', #267, #58, #28, .T. ) ;
#305 = AXIS2_PLACEMENT_3D ( 'NONE', #114, #253, #229 ) ;
#306 = SECURITY_CLASSIFICATION ( '', '', #231 ) ;
#307 = CARTESIAN_POINT ( 'NONE',  ( 2.444036937190193601E-13, 2.399999999999991029, 70.00000000000000000 ) ) ;
#308 =( NAMED_UNIT ( * ) PLANE_ANGLE_UNIT ( ) SI_UNIT ( $, .RADIAN. ) );
#309 = DIRECTION ( 'NONE',  ( -3.491481338843133355E-15, 1.224646799147353207E-16, -1.000000000000000000 ) ) ;
#310 = AXIS2_PLACEMENT_3D ( 'NONE', #125, #178, #315 ) ;
#311 = DIRECTION ( 'NONE',  ( -3.491481338843133355E-15, 1.224646799147353207E-16, -1.000000000000000000 ) ) ;
#312 = DIRECTION ( 'NONE',  ( 0.0000000000000000000, 1.000000000000000000, 0.0000000000000000000 ) ) ;
#313 = APPROVAL_STATUS ( 'not_yet_approved' ) ;
#314 = VECTOR ( 'NONE', #161, 1000.000000000000000 ) ;
#315 = DIRECTION ( 'NONE',  ( 1.000000000000000000, 0.0000000000000000000, 0.0000000000000000000 ) ) ;
#316 = ORIENTED_EDGE ( 'NONE', *, *, #132, .T. ) ;
#317 = COORDINATED_UNIVERSAL_TIME_OFFSET ( 1, 0, .AHEAD. ) ;
#318 = EDGE_LOOP ( 'NONE', ( #127, #30, #215, #208 ) ) ;
#319 = EDGE_CURVE ( 'NONE', #267, #12, #129, .T. ) ;
#320 = ORIENTED_EDGE ( 'NONE', *, *, #170, .F. ) ;
#321 = CONICAL_SURFACE ( 'NONE', #181, 2.399999999999999911, 0.7853981633974439491 ) ;
#322 = ORIENTED_EDGE ( 'NONE', *, *, #211, .F. ) ;
#323 = EDGE_LOOP ( 'NONE', ( #60, #6 ) ) ;
#324 = DIRECTION ( 'NONE',  ( -3.491481338843133355E-15, 1.224646799147353207E-16, -1.000000000000000000 ) ) ;
#325 = EDGE_CURVE ( 'NONE', #148, #13, #169, .T. ) ;
#326 = CC_DESIGN_APPROVAL ( #153, ( #219 ) ) ;
#327 = DIRECTION ( 'NONE',  ( 0.0000000000000000000, 1.000000000000000000, 0.0000000000000000000 ) ) ;
#328 = PRODUCT_DEFINITION_FORMATION_WITH_SPECIFIED_SOURCE ( 'ANY', '', #279, .NOT_KNOWN. ) ;
#329 = LINE ( 'NONE', #165, #314 ) ;
#330 = DATE_AND_TIME ( #204, #207 ) ;
#331 = EDGE_CURVE ( 'NONE', #12, #267, #53, .T. ) ;
#332 = CARTESIAN_POINT ( 'NONE',  ( 6.883110787335158240E-15, 3.099999999999991207, 1.862667918985452475 ) ) ;
#333 = APPLICATION_CONTEXT ( 'configuration controlled 3d designs of mechanical parts and assemblies' ) ;
#334 = DIRECTION ( 'NONE',  ( -3.491481338843133355E-15, 1.224646799147353207E-16, -1.000000000000000000 ) ) ;
#335 = AXIS2_PLACEMENT_3D ( 'NONE', #81, #159, #160 ) ;
#336 = PLANE ( 'NONE',  #234 ) ;
#337 = DIRECTION ( 'NONE',  ( -3.491481338843133355E-15, 1.224646799147353207E-16, -1.000000000000000000 ) ) ;
ENDSEC;
END-ISO-10303-21;
