ISO-10303-21;
HEADER;
FILE_DESCRIPTION (( 'STEP AP203' ),
    '1' );
FILE_NAME ('54604.step',
    '2021-10-13T11:36:25',
    ( '' ),
    ( '' ),
    'SwSTEP 2.0',
    'SolidWorks 2019',
    '' );
FILE_SCHEMA (( 'CONFIG_CONTROL_DESIGN' ));
ENDSEC;

DATA;
#1 = FACE_OUTER_BOUND ( 'NONE', #237, .T. ) ;
#2 = PRODUCT_DEFINITION_SHAPE ( 'NONE', 'NONE',  #248 ) ;
#3 = DIRECTION ( 'NONE',  ( 0.0000000000000000000, -1.000000000000000000, 0.0000000000000000000 ) ) ;
#4 = CC_DESIGN_PERSON_AND_ORGANIZATION_ASSIGNMENT ( #157, #231, ( #101 ) ) ;
#5 = CARTESIAN_POINT ( 'NONE',  ( 3.107418391570388560E-13, -1.089935651241144239E-14, 89.00000000000000000 ) ) ;
#6 = AXIS2_PLACEMENT_3D ( 'NONE', #247, #210, #263 ) ;
#7 = CARTESIAN_POINT ( 'NONE',  ( 3.107418391570388560E-13, 2.999519565323699889E-32, 89.00000000000000000 ) ) ;
#8 = CC_DESIGN_PERSON_AND_ORGANIZATION_ASSIGNMENT ( #196, #33, ( #244 ) ) ;
#9 = APPROVAL_STATUS ( 'not_yet_approved' ) ;
#10 = EDGE_LOOP ( 'NONE', ( #141 ) ) ;
#11 = APPROVAL_ROLE ( '' ) ;
#12 = COORDINATED_UNIVERSAL_TIME_OFFSET ( 1, 0, .AHEAD. ) ;
#13 = CLOSED_SHELL ( 'NONE', ( #153, #207, #219, #56, #82, #255, #227 ) ) ;
#14 = LOCAL_TIME ( 13, 36, 25.00000000000000000, #52 ) ;
#15 = FACE_OUTER_BOUND ( 'NONE', #124, .T. ) ;
#16 = CYLINDRICAL_SURFACE ( 'NONE', #221, 4.999999999999997335 ) ;
#17 = EDGE_LOOP ( 'NONE', ( #105 ) ) ;
#18 = ORIENTED_EDGE ( 'NONE', *, *, #34, .T. ) ;
#19 = AXIS2_PLACEMENT_3D ( 'NONE', #112, #224, #3 ) ;
#20 = DIRECTION ( 'NONE',  ( -3.491481338843133355E-15, 4.327174794786742882E-16, -1.000000000000000000 ) ) ;
#21 = DIRECTION ( 'NONE',  ( 0.0000000000000000000, -1.000000000000000000, 0.0000000000000000000 ) ) ;
#22 = DIRECTION ( 'NONE',  ( -3.491481338843133355E-15, 1.224646799147353207E-16, -1.000000000000000000 ) ) ;
#23 = PLANE ( 'NONE',  #118 ) ;
#24 = APPROVAL ( #170, 'UNSPECIFIED' ) ;
#25 = VERTEX_POINT ( 'NONE', #68 ) ;
#26 = FACE_OUTER_BOUND ( 'NONE', #61, .T. ) ;
#27 = AXIS2_PLACEMENT_3D ( 'NONE', #204, #63, #158 ) ;
#28 = PRODUCT_DEFINITION_FORMATION_WITH_SPECIFIED_SOURCE ( 'ANY', '', #244, .NOT_KNOWN. ) ;
#29 = PERSON_AND_ORGANIZATION ( #45, #86 ) ;
#30 = CALENDAR_DATE ( 2021, 13, 10 ) ;
#31 = APPLICATION_CONTEXT ( 'configuration controlled 3d designs of mechanical parts and assemblies' ) ;
#32 =( NAMED_UNIT ( * ) SI_UNIT ( $, .STERADIAN. ) SOLID_ANGLE_UNIT ( ) );
#33 = PERSON_AND_ORGANIZATION_ROLE ( 'design_owner' ) ;
#34 = EDGE_CURVE ( 'NONE', #87, #87, #35, .T. ) ;
#35 = CIRCLE ( 'NONE', #90, 4.350000000000006750 ) ;
#36 = CONICAL_SURFACE ( 'NONE', #91, 4.999999999999990230, 1.221730476396026610 ) ;
#37 = DIRECTION ( 'NONE',  ( -3.491481338843133355E-15, 4.327174794786742882E-16, -1.000000000000000000 ) ) ;
#38 = ORIENTED_EDGE ( 'NONE', *, *, #198, .F. ) ;
#39 = DIRECTION ( 'NONE',  ( 0.0000000000000000000, 1.000000000000000000, 0.0000000000000000000 ) ) ;
#40 = PRODUCT_RELATED_PRODUCT_CATEGORY ( 'detail', '', ( #244 ) ) ;
#41 = EDGE_LOOP ( 'NONE', ( #18 ) ) ;
#42 = AXIS2_PLACEMENT_3D ( 'NONE', #135, #250, #171 ) ;
#43 = EDGE_LOOP ( 'NONE', ( #215 ) ) ;
#44 = DIRECTION ( 'NONE',  ( 1.510825004591027679E-30, 1.000000000000000000, 4.327174794786742882E-16 ) ) ;
#45 = PERSON ( 'UNSPECIFIED', 'UNSPECIFIED', 'UNSPECIFIED', ('UNSPECIFIED'), ('UNSPECIFIED'), ('UNSPECIFIED') ) ;
#46 = DIRECTION ( 'NONE',  ( -3.491481338843133355E-15, 1.224646799147353207E-16, -1.000000000000000000 ) ) ;
#47 = CARTESIAN_POINT ( 'NONE',  ( 1.222018468595096801E-13, -1.514511178175360324E-14, 35.00000000000000000 ) ) ;
#48 =( LENGTH_UNIT ( ) NAMED_UNIT ( * ) SI_UNIT ( .MILLI., .METRE. ) );
#49 = EDGE_CURVE ( 'NONE', #71, #71, #144, .T. ) ;
#50 = FACE_OUTER_BOUND ( 'NONE', #80, .T. ) ;
#51 = CC_DESIGN_APPROVAL ( #24, ( #101 ) ) ;
#52 = COORDINATED_UNIVERSAL_TIME_OFFSET ( 1, 0, .AHEAD. ) ;
#53 = COORDINATED_UNIVERSAL_TIME_OFFSET ( 1, 0, .AHEAD. ) ;
#54 = EDGE_CURVE ( 'NONE', #245, #245, #64, .T. ) ;
#55 = CALENDAR_DATE ( 2021, 13, 10 ) ;
#56 = ADVANCED_FACE ( 'NONE', ( #126, #182 ), #57, .T. ) ;
#57 = CYLINDRICAL_SURFACE ( 'NONE', #168, 4.350000000000006750 ) ;
#58 = CC_DESIGN_SECURITY_CLASSIFICATION ( #101, ( #28 ) ) ;
#59 = DIRECTION ( 'NONE',  ( -3.491481338843133355E-15, 4.327174794786742882E-16, -1.000000000000000000 ) ) ;
#60 = UNCERTAINTY_MEASURE_WITH_UNIT (LENGTH_MEASURE( 1.000000000000000082E-05 ), #48, 'distance_accuracy_value', 'NONE');
#61 = EDGE_LOOP ( 'NONE', ( #172 ) ) ;
#62 = APPROVAL ( #9, 'UNSPECIFIED' ) ;
#63 = DIRECTION ( 'NONE',  ( -3.491481338843133355E-15, 1.224646799147353207E-16, -1.000000000000000000 ) ) ;
#64 = CIRCLE ( 'NONE', #185, 4.350000000000014744 ) ;
#65 = ORIENTED_EDGE ( 'NONE', *, *, #54, .T. ) ;
#66 = CIRCLE ( 'NONE', #190, 4.483974596215577257 ) ;
#67 = FACE_BOUND ( 'NONE', #262, .T. ) ;
#68 = CARTESIAN_POINT ( 'NONE',  ( 3.107418391570388560E-13, 3.999999999999990674, 89.00000000000000000 ) ) ;
#69 = VERTEX_POINT ( 'NONE', #150 ) ;
#70 = CIRCLE ( 'NONE', #19, 4.999999999999997335 ) ;
#71 = VERTEX_POINT ( 'NONE', #165 ) ;
#72 = MANIFOLD_SOLID_BREP ( 'Corps-Déplacer/Copier1[2]', #128 ) ;
#73 = DIRECTION ( 'NONE',  ( -3.491481338843133355E-15, 4.327174794786742882E-16, -1.000000000000000000 ) ) ;
#74 = PERSON_AND_ORGANIZATION ( #45, #86 ) ;
#75 = APPLICATION_PROTOCOL_DEFINITION ( 'international standard', 'config_control_design', 1994, #31 ) ;
#76 = SECURITY_CLASSIFICATION_LEVEL ( 'unclassified' ) ;
#77 = APPROVAL_ROLE ( '' ) ;
#78 = EDGE_CURVE ( 'NONE', #25, #25, #137, .T. ) ;
#79 = ORIENTED_EDGE ( 'NONE', *, *, #223, .F. ) ;
#80 = EDGE_LOOP ( 'NONE', ( #139 ) ) ;
#81 = AXIS2_PLACEMENT_3D ( 'NONE', #120, #176, #143 ) ;
#82 = ADVANCED_FACE ( 'NONE', ( #220, #259 ), #199, .T. ) ;
#83 = DIRECTION ( 'NONE',  ( 0.0000000000000000000, -1.000000000000000000, 0.0000000000000000000 ) ) ;
#84 = EDGE_LOOP ( 'NONE', ( #179 ) ) ;
#85 = FACE_OUTER_BOUND ( 'NONE', #41, .T. ) ;
#86 = ORGANIZATION ( 'UNSPECIFIED', 'UNSPECIFIED', '' ) ;
#87 = VERTEX_POINT ( 'NONE', #88 ) ;
#88 = CARTESIAN_POINT ( 'NONE',  ( 1.222018468595096801E-13, -4.350000000000020961, 35.00000000000000000 ) ) ;
#89 = VERTEX_POINT ( 'NONE', #211 ) ;
#90 = AXIS2_PLACEMENT_3D ( 'NONE', #146, #121, #102 ) ;
#91 = AXIS2_PLACEMENT_3D ( 'NONE', #147, #228, #249 ) ;
#92 = CARTESIAN_POINT ( 'NONE',  ( 3.072503578181957353E-13, -1.077689183249670724E-14, 88.00000000000000000 ) ) ;
#93 = CALENDAR_DATE ( 2021, 13, 10 ) ;
#94 = APPLICATION_CONTEXT ( 'configuration controlled 3d designs of mechanical parts and assemblies' ) ;
#95 = PERSON_AND_ORGANIZATION_ROLE ( 'design_supplier' ) ;
#96 = EDGE_LOOP ( 'NONE', ( #65 ) ) ;
#97 = MECHANICAL_CONTEXT ( 'NONE', #94, 'mechanical' ) ;
#98 = DATE_AND_TIME ( #174, #251 ) ;
#99 = COORDINATED_UNIVERSAL_TIME_OFFSET ( 1, 0, .AHEAD. ) ;
#100 = ADVANCED_FACE ( 'NONE', ( #15 ), #240, .T. ) ;
#101 = SECURITY_CLASSIFICATION ( '', '', #76 ) ;
#102 = DIRECTION ( 'NONE',  ( 0.0000000000000000000, -1.000000000000000000, 0.0000000000000000000 ) ) ;
#103 = DIRECTION ( 'NONE',  ( -3.491481338843133355E-15, 1.224646799147353207E-16, -1.000000000000000000 ) ) ;
#104 = ORIENTED_EDGE ( 'NONE', *, *, #242, .F. ) ;
#105 = ORIENTED_EDGE ( 'NONE', *, *, #49, .F. ) ;
#106 = DIRECTION ( 'NONE',  ( 0.0000000000000000000, 1.000000000000000000, 0.0000000000000000000 ) ) ;
#107 = DIRECTION ( 'NONE',  ( -3.491481338843133355E-15, 1.224646799147353207E-16, -1.000000000000000000 ) ) ;
#108 = CARTESIAN_POINT ( 'NONE',  ( 1.222018468595096801E-13, 3.749399456654634167E-32, 35.00000000000000000 ) ) ;
#109 = TOROIDAL_SURFACE ( 'NONE', #6, 5.350000000000013856, 0.9999999999999991118 ) ;
#110 = DIRECTION ( 'NONE',  ( 3.491481338843133355E-15, -1.224646799147353207E-16, 1.000000000000000000 ) ) ;
#111 = VERTEX_POINT ( 'NONE', #164 ) ;
#112 = CARTESIAN_POINT ( 'NONE',  ( 1.689659875279191804E-13, -2.094083546353195246E-14, 48.39378221735085361 ) ) ;
#113 = APPROVAL_PERSON_ORGANIZATION ( #114, #62, #77 ) ;
#114 = PERSON_AND_ORGANIZATION ( #45, #86 ) ;
#115 = DATE_AND_TIME ( #93, #257 ) ;
#116 = APPROVAL ( #213, 'UNSPECIFIED' ) ;
#117 = DATE_TIME_ROLE ( 'creation_date' ) ;
#118 = AXIS2_PLACEMENT_3D ( 'NONE', #108, #110, #131 ) ;
#119 = DESIGN_CONTEXT ( 'detailed design', #31, 'design' ) ;
#120 = CARTESIAN_POINT ( 'NONE',  ( 1.222018468595096801E-13, 3.749399456654634167E-32, 35.00000000000000000 ) ) ;
#121 = DIRECTION ( 'NONE',  ( -3.491481338843133355E-15, 1.224646799147353207E-16, -1.000000000000000000 ) ) ;
#122 = CARTESIAN_POINT ( 'NONE',  ( 1.719896990641967605E-13, -2.131557979342206913E-14, 49.25980762113532307 ) ) ;
#123 = AXIS2_PLACEMENT_3D ( 'NONE', #47, #152, #21 ) ;
#124 = EDGE_LOOP ( 'NONE', ( #159 ) ) ;
#125 = EDGE_CURVE ( 'NONE', #111, #111, #66, .T. ) ;
#126 = FACE_OUTER_BOUND ( 'NONE', #96, .T. ) ;
#127 = FACE_OUTER_BOUND ( 'NONE', #17, .T. ) ;
#128 = CLOSED_SHELL ( 'NONE', ( #191, #187, #100 ) ) ;
#129 = CIRCLE ( 'NONE', #140, 5.000000000000000888 ) ;
#130 = FACE_OUTER_BOUND ( 'NONE', #235, .T. ) ;
#131 = DIRECTION ( 'NONE',  ( -4.275831445896958607E-31, -1.000000000000000000, -1.224646799147353207E-16 ) ) ;
#132 = PERSON_AND_ORGANIZATION_ROLE ( 'creator' ) ;
#133 = LOCAL_TIME ( 13, 36, 25.00000000000000000, #53 ) ;
#134 = SHAPE_DEFINITION_REPRESENTATION ( #2, #192 ) ;
#135 = CARTESIAN_POINT ( 'NONE',  ( 0.0000000000000000000, 0.0000000000000000000, 0.0000000000000000000 ) ) ;
#136 = CALENDAR_DATE ( 2021, 13, 10 ) ;
#137 = CIRCLE ( 'NONE', #180, 4.000000000000001776 ) ;
#138 = DATE_AND_TIME ( #30, #14 ) ;
#139 = ORIENTED_EDGE ( 'NONE', *, *, #78, .F. ) ;
#140 = AXIS2_PLACEMENT_3D ( 'NONE', #92, #22, #205 ) ;
#141 = ORIENTED_EDGE ( 'NONE', *, *, #54, .F. ) ;
#142 = DIRECTION ( 'NONE',  ( 0.0000000000000000000, 1.000000000000000000, 0.0000000000000000000 ) ) ;
#143 = DIRECTION ( 'NONE',  ( -4.275831445896958607E-31, -1.000000000000000000, -1.224646799147353207E-16 ) ) ;
#144 = CIRCLE ( 'NONE', #27, 4.350000000000006750 ) ;
#145 = CIRCLE ( 'NONE', #123, 4.350000000000006750 ) ;
#146 = CARTESIAN_POINT ( 'NONE',  ( 1.222018468595096801E-13, -1.514511178175360324E-14, 35.00000000000000000 ) ) ;
#147 = CARTESIAN_POINT ( 'NONE',  ( 6.353976404174116092E-15, -2.228674911895110024E-16, 1.819851171331031914 ) ) ;
#148 = CARTESIAN_POINT ( 'NONE',  ( 1.689659875279191804E-13, -5.000000000000018652, 48.39378221735085361 ) ) ;
#149 = AXIS2_PLACEMENT_3D ( 'NONE', #5, #188, #189 ) ;
#150 = CARTESIAN_POINT ( 'NONE',  ( 3.072503578181957353E-13, 4.999999999999990230, 88.00000000000000000 ) ) ;
#151 = DIRECTION ( 'NONE',  ( 4.275831445896959482E-31, 1.000000000000000000, 1.224646799147353207E-16 ) ) ;
#152 = DIRECTION ( 'NONE',  ( -3.491481338843133355E-15, 1.224646799147353207E-16, -1.000000000000000000 ) ) ;
#153 = ADVANCED_FACE ( 'NONE', ( #258, #200 ), #16, .T. ) ;
#154 = APPROVAL_ROLE ( '' ) ;
#155 = CC_DESIGN_APPROVAL ( #62, ( #248 ) ) ;
#156 = COORDINATED_UNIVERSAL_TIME_OFFSET ( 1, 0, .AHEAD. ) ;
#157 = PERSON_AND_ORGANIZATION ( #45, #86 ) ;
#158 = DIRECTION ( 'NONE',  ( -3.541940127608704249E-31, -1.000000000000000000, -9.969675149291979693E-17 ) ) ;
#159 = ORIENTED_EDGE ( 'NONE', *, *, #34, .F. ) ;
#160 =( GEOMETRIC_REPRESENTATION_CONTEXT ( 3 ) GLOBAL_UNCERTAINTY_ASSIGNED_CONTEXT ( ( #60 ) ) GLOBAL_UNIT_ASSIGNED_CONTEXT ( ( #48, #256, #32 ) ) REPRESENTATION_CONTEXT ( 'NONE', 'WORKASPACE' ) );
#161 = CARTESIAN_POINT ( 'NONE',  ( 0.0000000000000000000, 0.0000000000000000000, 0.0000000000000000000 ) ) ;
#162 = CARTESIAN_POINT ( 'NONE',  ( 1.658453635950488407E-13, -2.055408027523702711E-14, 47.50000000000000000 ) ) ;
#163 = EDGE_LOOP ( 'NONE', ( #104 ) ) ;
#164 = CARTESIAN_POINT ( 'NONE',  ( 1.658453635950488407E-13, 4.483974596215555941, 47.50000000000000000 ) ) ;
#165 = CARTESIAN_POINT ( 'NONE',  ( 5.527959471631498552E-15, -4.350000000000006750, 1.583270519058002757 ) ) ;
#166 = CC_DESIGN_DATE_AND_TIME_ASSIGNMENT ( #193, #169, ( #101 ) ) ;
#167 = CARTESIAN_POINT ( 'NONE',  ( 1.640996229256272803E-13, 4.349999999999994316, 47.00000000000000000 ) ) ;
#168 = AXIS2_PLACEMENT_3D ( 'NONE', #161, #37, #238 ) ;
#169 = DATE_TIME_ROLE ( 'classification_date' ) ;
#170 = APPROVAL_STATUS ( 'not_yet_approved' ) ;
#171 = DIRECTION ( 'NONE',  ( 1.000000000000000000, 0.0000000000000000000, 0.0000000000000000000 ) ) ;
#172 = ORIENTED_EDGE ( 'NONE', *, *, #49, .T. ) ;
#173 = APPROVAL_DATE_TIME ( #98, #116 ) ;
#174 = CALENDAR_DATE ( 2021, 13, 10 ) ;
#175 = APPROVAL_PERSON_ORGANIZATION ( #229, #116, #11 ) ;
#176 = DIRECTION ( 'NONE',  ( 3.491481338843133355E-15, -1.224646799147353207E-16, 1.000000000000000000 ) ) ;
#177 = CC_DESIGN_PERSON_AND_ORGANIZATION_ASSIGNMENT ( #29, #95, ( #28 ) ) ;
#178 = ORIENTED_EDGE ( 'NONE', *, *, #242, .T. ) ;
#179 = ORIENTED_EDGE ( 'NONE', *, *, #125, .F. ) ;
#180 = AXIS2_PLACEMENT_3D ( 'NONE', #201, #103, #142 ) ;
#181 = CC_DESIGN_PERSON_AND_ORGANIZATION_ASSIGNMENT ( #194, #254, ( #28 ) ) ;
#182 = FACE_OUTER_BOUND ( 'NONE', #163, .T. ) ;
#183 = EDGE_LOOP ( 'NONE', ( #38 ) ) ;
#184 = FACE_OUTER_BOUND ( 'NONE', #10, .T. ) ;
#185 = AXIS2_PLACEMENT_3D ( 'NONE', #222, #59, #39 ) ;
#186 = CARTESIAN_POINT ( 'NONE',  ( 0.0000000000000000000, 0.0000000000000000000, 0.0000000000000000000 ) ) ;
#187 = ADVANCED_FACE ( 'NONE', ( #85, #127 ), #226, .T. ) ;
#188 = DIRECTION ( 'NONE',  ( -3.491481338843133355E-15, 1.224646799147353207E-16, -1.000000000000000000 ) ) ;
#189 = DIRECTION ( 'NONE',  ( 0.0000000000000000000, 1.000000000000000000, 0.0000000000000000000 ) ) ;
#190 = AXIS2_PLACEMENT_3D ( 'NONE', #162, #20, #106 ) ;
#191 = ADVANCED_FACE ( 'NONE', ( #26 ), #36, .T. ) ;
#192 = ADVANCED_BREP_SHAPE_REPRESENTATION ( '54604', ( #236, #72, #42 ), #160 ) ;
#193 = DATE_AND_TIME ( #55, #133 ) ;
#194 = PERSON_AND_ORGANIZATION ( #45, #86 ) ;
#195 = LOCAL_TIME ( 13, 36, 25.00000000000000000, #156 ) ;
#196 = PERSON_AND_ORGANIZATION ( #45, #86 ) ;
#197 = PERSON_AND_ORGANIZATION ( #45, #86 ) ;
#198 = EDGE_CURVE ( 'NONE', #243, #243, #70, .T. ) ;
#199 = CONICAL_SURFACE ( 'NONE', #203, 5.500000000000017764, 0.5235987755983012581 ) ;
#200 = FACE_OUTER_BOUND ( 'NONE', #43, .T. ) ;
#201 = CARTESIAN_POINT ( 'NONE',  ( 3.107418391570388560E-13, -1.089935651241144239E-14, 89.00000000000000000 ) ) ;
#202 = ORIENTED_EDGE ( 'NONE', *, *, #78, .T. ) ;
#203 = AXIS2_PLACEMENT_3D ( 'NONE', #122, #261, #83 ) ;
#204 = CARTESIAN_POINT ( 'NONE',  ( 5.527959471631500130E-15, -1.938947173348752110E-16, 1.583270519058003201 ) ) ;
#205 = DIRECTION ( 'NONE',  ( 0.0000000000000000000, 1.000000000000000000, 0.0000000000000000000 ) ) ;
#206 = DIRECTION ( 'NONE',  ( 4.275831445896958607E-31, 1.000000000000000000, 1.224646799147353207E-16 ) ) ;
#207 = ADVANCED_FACE ( 'NONE', ( #130, #67 ), #232, .T. ) ;
#208 = APPROVAL_PERSON_ORGANIZATION ( #74, #24, #154 ) ;
#209 = FACE_OUTER_BOUND ( 'NONE', #218, .T. ) ;
#210 = DIRECTION ( 'NONE',  ( -3.491481338843133355E-15, 4.327174794786742882E-16, -1.000000000000000000 ) ) ;
#211 = CARTESIAN_POINT ( 'NONE',  ( 1.222018468595096801E-13, -4.350000000000020961, 35.00000000000000000 ) ) ;
#212 = CC_DESIGN_APPROVAL ( #116, ( #28 ) ) ;
#213 = APPROVAL_STATUS ( 'not_yet_approved' ) ;
#214 = CC_DESIGN_PERSON_AND_ORGANIZATION_ASSIGNMENT ( #197, #132, ( #248 ) ) ;
#215 = ORIENTED_EDGE ( 'NONE', *, *, #223, .T. ) ;
#216 = AXIS2_PLACEMENT_3D ( 'NONE', #186, #73, #44 ) ;
#217 = ORIENTED_EDGE ( 'NONE', *, *, #198, .T. ) ;
#218 = EDGE_LOOP ( 'NONE', ( #178 ) ) ;
#219 = ADVANCED_FACE ( 'NONE', ( #50 ), #225, .F. ) ;
#220 = FACE_BOUND ( 'NONE', #84, .T. ) ;
#221 = AXIS2_PLACEMENT_3D ( 'NONE', #246, #107, #151 ) ;
#222 = CARTESIAN_POINT ( 'NONE',  ( 1.640996229256272803E-13, -2.033772153549769155E-14, 47.00000000000000000 ) ) ;
#223 = EDGE_CURVE ( 'NONE', #69, #69, #129, .T. ) ;
#224 = DIRECTION ( 'NONE',  ( 3.491481338843133355E-15, -4.327174794786742882E-16, 1.000000000000000000 ) ) ;
#225 = PLANE ( 'NONE',  #241 ) ;
#226 = CYLINDRICAL_SURFACE ( 'NONE', #216, 4.350000000000006750 ) ;
#227 = ADVANCED_FACE ( 'NONE', ( #209 ), #23, .F. ) ;
#228 = DIRECTION ( 'NONE',  ( 3.491481338843133355E-15, -1.224646799147353207E-16, 1.000000000000000000 ) ) ;
#229 = PERSON_AND_ORGANIZATION ( #45, #86 ) ;
#230 = APPROVAL_DATE_TIME ( #234, #62 ) ;
#231 = PERSON_AND_ORGANIZATION_ROLE ( 'classification_officer' ) ;
#232 = CONICAL_SURFACE ( 'NONE', #149, 4.000000000000001776, 0.7853981633974473908 ) ;
#233 = CC_DESIGN_DATE_AND_TIME_ASSIGNMENT ( #115, #117, ( #248 ) ) ;
#234 = DATE_AND_TIME ( #136, #195 ) ;
#235 = EDGE_LOOP ( 'NONE', ( #79 ) ) ;
#236 = MANIFOLD_SOLID_BREP ( 'Corps-Déplacer/Copier1[1]', #13 ) ;
#237 = EDGE_LOOP ( 'NONE', ( #260 ) ) ;
#238 = DIRECTION ( 'NONE',  ( 1.510825004591027679E-30, 1.000000000000000000, 4.327174794786742882E-16 ) ) ;
#239 = EDGE_LOOP ( 'NONE', ( #217 ) ) ;
#240 = PLANE ( 'NONE',  #81 ) ;
#241 = AXIS2_PLACEMENT_3D ( 'NONE', #7, #46, #206 ) ;
#242 = EDGE_CURVE ( 'NONE', #89, #89, #145, .T. ) ;
#243 = VERTEX_POINT ( 'NONE', #148 ) ;
#244 = PRODUCT ( '54604', '54604', '', ( #97 ) ) ;
#245 = VERTEX_POINT ( 'NONE', #167 ) ;
#246 = CARTESIAN_POINT ( 'NONE',  ( 0.0000000000000000000, 0.0000000000000000000, 0.0000000000000000000 ) ) ;
#247 = CARTESIAN_POINT ( 'NONE',  ( 1.640996229256272803E-13, -1.994931997373328159E-14, 47.00000000000000000 ) ) ;
#248 = PRODUCT_DEFINITION ( 'UNKNOWN', '', #28, #119 ) ;
#249 = DIRECTION ( 'NONE',  ( -4.622231866529374805E-31, -1.000000000000000000, -1.301042606982607786E-16 ) ) ;
#250 = DIRECTION ( 'NONE',  ( 0.0000000000000000000, 0.0000000000000000000, 1.000000000000000000 ) ) ;
#251 = LOCAL_TIME ( 13, 36, 25.00000000000000000, #12 ) ;
#252 = APPROVAL_DATE_TIME ( #138, #24 ) ;
#253 = APPLICATION_PROTOCOL_DEFINITION ( 'international standard', 'config_control_design', 1994, #94 ) ;
#254 = PERSON_AND_ORGANIZATION_ROLE ( 'creator' ) ;
#255 = ADVANCED_FACE ( 'NONE', ( #184, #1 ), #109, .F. ) ;
#256 =( NAMED_UNIT ( * ) PLANE_ANGLE_UNIT ( ) SI_UNIT ( $, .RADIAN. ) );
#257 = LOCAL_TIME ( 13, 36, 25.00000000000000000, #99 ) ;
#258 = FACE_OUTER_BOUND ( 'NONE', #239, .T. ) ;
#259 = FACE_OUTER_BOUND ( 'NONE', #183, .T. ) ;
#260 = ORIENTED_EDGE ( 'NONE', *, *, #125, .T. ) ;
#261 = DIRECTION ( 'NONE',  ( 3.491481338843133355E-15, -4.327174794786742882E-16, 1.000000000000000000 ) ) ;
#262 = EDGE_LOOP ( 'NONE', ( #202 ) ) ;
#263 = DIRECTION ( 'NONE',  ( 1.510825004591027855E-30, 1.000000000000000000, 4.327174794786742882E-16 ) ) ;
ENDSEC;
END-ISO-10303-21;
