ISO-10303-21;
HEADER;
FILE_DESCRIPTION (( 'STEP AP203' ),
    '1' );
FILE_NAME ('54602.step',
    '2021-09-03T07:52:33',
    ( '' ),
    ( '' ),
    'SwSTEP 2.0',
    'SolidWorks 2019',
    '' );
FILE_SCHEMA (( 'CONFIG_CONTROL_DESIGN' ));
ENDSEC;

DATA;
#1 = DIRECTION ( 'NONE',  ( -3.491481338843133355E-15, 1.224646799147353207E-16, -1.000000000000000000 ) ) ;
#2 = PERSON_AND_ORGANIZATION ( #290, #159 ) ;
#3 = CARTESIAN_POINT ( 'NONE',  ( 2.444036937190193601E-13, 1.762217744627666268E-32, 70.00000000000000000 ) ) ;
#4 = PERSON_AND_ORGANIZATION ( #290, #159 ) ;
#5 = PLANE ( 'NONE',  #10 ) ;
#6 = CARTESIAN_POINT ( 'NONE',  ( 8.030407079339205455E-14, 3.049999999999987388, 23.00000000000000000 ) ) ;
#7 = APPLICATION_CONTEXT ( 'configuration controlled 3d designs of mechanical parts and assemblies' ) ;
#8 = DIRECTION ( 'NONE',  ( -3.491481338843133355E-15, 1.224646799147353207E-16, -1.000000000000000000 ) ) ;
#9 = DIRECTION ( 'NONE',  ( 0.0000000000000000000, 1.000000000000000000, 0.0000000000000000000 ) ) ;
#10 = AXIS2_PLACEMENT_3D ( 'NONE', #141, #227, #246 ) ;
#11 = AXIS2_PLACEMENT_3D ( 'NONE', #14, #61, #182 ) ;
#12 = DIRECTION ( 'NONE',  ( -3.491481338843133355E-15, 1.224646799147353207E-16, -1.000000000000000000 ) ) ;
#13 = DIRECTION ( 'NONE',  ( 3.491481338843133355E-15, -1.224646799147353207E-16, 1.000000000000000000 ) ) ;
#14 = CARTESIAN_POINT ( 'NONE',  ( 8.030407079339205455E-14, -2.816687638038912352E-15, 23.00000000000000000 ) ) ;
#15 = AXIS2_PLACEMENT_3D ( 'NONE', #251, #1, #96 ) ;
#16 = CARTESIAN_POINT ( 'NONE',  ( 6.398575597670444775E-15, -3.049999999999987832, 1.832624888034070754 ) ) ;
#17 = CIRCLE ( 'NONE', #90, 2.349999999999995204 ) ;
#18 = ADVANCED_FACE ( 'NONE', ( #270 ), #5, .T. ) ;
#19 = ORIENTED_EDGE ( 'NONE', *, *, #252, .T. ) ;
#20 = DIRECTION ( 'NONE',  ( 4.275831445896958607E-31, 1.000000000000000000, 1.224646799147353207E-16 ) ) ;
#21 = APPLICATION_PROTOCOL_DEFINITION ( 'international standard', 'config_control_design', 1994, #102 ) ;
#22 = ORIENTED_EDGE ( 'NONE', *, *, #162, .F. ) ;
#23 = FACE_OUTER_BOUND ( 'NONE', #67, .T. ) ;
#24 = DIRECTION ( 'NONE',  ( 4.275831445896958607E-31, 1.000000000000000000, 1.224646799147353207E-16 ) ) ;
#25 = DIRECTION ( 'NONE',  ( -3.491481338843133355E-15, 1.224646799147353207E-16, -1.000000000000000000 ) ) ;
#26 = ADVANCED_FACE ( 'NONE', ( #23 ), #200, .T. ) ;
#27 = EDGE_LOOP ( 'NONE', ( #111, #118, #19, #324 ) ) ;
#28 = CARTESIAN_POINT ( 'NONE',  ( 0.0000000000000000000, 0.0000000000000000000, 0.0000000000000000000 ) ) ;
#29 = AXIS2_PLACEMENT_3D ( 'NONE', #214, #156, #161 ) ;
#30 = DIRECTION ( 'NONE',  ( 0.0000000000000000000, 1.000000000000000000, 0.0000000000000000000 ) ) ;
#31 = DIRECTION ( 'NONE',  ( -3.491481338843133355E-15, 1.224646799147353207E-16, -1.000000000000000000 ) ) ;
#32 = DIRECTION ( 'NONE',  ( -3.491481338843133355E-15, 1.224646799147353207E-16, -1.000000000000000000 ) ) ;
#33 = DIRECTION ( 'NONE',  ( -3.491481338843133355E-15, 1.224646799147353207E-16, -1.000000000000000000 ) ) ;
#34 = DATE_AND_TIME ( #326, #103 ) ;
#35 = FACE_OUTER_BOUND ( 'NONE', #71, .T. ) ;
#36 = CC_DESIGN_APPROVAL ( #213, ( #244 ) ) ;
#37 = PERSON_AND_ORGANIZATION ( #290, #159 ) ;
#38 = DATE_TIME_ROLE ( 'creation_date' ) ;
#39 = ORIENTED_EDGE ( 'NONE', *, *, #230, .T. ) ;
#40 =( NAMED_UNIT ( * ) SI_UNIT ( $, .STERADIAN. ) SOLID_ANGLE_UNIT ( ) );
#41 = ORIENTED_EDGE ( 'NONE', *, *, #46, .T. ) ;
#42 = CC_DESIGN_PERSON_AND_ORGANIZATION_ASSIGNMENT ( #275, #117, ( #244 ) ) ;
#43 = VERTEX_POINT ( 'NONE', #195 ) ;
#44 = APPROVAL_DATE_TIME ( #145, #213 ) ;
#45 = VERTEX_POINT ( 'NONE', #52 ) ;
#46 = EDGE_CURVE ( 'NONE', #112, #301, #147, .T. ) ;
#47 = PRODUCT_DEFINITION_SHAPE ( 'NONE', 'NONE',  #285 ) ;
#48 = EDGE_LOOP ( 'NONE', ( #307, #62 ) ) ;
#49 = AXIS2_PLACEMENT_3D ( 'NONE', #279, #8, #154 ) ;
#50 = VECTOR ( 'NONE', #107, 1000.000000000000000 ) ;
#51 = DATE_TIME_ROLE ( 'classification_date' ) ;
#52 = CARTESIAN_POINT ( 'NONE',  ( 1.615053810613504096E-13, -3.050000000000003819, 69.29999999999999716 ) ) ;
#53 = ORIENTED_EDGE ( 'NONE', *, *, #319, .T. ) ;
#54 = DIRECTION ( 'NONE',  ( 4.275831445896958607E-31, 1.000000000000000000, 1.224646799147353207E-16 ) ) ;
#55 = CIRCLE ( 'NONE', #313, 3.049999999999995381 ) ;
#56 = CYLINDRICAL_SURFACE ( 'NONE', #136, 3.049999999999992717 ) ;
#57 = CARTESIAN_POINT ( 'NONE',  ( 2.419596567818291352E-13, -8.486802318091157127E-15, 69.29999999999999716 ) ) ;
#58 = DIRECTION ( 'NONE',  ( 5.051619526261622625E-31, 1.000000000000000000, 1.421904488505585324E-16 ) ) ;
#59 = CARTESIAN_POINT ( 'NONE',  ( 0.0000000000000000000, 0.0000000000000000000, 0.0000000000000000000 ) ) ;
#60 =( LENGTH_UNIT ( ) NAMED_UNIT ( * ) SI_UNIT ( .MILLI., .METRE. ) );
#61 = DIRECTION ( 'NONE',  ( -3.491481338843133355E-15, 1.224646799147353207E-16, -1.000000000000000000 ) ) ;
#62 = ORIENTED_EDGE ( 'NONE', *, *, #278, .T. ) ;
#63 = CIRCLE ( 'NONE', #218, 3.049999999999987832 ) ;
#64 = AXIS2_PLACEMENT_3D ( 'NONE', #59, #293, #20 ) ;
#65 = LINE ( 'NONE', #113, #85 ) ;
#66 = DIRECTION ( 'NONE',  ( -2.382254525458727330E-15, -0.7071067811865443531, -0.7071067811865506814 ) ) ;
#67 = EDGE_LOOP ( 'NONE', ( #163, #41, #97, #88 ) ) ;
#68 = SHAPE_DEFINITION_REPRESENTATION ( #47, #167 ) ;
#69 = ORIENTED_EDGE ( 'NONE', *, *, #181, .F. ) ;
#70 = EDGE_LOOP ( 'NONE', ( #168, #72 ) ) ;
#71 = EDGE_LOOP ( 'NONE', ( #272, #277, #215, #22 ) ) ;
#72 = ORIENTED_EDGE ( 'NONE', *, *, #204, .F. ) ;
#73 = AXIS2_PLACEMENT_3D ( 'NONE', #231, #258, #312 ) ;
#74 = ORIENTED_EDGE ( 'NONE', *, *, #230, .F. ) ;
#75 = FACE_OUTER_BOUND ( 'NONE', #157, .T. ) ;
#76 = CARTESIAN_POINT ( 'NONE',  ( 1.304128590998569318E-30, 3.049999999999992717, 3.735172737399418272E-16 ) ) ;
#77 = DIRECTION ( 'NONE',  ( 3.491481338843133355E-15, -1.224646799147353207E-16, 1.000000000000000000 ) ) ;
#78 = CARTESIAN_POINT ( 'NONE',  ( 6.398575597670446352E-15, -2.244318203168701888E-16, 1.832624888034071198 ) ) ;
#79 = DIRECTION ( 'NONE',  ( -2.468850131082275599E-15, 0.7071067811865445751, -0.7071067811865504593 ) ) ;
#80 = CLOSED_SHELL ( 'NONE', ( #104, #191, #108, #143, #233, #89 ) ) ;
#81 = PERSON_AND_ORGANIZATION_ROLE ( 'design_owner' ) ;
#82 = ORIENTED_EDGE ( 'NONE', *, *, #319, .F. ) ;
#83 = COORDINATED_UNIVERSAL_TIME_OFFSET ( 1, 0, .AHEAD. ) ;
#84 = AXIS2_PLACEMENT_3D ( 'NONE', #310, #32, #100 ) ;
#85 = VECTOR ( 'NONE', #261, 1000.000000000000000 ) ;
#86 = CARTESIAN_POINT ( 'NONE',  ( 2.419596567818291352E-13, 3.049999999999986944, 69.29999999999999716 ) ) ;
#87 = MANIFOLD_SOLID_BREP ( 'Corps-Déplacer/Copier1[1]', #80 ) ;
#88 = ORIENTED_EDGE ( 'NONE', *, *, #292, .F. ) ;
#89 = ADVANCED_FACE ( 'NONE', ( #144 ), #166, .F. ) ;
#90 = AXIS2_PLACEMENT_3D ( 'NONE', #122, #94, #224 ) ;
#91 = EDGE_LOOP ( 'NONE', ( #267, #239, #245 ) ) ;
#92 = AXIS2_PLACEMENT_3D ( 'NONE', #78, #176, #58 ) ;
#93 = PRODUCT ( '54602', '54602', '', ( #243 ) ) ;
#94 = DIRECTION ( 'NONE',  ( -3.491481338843133355E-15, 1.224646799147353207E-16, -1.000000000000000000 ) ) ;
#95 = PERSON_AND_ORGANIZATION_ROLE ( 'classification_officer' ) ;
#96 = DIRECTION ( 'NONE',  ( 0.0000000000000000000, 1.000000000000000000, 0.0000000000000000000 ) ) ;
#97 = ORIENTED_EDGE ( 'NONE', *, *, #202, .F. ) ;
#98 = FACE_OUTER_BOUND ( 'NONE', #91, .T. ) ;
#99 = EDGE_CURVE ( 'NONE', #172, #226, #17, .T. ) ;
#100 = DIRECTION ( 'NONE',  ( 0.0000000000000000000, 1.000000000000000000, 0.0000000000000000000 ) ) ;
#101 = CARTESIAN_POINT ( 'NONE',  ( 6.398575597670446352E-15, -2.244318203168701888E-16, 1.832624888034071198 ) ) ;
#102 = APPLICATION_CONTEXT ( 'configuration controlled 3d designs of mechanical parts and assemblies' ) ;
#103 = LOCAL_TIME ( 9, 52, 33.00000000000000000, #116 ) ;
#104 = ADVANCED_FACE ( 'NONE', ( #309 ), #321, .T. ) ;
#105 = LINE ( 'NONE', #184, #50 ) ;
#106 = CARTESIAN_POINT ( 'NONE',  ( 2.435123298861940654E-13, -2.350000000000004086, 70.00000000000000000 ) ) ;
#107 = DIRECTION ( 'NONE',  ( -3.491481338843133355E-15, 1.224646799147353207E-16, -1.000000000000000000 ) ) ;
#108 = ADVANCED_FACE ( 'NONE', ( #124 ), #318, .F. ) ;
#109 = AXIS2_PLACEMENT_3D ( 'NONE', #120, #25, #334 ) ;
#110 = LOCAL_TIME ( 9, 52, 33.00000000000000000, #248 ) ;
#111 = ORIENTED_EDGE ( 'NONE', *, *, #289, .F. ) ;
#112 = VERTEX_POINT ( 'NONE', #148 ) ;
#113 = CARTESIAN_POINT ( 'NONE',  ( 1.304128590998567392E-30, 3.049999999999988276, 3.735172737399412848E-16 ) ) ;
#114 = ORIENTED_EDGE ( 'NONE', *, *, #202, .T. ) ;
#115 = CC_DESIGN_APPROVAL ( #186, ( #285 ) ) ;
#116 = COORDINATED_UNIVERSAL_TIME_OFFSET ( 1, 0, .AHEAD. ) ;
#117 = PERSON_AND_ORGANIZATION_ROLE ( 'creator' ) ;
#118 = ORIENTED_EDGE ( 'NONE', *, *, #138, .T. ) ;
#119 = CALENDAR_DATE ( 2021, 3, 9 ) ;
#120 = CARTESIAN_POINT ( 'NONE',  ( 0.0000000000000000000, 0.0000000000000000000, 0.0000000000000000000 ) ) ;
#121 = AXIS2_PLACEMENT_3D ( 'NONE', #101, #77, #207 ) ;
#122 = CARTESIAN_POINT ( 'NONE',  ( 2.444036937190193601E-13, -8.572527594031472993E-15, 70.00000000000000000 ) ) ;
#123 = DATE_AND_TIME ( #269, #110 ) ;
#124 = FACE_OUTER_BOUND ( 'NONE', #48, .T. ) ;
#125 = DATE_AND_TIME ( #119, #298 ) ;
#126 = VERTEX_POINT ( 'NONE', #28 ) ;
#127 = DIRECTION ( 'NONE',  ( 0.0000000000000000000, 1.000000000000000000, 0.0000000000000000000 ) ) ;
#128 = CONICAL_SURFACE ( 'NONE', #73, 2.349999999999995204, 0.7853981633974439491 ) ;
#129 = CARTESIAN_POINT ( 'NONE',  ( 0.0000000000000000000, 0.0000000000000000000, 0.0000000000000000000 ) ) ;
#130 = CYLINDRICAL_SURFACE ( 'NONE', #49, 3.049999999999992717 ) ;
#131 = LINE ( 'NONE', #76, #335 ) ;
#132 = APPROVAL_PERSON_ORGANIZATION ( #306, #164, #250 ) ;
#133 = DIRECTION ( 'NONE',  ( 0.0000000000000000000, 1.000000000000000000, 0.0000000000000000000 ) ) ;
#134 = CIRCLE ( 'NONE', #234, 3.049999999999989608 ) ;
#135 = AXIS2_PLACEMENT_3D ( 'NONE', #288, #33, #133 ) ;
#136 = AXIS2_PLACEMENT_3D ( 'NONE', #129, #284, #54 ) ;
#137 = EDGE_LOOP ( 'NONE', ( #297, #53, #327, #74 ) ) ;
#138 = EDGE_CURVE ( 'NONE', #45, #305, #55, .T. ) ;
#139 = APPLICATION_PROTOCOL_DEFINITION ( 'international standard', 'config_control_design', 1994, #7 ) ;
#140 = EDGE_LOOP ( 'NONE', ( #82, #249, #39, #173 ) ) ;
#141 = CARTESIAN_POINT ( 'NONE',  ( 8.030407079339205455E-14, 2.287133668559321357E-32, 23.00000000000000000 ) ) ;
#142 = SECURITY_CLASSIFICATION_LEVEL ( 'unclassified' ) ;
#143 = ADVANCED_FACE ( 'NONE', ( #235 ), #130, .T. ) ;
#144 = FACE_OUTER_BOUND ( 'NONE', #70, .T. ) ;
#145 = DATE_AND_TIME ( #198, #331 ) ;
#146 = ORIENTED_EDGE ( 'NONE', *, *, #252, .F. ) ;
#147 = LINE ( 'NONE', #304, #149 ) ;
#148 = CARTESIAN_POINT ( 'NONE',  ( 4.372484046927116496E-14, -3.049999999999992273, 23.00000000000000000 ) ) ;
#149 = VECTOR ( 'NONE', #247, 1000.000000000000000 ) ;
#150 = DIRECTION ( 'NONE',  ( 3.491481338843133355E-15, -1.224646799147353207E-16, 1.000000000000000000 ) ) ;
#151 = AXIS2_PLACEMENT_3D ( 'NONE', #3, #197, #24 ) ;
#152 = CARTESIAN_POINT ( 'NONE',  ( 6.772092871410388081E-15, 3.049999999999987388, 1.832624888034071642 ) ) ;
#153 = CARTESIAN_POINT ( 'NONE',  ( 6.772092871410388081E-15, 3.049999999999987388, 1.832624888034071642 ) ) ;
#154 = DIRECTION ( 'NONE',  ( 4.275831445896958607E-31, 1.000000000000000000, 1.224646799147353207E-16 ) ) ;
#155 = CC_DESIGN_SECURITY_CLASSIFICATION ( #228, ( #244 ) ) ;
#156 = DIRECTION ( 'NONE',  ( 0.0000000000000000000, 0.0000000000000000000, 1.000000000000000000 ) ) ;
#157 = EDGE_LOOP ( 'NONE', ( #294, #332, #69, #146 ) ) ;
#158 = CIRCLE ( 'NONE', #84, 3.049999999999989608 ) ;
#159 = ORGANIZATION ( 'UNSPECIFIED', 'UNSPECIFIED', '' ) ;
#160 = CALENDAR_DATE ( 2021, 3, 9 ) ;
#161 = DIRECTION ( 'NONE',  ( 1.000000000000000000, 0.0000000000000000000, 0.0000000000000000000 ) ) ;
#162 = EDGE_CURVE ( 'NONE', #301, #222, #280, .T. ) ;
#163 = ORIENTED_EDGE ( 'NONE', *, *, #311, .T. ) ;
#164 = APPROVAL ( #300, 'UNSPECIFIED' ) ;
#165 = PERSON_AND_ORGANIZATION_ROLE ( 'design_supplier' ) ;
#166 = PLANE ( 'NONE',  #151 ) ;
#167 = ADVANCED_BREP_SHAPE_REPRESENTATION ( '54602', ( #87, #320, #29 ), #254 ) ;
#168 = ORIENTED_EDGE ( 'NONE', *, *, #99, .F. ) ;
#169 = EDGE_CURVE ( 'NONE', #112, #212, #134, .T. ) ;
#170 = PERSON_AND_ORGANIZATION ( #290, #159 ) ;
#171 = CIRCLE ( 'NONE', #236, 3.049999999999989608 ) ;
#172 = VERTEX_POINT ( 'NONE', #232 ) ;
#173 = ORIENTED_EDGE ( 'NONE', *, *, #138, .F. ) ;
#174 = DIRECTION ( 'NONE',  ( -3.491481338843133355E-15, 1.224646799147353207E-16, -1.000000000000000000 ) ) ;
#175 = CC_DESIGN_PERSON_AND_ORGANIZATION_ASSIGNMENT ( #2, #95, ( #228 ) ) ;
#176 = DIRECTION ( 'NONE',  ( -3.491481338843133355E-15, 1.224646799147353207E-16, -1.000000000000000000 ) ) ;
#177 = CARTESIAN_POINT ( 'NONE',  ( 8.030407079339205455E-14, -2.816687638038912352E-15, 23.00000000000000000 ) ) ;
#178 = DIRECTION ( 'NONE',  ( -4.275831445896958607E-31, -1.000000000000000000, -1.224646799147353207E-16 ) ) ;
#179 = CARTESIAN_POINT ( 'NONE',  ( 6.398575597670446352E-15, -2.244318203168701888E-16, 1.832624888034071198 ) ) ;
#180 = APPROVAL_PERSON_ORGANIZATION ( #37, #186, #211 ) ;
#181 = EDGE_CURVE ( 'NONE', #217, #43, #158, .T. ) ;
#182 = DIRECTION ( 'NONE',  ( 0.0000000000000000000, 1.000000000000000000, 0.0000000000000000000 ) ) ;
#183 = UNCERTAINTY_MEASURE_WITH_UNIT (LENGTH_MEASURE( 1.000000000000000082E-05 ), #60, 'distance_accuracy_value', 'NONE');
#184 = CARTESIAN_POINT ( 'NONE',  ( 3.735172737399405946E-16, -3.049999999999992717, -3.735172737399431091E-16 ) ) ;
#185 = EDGE_LOOP ( 'NONE', ( #273, #221 ) ) ;
#186 = APPROVAL ( #219, 'UNSPECIFIED' ) ;
#187 = DIRECTION ( 'NONE',  ( -3.491481338843133355E-15, 1.224646799147353207E-16, -1.000000000000000000 ) ) ;
#188 = VECTOR ( 'NONE', #201, 1000.000000000000114 ) ;
#189 = DIRECTION ( 'NONE',  ( 0.0000000000000000000, 1.000000000000000000, 0.0000000000000000000 ) ) ;
#190 = CARTESIAN_POINT ( 'NONE',  ( 2.419596567818291352E-13, -8.486802318091157127E-15, 69.29999999999999716 ) ) ;
#191 = ADVANCED_FACE ( 'NONE', ( #75 ), #56, .T. ) ;
#192 = EDGE_LOOP ( 'NONE', ( #199, #276, #114 ) ) ;
#193 = LOCAL_TIME ( 9, 52, 33.00000000000000000, #83 ) ;
#194 = APPROVAL_STATUS ( 'not_yet_approved' ) ;
#195 = CARTESIAN_POINT ( 'NONE',  ( 1.615053810613505106E-13, -3.049999999999992273, 23.00000000000000000 ) ) ;
#196 = ADVANCED_FACE ( 'NONE', ( #286 ), #283, .T. ) ;
#197 = DIRECTION ( 'NONE',  ( -3.491481338843133355E-15, 1.224646799147353207E-16, -1.000000000000000000 ) ) ;
#198 = CALENDAR_DATE ( 2021, 3, 9 ) ;
#199 = ORIENTED_EDGE ( 'NONE', *, *, #325, .F. ) ;
#200 = CYLINDRICAL_SURFACE ( 'NONE', #109, 3.049999999999988276 ) ;
#201 = DIRECTION ( 'NONE',  ( 1.903218546456021928E-15, 0.8571673007021098911, 0.5150380749100583744 ) ) ;
#202 = EDGE_CURVE ( 'NONE', #222, #301, #63, .T. ) ;
#203 = DIRECTION ( 'NONE',  ( -3.491481338843133355E-15, 1.224646799147353207E-16, -1.000000000000000000 ) ) ;
#204 = EDGE_CURVE ( 'NONE', #226, #172, #223, .T. ) ;
#205 = CARTESIAN_POINT ( 'NONE',  ( 6.398575597670446352E-15, -2.244318203168701888E-16, 1.832624888034071198 ) ) ;
#206 = EDGE_CURVE ( 'NONE', #126, #222, #229, .T. ) ;
#207 = DIRECTION ( 'NONE',  ( -5.051619526261622625E-31, -1.000000000000000000, -1.421904488505585324E-16 ) ) ;
#208 = CARTESIAN_POINT ( 'NONE',  ( 2.444036937190193601E-13, 2.349999999999986766, 70.00000000000000000 ) ) ;
#209 = APPROVAL_PERSON_ORGANIZATION ( #4, #213, #225 ) ;
#210 = AXIS2_PLACEMENT_3D ( 'NONE', #282, #13, #178 ) ;
#211 = APPROVAL_ROLE ( '' ) ;
#212 = VERTEX_POINT ( 'NONE', #317 ) ;
#213 = APPROVAL ( #194, 'UNSPECIFIED' ) ;
#214 = CARTESIAN_POINT ( 'NONE',  ( 0.0000000000000000000, 0.0000000000000000000, 0.0000000000000000000 ) ) ;
#215 = ORIENTED_EDGE ( 'NONE', *, *, #292, .T. ) ;
#216 = CARTESIAN_POINT ( 'NONE',  ( 6.398575597670444775E-15, -3.049999999999987832, 1.832624888034070754 ) ) ;
#217 = VERTEX_POINT ( 'NONE', #6 ) ;
#218 = AXIS2_PLACEMENT_3D ( 'NONE', #179, #203, #260 ) ;
#219 = APPROVAL_STATUS ( 'not_yet_approved' ) ;
#220 = CC_DESIGN_PERSON_AND_ORGANIZATION_ASSIGNMENT ( #263, #241, ( #285 ) ) ;
#221 = ORIENTED_EDGE ( 'NONE', *, *, #169, .F. ) ;
#222 = VERTEX_POINT ( 'NONE', #153 ) ;
#223 = CIRCLE ( 'NONE', #135, 2.349999999999995204 ) ;
#224 = DIRECTION ( 'NONE',  ( 0.0000000000000000000, 1.000000000000000000, 0.0000000000000000000 ) ) ;
#225 = APPROVAL_ROLE ( '' ) ;
#226 = VERTEX_POINT ( 'NONE', #106 ) ;
#227 = DIRECTION ( 'NONE',  ( 3.491481338843133355E-15, -1.224646799147353207E-16, 1.000000000000000000 ) ) ;
#228 = SECURITY_CLASSIFICATION ( '', '', #142 ) ;
#229 = LINE ( 'NONE', #152, #188 ) ;
#230 = EDGE_CURVE ( 'NONE', #172, #305, #257, .T. ) ;
#231 = CARTESIAN_POINT ( 'NONE',  ( 2.444036937190193601E-13, -8.572527594031472993E-15, 70.00000000000000000 ) ) ;
#232 = CARTESIAN_POINT ( 'NONE',  ( 2.444036937190193601E-13, 2.349999999999986766, 70.00000000000000000 ) ) ;
#233 = ADVANCED_FACE ( 'NONE', ( #256 ), #128, .T. ) ;
#234 = AXIS2_PLACEMENT_3D ( 'NONE', #177, #253, #30 ) ;
#235 = FACE_OUTER_BOUND ( 'NONE', #27, .T. ) ;
#236 = AXIS2_PLACEMENT_3D ( 'NONE', #316, #12, #9 ) ;
#237 = DIRECTION ( 'NONE',  ( -5.051619526261622625E-31, -1.000000000000000000, -1.421904488505585324E-16 ) ) ;
#238 = CARTESIAN_POINT ( 'NONE',  ( 2.446914857168189663E-13, -2.350000000000004086, 70.00000000000000000 ) ) ;
#239 = ORIENTED_EDGE ( 'NONE', *, *, #325, .T. ) ;
#240 = CC_DESIGN_APPROVAL ( #164, ( #228 ) ) ;
#241 = PERSON_AND_ORGANIZATION_ROLE ( 'creator' ) ;
#242 = PERSON_AND_ORGANIZATION ( #290, #159 ) ;
#243 = MECHANICAL_CONTEXT ( 'NONE', #7, 'mechanical' ) ;
#244 = PRODUCT_DEFINITION_FORMATION_WITH_SPECIFIED_SOURCE ( 'ANY', '', #93, .NOT_KNOWN. ) ;
#245 = ORIENTED_EDGE ( 'NONE', *, *, #162, .T. ) ;
#246 = DIRECTION ( 'NONE',  ( -4.275831445896958607E-31, -1.000000000000000000, -1.224646799147353207E-16 ) ) ;
#247 = DIRECTION ( 'NONE',  ( -3.491481338843133355E-15, 1.224646799147353207E-16, -1.000000000000000000 ) ) ;
#248 = COORDINATED_UNIVERSAL_TIME_OFFSET ( 1, 0, .AHEAD. ) ;
#249 = ORIENTED_EDGE ( 'NONE', *, *, #204, .T. ) ;
#250 = APPROVAL_ROLE ( '' ) ;
#251 = CARTESIAN_POINT ( 'NONE',  ( 2.444036937190193601E-13, -8.572527594031472993E-15, 70.00000000000000000 ) ) ;
#252 = EDGE_CURVE ( 'NONE', #305, #217, #131, .T. ) ;
#253 = DIRECTION ( 'NONE',  ( -3.491481338843133355E-15, 1.224646799147353207E-16, -1.000000000000000000 ) ) ;
#254 =( GEOMETRIC_REPRESENTATION_CONTEXT ( 3 ) GLOBAL_UNCERTAINTY_ASSIGNED_CONTEXT ( ( #183 ) ) GLOBAL_UNIT_ASSIGNED_CONTEXT ( ( #60, #299, #40 ) ) REPRESENTATION_CONTEXT ( 'NONE', 'WORKASPACE' ) );
#255 = CC_DESIGN_DATE_AND_TIME_ASSIGNMENT ( #123, #51, ( #228 ) ) ;
#256 = FACE_OUTER_BOUND ( 'NONE', #140, .T. ) ;
#257 = LINE ( 'NONE', #208, #330 ) ;
#258 = DIRECTION ( 'NONE',  ( -3.491481338843133355E-15, 1.224646799147353207E-16, -1.000000000000000000 ) ) ;
#259 = CC_DESIGN_DATE_AND_TIME_ASSIGNMENT ( #266, #38, ( #285 ) ) ;
#260 = DIRECTION ( 'NONE',  ( 5.051619526261622625E-31, 1.000000000000000000, 1.421904488505585324E-16 ) ) ;
#261 = DIRECTION ( 'NONE',  ( -3.491481338843133355E-15, 1.224646799147353207E-16, -1.000000000000000000 ) ) ;
#262 = DESIGN_CONTEXT ( 'detailed design', #102, 'design' ) ;
#263 = PERSON_AND_ORGANIZATION ( #290, #159 ) ;
#264 = CC_DESIGN_PERSON_AND_ORGANIZATION_ASSIGNMENT ( #170, #165, ( #244 ) ) ;
#265 = CONICAL_SURFACE ( 'NONE', #121, 3.049999999999987832, 1.029744258676649871 ) ;
#266 = DATE_AND_TIME ( #160, #193 ) ;
#267 = ORIENTED_EDGE ( 'NONE', *, *, #206, .F. ) ;
#268 = DIRECTION ( 'NONE',  ( 1.798245827342159528E-15, -0.8571673007021100021, 0.5150380749100580413 ) ) ;
#269 = CALENDAR_DATE ( 2021, 3, 9 ) ;
#270 = FACE_OUTER_BOUND ( 'NONE', #185, .T. ) ;
#271 = COORDINATED_UNIVERSAL_TIME_OFFSET ( 1, 0, .AHEAD. ) ;
#272 = ORIENTED_EDGE ( 'NONE', *, *, #46, .F. ) ;
#273 = ORIENTED_EDGE ( 'NONE', *, *, #311, .F. ) ;
#274 = VECTOR ( 'NONE', #66, 1000.000000000000000 ) ;
#275 = PERSON_AND_ORGANIZATION ( #290, #159 ) ;
#276 = ORIENTED_EDGE ( 'NONE', *, *, #206, .T. ) ;
#277 = ORIENTED_EDGE ( 'NONE', *, *, #169, .T. ) ;
#278 = EDGE_CURVE ( 'NONE', #43, #217, #171, .T. ) ;
#279 = CARTESIAN_POINT ( 'NONE',  ( 0.0000000000000000000, 0.0000000000000000000, 0.0000000000000000000 ) ) ;
#280 = CIRCLE ( 'NONE', #92, 3.049999999999987832 ) ;
#281 = ADVANCED_FACE ( 'NONE', ( #98 ), #265, .T. ) ;
#282 = CARTESIAN_POINT ( 'NONE',  ( 8.030407079339205455E-14, 2.287133668559321357E-32, 23.00000000000000000 ) ) ;
#283 = CONICAL_SURFACE ( 'NONE', #336, 3.049999999999987832, 1.029744258676649871 ) ;
#284 = DIRECTION ( 'NONE',  ( -3.491481338843133355E-15, 1.224646799147353207E-16, -1.000000000000000000 ) ) ;
#285 = PRODUCT_DEFINITION ( 'UNKNOWN', '', #244, #262 ) ;
#286 = FACE_OUTER_BOUND ( 'NONE', #192, .T. ) ;
#287 = AXIS2_PLACEMENT_3D ( 'NONE', #190, #187, #189 ) ;
#288 = CARTESIAN_POINT ( 'NONE',  ( 2.444036937190193601E-13, -8.572527594031472993E-15, 70.00000000000000000 ) ) ;
#289 = EDGE_CURVE ( 'NONE', #45, #43, #105, .T. ) ;
#290 = PERSON ( 'UNSPECIFIED', 'UNSPECIFIED', 'UNSPECIFIED', ('UNSPECIFIED'), ('UNSPECIFIED'), ('UNSPECIFIED') ) ;
#291 = LINE ( 'NONE', #238, #274 ) ;
#292 = EDGE_CURVE ( 'NONE', #212, #222, #65, .T. ) ;
#293 = DIRECTION ( 'NONE',  ( -3.491481338843133355E-15, 1.224646799147353207E-16, -1.000000000000000000 ) ) ;
#294 = ORIENTED_EDGE ( 'NONE', *, *, #328, .T. ) ;
#295 = LINE ( 'NONE', #16, #302 ) ;
#296 = ADVANCED_FACE ( 'NONE', ( #35 ), #329, .T. ) ;
#297 = ORIENTED_EDGE ( 'NONE', *, *, #99, .T. ) ;
#298 = LOCAL_TIME ( 9, 52, 33.00000000000000000, #271 ) ;
#299 =( NAMED_UNIT ( * ) PLANE_ANGLE_UNIT ( ) SI_UNIT ( $, .RADIAN. ) );
#300 = APPROVAL_STATUS ( 'not_yet_approved' ) ;
#301 = VERTEX_POINT ( 'NONE', #216 ) ;
#302 = VECTOR ( 'NONE', #268, 1000.000000000000000 ) ;
#303 = CLOSED_SHELL ( 'NONE', ( #26, #196, #281, #296, #18 ) ) ;
#304 = CARTESIAN_POINT ( 'NONE',  ( 3.735172737399400522E-16, -3.049999999999988276, -3.735172737399426160E-16 ) ) ;
#305 = VERTEX_POINT ( 'NONE', #86 ) ;
#306 = PERSON_AND_ORGANIZATION ( #290, #159 ) ;
#307 = ORIENTED_EDGE ( 'NONE', *, *, #181, .T. ) ;
#308 = CIRCLE ( 'NONE', #287, 3.049999999999995381 ) ;
#309 = FACE_OUTER_BOUND ( 'NONE', #137, .T. ) ;
#310 = CARTESIAN_POINT ( 'NONE',  ( 8.030407079339205455E-14, -2.816687638038912352E-15, 23.00000000000000000 ) ) ;
#311 = EDGE_CURVE ( 'NONE', #212, #112, #315, .T. ) ;
#312 = DIRECTION ( 'NONE',  ( 0.0000000000000000000, 1.000000000000000000, 0.0000000000000000000 ) ) ;
#313 = AXIS2_PLACEMENT_3D ( 'NONE', #57, #174, #127 ) ;
#314 = PRODUCT_RELATED_PRODUCT_CATEGORY ( 'detail', '', ( #93 ) ) ;
#315 = CIRCLE ( 'NONE', #11, 3.049999999999989608 ) ;
#316 = CARTESIAN_POINT ( 'NONE',  ( 8.030407079339205455E-14, -2.816687638038912352E-15, 23.00000000000000000 ) ) ;
#317 = CARTESIAN_POINT ( 'NONE',  ( 8.030407079339205455E-14, 3.049999999999987388, 23.00000000000000000 ) ) ;
#318 = PLANE ( 'NONE',  #210 ) ;
#319 = EDGE_CURVE ( 'NONE', #226, #45, #291, .T. ) ;
#320 = MANIFOLD_SOLID_BREP ( 'Corps-Déplacer/Copier1[2]', #303 ) ;
#321 = CONICAL_SURFACE ( 'NONE', #15, 2.349999999999995204, 0.7853981633974439491 ) ;
#322 = CC_DESIGN_PERSON_AND_ORGANIZATION_ASSIGNMENT ( #242, #81, ( #93 ) ) ;
#323 = APPROVAL_DATE_TIME ( #34, #186 ) ;
#324 = ORIENTED_EDGE ( 'NONE', *, *, #278, .F. ) ;
#325 = EDGE_CURVE ( 'NONE', #126, #301, #295, .T. ) ;
#326 = CALENDAR_DATE ( 2021, 3, 9 ) ;
#327 = ORIENTED_EDGE ( 'NONE', *, *, #328, .F. ) ;
#328 = EDGE_CURVE ( 'NONE', #305, #45, #308, .T. ) ;
#329 = CYLINDRICAL_SURFACE ( 'NONE', #64, 3.049999999999988276 ) ;
#330 = VECTOR ( 'NONE', #79, 1000.000000000000000 ) ;
#331 = LOCAL_TIME ( 9, 52, 33.00000000000000000, #333 ) ;
#332 = ORIENTED_EDGE ( 'NONE', *, *, #289, .T. ) ;
#333 = COORDINATED_UNIVERSAL_TIME_OFFSET ( 1, 0, .AHEAD. ) ;
#334 = DIRECTION ( 'NONE',  ( 4.275831445896958607E-31, 1.000000000000000000, 1.224646799147353207E-16 ) ) ;
#335 = VECTOR ( 'NONE', #31, 1000.000000000000000 ) ;
#336 = AXIS2_PLACEMENT_3D ( 'NONE', #205, #150, #237 ) ;
#337 = APPROVAL_DATE_TIME ( #125, #164 ) ;
ENDSEC;
END-ISO-10303-21;
