ISO-10303-21;
HEADER;
FILE_DESCRIPTION (( 'STEP AP203' ),
    '1' );
FILE_NAME ('54601.STEP',
    '2023-01-18T15:35:40',
    ( '' ),
    ( '' ),
    'SwSTEP 2.0',
    'SolidWorks 2019',
    '' );
FILE_SCHEMA (( 'CONFIG_CONTROL_DESIGN' ));
ENDSEC;

DATA;
#1 = CYLINDRICAL_SURFACE ( 'NONE', #167, 2.999999999999988898 ) ;
#2 =( LENGTH_UNIT ( ) NAMED_UNIT ( * ) SI_UNIT ( .MILLI., .METRE. ) );
#3 = EDGE_CURVE ( 'NONE', #13, #13, #180, .T. ) ;
#4 = DIRECTION ( 'NONE',  ( 3.491481338843133355E-15, -1.224646799147353207E-16, 1.000000000000000000 ) ) ;
#5 = APPROVAL_PERSON_ORGANIZATION ( #52, #161, #123 ) ;
#6 = DIRECTION ( 'NONE',  ( -3.491481338843133355E-15, 1.224646799147353207E-16, -1.000000000000000000 ) ) ;
#7 = APPLICATION_CONTEXT ( 'configuration controlled 3d designs of mechanical parts and assemblies' ) ;
#8 = FACE_OUTER_BOUND ( 'NONE', #110, .T. ) ;
#9 = ADVANCED_BREP_SHAPE_REPRESENTATION ( '54601', ( #148, #150, #105 ), #176 ) ;
#10 = EDGE_LOOP ( 'NONE', ( #28 ) ) ;
#11 = ORIENTED_EDGE ( 'NONE', *, *, #175, .F. ) ;
#12 = DATE_AND_TIME ( #98, #64 ) ;
#13 = VERTEX_POINT ( 'NONE', #15 ) ;
#14 = CALENDAR_DATE ( 2023, 18, 1 ) ;
#15 = CARTESIAN_POINT ( 'NONE',  ( 6.293680915741423521E-15, 2.999999999999987566, 1.802581857082693473 ) ) ;
#16 = PLANE ( 'NONE',  #21 ) ;
#17 = APPROVAL_PERSON_ORGANIZATION ( #192, #168, #146 ) ;
#18 = APPLICATION_PROTOCOL_DEFINITION ( 'international standard', 'config_control_design', 1994, #76 ) ;
#19 = PRODUCT_DEFINITION_SHAPE ( 'NONE', 'NONE',  #78 ) ;
#20 = COORDINATED_UNIVERSAL_TIME_OFFSET ( 1, 0, .AHEAD. ) ;
#21 = AXIS2_PLACEMENT_3D ( 'NONE', #77, #145, #139 ) ;
#22 = DIRECTION ( 'NONE',  ( 0.000000000000000000, 0.000000000000000000, 1.000000000000000000 ) ) ;
#23 = CONICAL_SURFACE ( 'NONE', #165, 2.399999999999995470, 0.7853981633974569387 ) ;
#24 = DIRECTION ( 'NONE',  ( -3.491481338843133355E-15, 1.224646799147353207E-16, -1.000000000000000000 ) ) ;
#25 = CARTESIAN_POINT ( 'NONE',  ( 6.293680915741421943E-15, -2.207526101477411847E-16, 1.802581857082693029 ) ) ;
#26 = ORIENTED_EDGE ( 'NONE', *, *, #136, .F. ) ;
#27 = ADVANCED_FACE ( 'NONE', ( #8 ), #16, .F. ) ;
#28 = ORIENTED_EDGE ( 'NONE', *, *, #66, .F. ) ;
#29 = DATE_AND_TIME ( #14, #125 ) ;
#30 = FACE_OUTER_BOUND ( 'NONE', #112, .T. ) ;
#31 = ADVANCED_FACE ( 'NONE', ( #173, #30 ), #1, .T. ) ;
#32 = PRODUCT_DEFINITION_FORMATION_WITH_SPECIFIED_SOURCE ( 'ANY', '', #191, .NOT_KNOWN. ) ;
#33 = AXIS2_PLACEMENT_3D ( 'NONE', #153, #48, #119 ) ;
#34 = APPROVAL_STATUS ( 'not_yet_approved' ) ;
#35 = PLANE ( 'NONE',  #93 ) ;
#36 = APPLICATION_PROTOCOL_DEFINITION ( 'international standard', 'config_control_design', 1994, #7 ) ;
#37 = EDGE_LOOP ( 'NONE', ( #26 ) ) ;
#38 = DIRECTION ( 'NONE',  ( 0.000000000000000000, 1.000000000000000000, 0.000000000000000000 ) ) ;
#39 = AXIS2_PLACEMENT_3D ( 'NONE', #195, #164, #102 ) ;
#40 = DIRECTION ( 'NONE',  ( 3.491481338843133355E-15, -1.224646799147353207E-16, 1.000000000000000000 ) ) ;
#41 = CC_DESIGN_DATE_AND_TIME_ASSIGNMENT ( #111, #196, ( #78 ) ) ;
#42 = CONICAL_SURFACE ( 'NONE', #99, 2.999999999999988010, 1.029744258676649871 ) ;
#43 = CARTESIAN_POINT ( 'NONE',  ( 2.283428795603409341E-13, 2.999999999999987566, 65.40000000000001990 ) ) ;
#44 = PERSON ( 'UNSPECIFIED', 'UNSPECIFIED', 'UNSPECIFIED', ('UNSPECIFIED'), ('UNSPECIFIED'), ('UNSPECIFIED') ) ;
#45 = LOCAL_TIME ( 16, 35, 40.00000000000000000, #187 ) ;
#46 = AXIS2_PLACEMENT_3D ( 'NONE', #126, #115, #186 ) ;
#47 = DESIGN_CONTEXT ( 'detailed design', #7, 'design' ) ;
#48 = DIRECTION ( 'NONE',  ( -3.491481338843133355E-15, 1.224646799147353207E-16, -1.000000000000000000 ) ) ;
#49 = FACE_OUTER_BOUND ( 'NONE', #121, .T. ) ;
#50 = FACE_OUTER_BOUND ( 'NONE', #10, .T. ) ;
#51 = CC_DESIGN_PERSON_AND_ORGANIZATION_ASSIGNMENT ( #179, #137, ( #32 ) ) ;
#52 = PERSON_AND_ORGANIZATION ( #44, #134 ) ;
#53 = AXIS2_PLACEMENT_3D ( 'NONE', #151, #6, #65 ) ;
#54 = FACE_OUTER_BOUND ( 'NONE', #169, .T. ) ;
#55 = APPROVAL_STATUS ( 'not_yet_approved' ) ;
#56 = VERTEX_POINT ( 'NONE', #189 ) ;
#57 = PERSON_AND_ORGANIZATION_ROLE ( 'creator' ) ;
#58 = FACE_OUTER_BOUND ( 'NONE', #200, .T. ) ;
#59 = CC_DESIGN_PERSON_AND_ORGANIZATION_ASSIGNMENT ( #172, #96, ( #32 ) ) ;
#60 = LOCAL_TIME ( 16, 35, 40.00000000000000000, #190 ) ;
#61 =( NAMED_UNIT ( * ) SI_UNIT ( $, .STERADIAN. ) SOLID_ANGLE_UNIT ( ) );
#62 = DIRECTION ( 'NONE',  ( -4.275831445896958607E-31, -1.000000000000000000, -1.224646799147353207E-16 ) ) ;
#63 = PRODUCT_RELATED_PRODUCT_CATEGORY ( 'detail', '', ( #191 ) ) ;
#64 = LOCAL_TIME ( 16, 35, 40.00000000000000000, #201 ) ;
#65 = DIRECTION ( 'NONE',  ( 0.000000000000000000, 1.000000000000000000, 0.000000000000000000 ) ) ;
#66 = EDGE_CURVE ( 'NONE', #140, #140, #162, .T. ) ;
#67 = LOCAL_TIME ( 16, 35, 40.00000000000000000, #20 ) ;
#68 = DIRECTION ( 'NONE',  ( 1.000000000000000000, 0.000000000000000000, 0.000000000000000000 ) ) ;
#69 = EDGE_LOOP ( 'NONE', ( #88 ) ) ;
#70 = AXIS2_PLACEMENT_3D ( 'NONE', #73, #72, #141 ) ;
#71 = VERTEX_POINT ( 'NONE', #188 ) ;
#72 = DIRECTION ( 'NONE',  ( -3.491481338843133355E-15, 1.224646799147353207E-16, -1.000000000000000000 ) ) ;
#73 = CARTESIAN_POINT ( 'NONE',  ( 2.283428795603409341E-13, -8.009190066423690680E-15, 65.40000000000001990 ) ) ;
#74 = CIRCLE ( 'NONE', #33, 2.999999999999990230 ) ;
#75 = CALENDAR_DATE ( 2023, 18, 1 ) ;
#76 = APPLICATION_CONTEXT ( 'configuration controlled 3d designs of mechanical parts and assemblies' ) ;
#77 = CARTESIAN_POINT ( 'NONE',  ( 2.304377683636468267E-13, 1.799711739194213529E-32, 66.00000000000000000 ) ) ;
#78 = PRODUCT_DEFINITION ( 'UNKNOWN', '', #32, #47 ) ;
#79 = CARTESIAN_POINT ( 'NONE',  ( 7.332110811570580046E-14, 2.249639673992774917E-32, 21.00000000000000000 ) ) ;
#80 = PERSON_AND_ORGANIZATION_ROLE ( 'design_owner' ) ;
#81 = APPROVAL_PERSON_ORGANIZATION ( #127, #181, #92 ) ;
#82 = PLANE ( 'NONE',  #39 ) ;
#83 = CC_DESIGN_SECURITY_CLASSIFICATION ( #163, ( #32 ) ) ;
#84 = DIRECTION ( 'NONE',  ( 0.000000000000000000, 1.000000000000000000, 0.000000000000000000 ) ) ;
#85 = DIRECTION ( 'NONE',  ( -3.491481338843133355E-15, 1.224646799147353207E-16, -1.000000000000000000 ) ) ;
#86 = ADVANCED_FACE ( 'NONE', ( #58 ), #35, .F. ) ;
#87 = FACE_BOUND ( 'NONE', #199, .T. ) ;
#88 = ORIENTED_EDGE ( 'NONE', *, *, #3, .T. ) ;
#89 = SHAPE_DEFINITION_REPRESENTATION ( #19, #9 ) ;
#90 = ORIENTED_EDGE ( 'NONE', *, *, #66, .T. ) ;
#91 = SECURITY_CLASSIFICATION_LEVEL ( 'unclassified' ) ;
#92 = APPROVAL_ROLE ( '' ) ;
#93 = AXIS2_PLACEMENT_3D ( 'NONE', #79, #4, #62 ) ;
#94 = APPROVAL_DATE_TIME ( #29, #161 ) ;
#95 = DIRECTION ( 'NONE',  ( -3.491481338843133355E-15, 1.224646799147353207E-16, -1.000000000000000000 ) ) ;
#96 = PERSON_AND_ORGANIZATION_ROLE ( 'design_supplier' ) ;
#97 = PERSON_AND_ORGANIZATION ( #44, #134 ) ;
#98 = CALENDAR_DATE ( 2023, 18, 1 ) ;
#99 = AXIS2_PLACEMENT_3D ( 'NONE', #124, #40, #132 ) ;
#100 = CALENDAR_DATE ( 2023, 18, 1 ) ;
#101 =( NAMED_UNIT ( * ) PLANE_ANGLE_UNIT ( ) SI_UNIT ( $, .RADIAN. ) );
#102 = DIRECTION ( 'NONE',  ( -4.275831445896958607E-31, -1.000000000000000000, -1.224646799147353207E-16 ) ) ;
#103 = ADVANCED_FACE ( 'NONE', ( #104 ), #82, .T. ) ;
#104 = FACE_OUTER_BOUND ( 'NONE', #37, .T. ) ;
#105 = AXIS2_PLACEMENT_3D ( 'NONE', #135, #22, #68 ) ;
#106 = ADVANCED_FACE ( 'NONE', ( #50, #87 ), #23, .T. ) ;
#107 = ORIENTED_EDGE ( 'NONE', *, *, #3, .F. ) ;
#108 = ORIENTED_EDGE ( 'NONE', *, *, #156, .T. ) ;
#109 = AXIS2_PLACEMENT_3D ( 'NONE', #25, #85, #152 ) ;
#110 = EDGE_LOOP ( 'NONE', ( #11 ) ) ;
#111 = DATE_AND_TIME ( #75, #60 ) ;
#112 = EDGE_LOOP ( 'NONE', ( #184 ) ) ;
#113 = CALENDAR_DATE ( 2023, 18, 1 ) ;
#114 = DIRECTION ( 'NONE',  ( 4.275831445896957731E-31, 1.000000000000000000, 1.224646799147352961E-16 ) ) ;
#115 = DIRECTION ( 'NONE',  ( -3.491481338843133355E-15, 1.224646799147353207E-16, -1.000000000000000000 ) ) ;
#116 = ADVANCED_FACE ( 'NONE', ( #120 ), #42, .T. ) ;
#117 = CC_DESIGN_APPROVAL ( #168, ( #32 ) ) ;
#118 = CC_DESIGN_PERSON_AND_ORGANIZATION_ASSIGNMENT ( #202, #80, ( #191 ) ) ;
#119 = DIRECTION ( 'NONE',  ( 0.000000000000000000, 1.000000000000000000, 0.000000000000000000 ) ) ;
#120 = FACE_OUTER_BOUND ( 'NONE', #69, .T. ) ;
#121 = EDGE_LOOP ( 'NONE', ( #171 ) ) ;
#122 = MECHANICAL_CONTEXT ( 'NONE', #76, 'mechanical' ) ;
#123 = APPROVAL_ROLE ( '' ) ;
#124 = CARTESIAN_POINT ( 'NONE',  ( 6.293680915741421943E-15, -2.207526101477411847E-16, 1.802581857082693029 ) ) ;
#125 = LOCAL_TIME ( 16, 35, 40.00000000000000000, #157 ) ;
#126 = CARTESIAN_POINT ( 'NONE',  ( 0.000000000000000000, 0.000000000000000000, 0.000000000000000000 ) ) ;
#127 = PERSON_AND_ORGANIZATION ( #44, #134 ) ;
#128 = PERSON_AND_ORGANIZATION ( #44, #134 ) ;
#129 = CARTESIAN_POINT ( 'NONE',  ( 0.000000000000000000, 0.000000000000000000, 0.000000000000000000 ) ) ;
#130 = CLOSED_SHELL ( 'NONE', ( #116, #31, #103 ) ) ;
#131 = CC_DESIGN_PERSON_AND_ORGANIZATION_ASSIGNMENT ( #97, #57, ( #78 ) ) ;
#132 = DIRECTION ( 'NONE',  ( -5.135813185032649669E-31, -1.000000000000000000, -1.445602896647345080E-16 ) ) ;
#133 = APPROVAL_DATE_TIME ( #149, #168 ) ;
#134 = ORGANIZATION ( 'UNSPECIFIED', 'UNSPECIFIED', '' ) ;
#135 = CARTESIAN_POINT ( 'NONE',  ( 0.000000000000000000, 0.000000000000000000, 0.000000000000000000 ) ) ;
#136 = EDGE_CURVE ( 'NONE', #71, #71, #74, .T. ) ;
#137 = PERSON_AND_ORGANIZATION_ROLE ( 'creator' ) ;
#138 = DATE_TIME_ROLE ( 'classification_date' ) ;
#139 = DIRECTION ( 'NONE',  ( 4.275831445896958607E-31, 1.000000000000000000, 1.224646799147353207E-16 ) ) ;
#140 = VERTEX_POINT ( 'NONE', #43 ) ;
#141 = DIRECTION ( 'NONE',  ( 0.000000000000000000, 1.000000000000000000, 0.000000000000000000 ) ) ;
#142 = CIRCLE ( 'NONE', #147, 2.999999999999990230 ) ;
#143 = CYLINDRICAL_SURFACE ( 'NONE', #46, 2.999999999999992895 ) ;
#144 = UNCERTAINTY_MEASURE_WITH_UNIT (LENGTH_MEASURE( 1.000000000000000082E-05 ), #2, 'distance_accuracy_value', 'NONE');
#145 = DIRECTION ( 'NONE',  ( -3.491481338843133355E-15, 1.224646799147353207E-16, -1.000000000000000000 ) ) ;
#146 = APPROVAL_ROLE ( '' ) ;
#147 = AXIS2_PLACEMENT_3D ( 'NONE', #178, #24, #84 ) ;
#148 = MANIFOLD_SOLID_BREP ( 'Corps-Déplacer/Copier1[1]', #203 ) ;
#149 = DATE_AND_TIME ( #100, #67 ) ;
#150 = MANIFOLD_SOLID_BREP ( 'Corps-Déplacer/Copier1[2]', #130 ) ;
#151 = CARTESIAN_POINT ( 'NONE',  ( 2.304377683636468267E-13, -8.082668874372532400E-15, 66.00000000000000000 ) ) ;
#152 = DIRECTION ( 'NONE',  ( 5.135813185032649669E-31, 1.000000000000000000, 1.445602896647345080E-16 ) ) ;
#153 = CARTESIAN_POINT ( 'NONE',  ( 7.332110811570580046E-14, -2.571758278209441661E-15, 21.00000000000000000 ) ) ;
#154 = CARTESIAN_POINT ( 'NONE',  ( 2.304377683636468267E-13, -8.082668874372532400E-15, 66.00000000000000000 ) ) ;
#155 = ORIENTED_EDGE ( 'NONE', *, *, #175, .T. ) ;
#156 = EDGE_CURVE ( 'NONE', #56, #56, #142, .T. ) ;
#157 = COORDINATED_UNIVERSAL_TIME_OFFSET ( 1, 0, .AHEAD. ) ;
#158 = VERTEX_POINT ( 'NONE', #160 ) ;
#159 = DATE_AND_TIME ( #113, #45 ) ;
#160 = CARTESIAN_POINT ( 'NONE',  ( 2.304377683636468267E-13, 2.399999999999987033, 66.00000000000000000 ) ) ;
#161 = APPROVAL ( #55, 'UNSPECIFIED' ) ;
#162 = CIRCLE ( 'NONE', #70, 2.999999999999995115 ) ;
#163 = SECURITY_CLASSIFICATION ( '', '', #91 ) ;
#164 = DIRECTION ( 'NONE',  ( 3.491481338843133355E-15, -1.224646799147353207E-16, 1.000000000000000000 ) ) ;
#165 = AXIS2_PLACEMENT_3D ( 'NONE', #154, #183, #38 ) ;
#166 = CC_DESIGN_PERSON_AND_ORGANIZATION_ASSIGNMENT ( #128, #170, ( #163 ) ) ;
#167 = AXIS2_PLACEMENT_3D ( 'NONE', #129, #95, #114 ) ;
#168 = APPROVAL ( #34, 'UNSPECIFIED' ) ;
#169 = EDGE_LOOP ( 'NONE', ( #90 ) ) ;
#170 = PERSON_AND_ORGANIZATION_ROLE ( 'classification_officer' ) ;
#171 = ORIENTED_EDGE ( 'NONE', *, *, #156, .F. ) ;
#172 = PERSON_AND_ORGANIZATION ( #44, #134 ) ;
#173 = FACE_OUTER_BOUND ( 'NONE', #182, .T. ) ;
#174 = APPROVAL_DATE_TIME ( #159, #181 ) ;
#175 = EDGE_CURVE ( 'NONE', #158, #158, #194, .T. ) ;
#176 =( GEOMETRIC_REPRESENTATION_CONTEXT ( 3 ) GLOBAL_UNCERTAINTY_ASSIGNED_CONTEXT ( ( #144 ) ) GLOBAL_UNIT_ASSIGNED_CONTEXT ( ( #2, #101, #61 ) ) REPRESENTATION_CONTEXT ( 'NONE', 'WORKASPACE' ) );
#177 = CC_DESIGN_APPROVAL ( #161, ( #163 ) ) ;
#178 = CARTESIAN_POINT ( 'NONE',  ( 7.332110811570580046E-14, -2.571758278209441661E-15, 21.00000000000000000 ) ) ;
#179 = PERSON_AND_ORGANIZATION ( #44, #134 ) ;
#180 = CIRCLE ( 'NONE', #109, 2.999999999999988010 ) ;
#181 = APPROVAL ( #185, 'UNSPECIFIED' ) ;
#182 = EDGE_LOOP ( 'NONE', ( #107 ) ) ;
#183 = DIRECTION ( 'NONE',  ( -3.491481338843133355E-15, 1.224646799147353207E-16, -1.000000000000000000 ) ) ;
#184 = ORIENTED_EDGE ( 'NONE', *, *, #136, .T. ) ;
#185 = APPROVAL_STATUS ( 'not_yet_approved' ) ;
#186 = DIRECTION ( 'NONE',  ( 4.275831445896958607E-31, 1.000000000000000000, 1.224646799147352961E-16 ) ) ;
#187 = COORDINATED_UNIVERSAL_TIME_OFFSET ( 1, 0, .AHEAD. ) ;
#188 = CARTESIAN_POINT ( 'NONE',  ( 7.332110811570580046E-14, 2.999999999999987566, 21.00000000000000000 ) ) ;
#189 = CARTESIAN_POINT ( 'NONE',  ( 7.332110811570580046E-14, 2.999999999999987566, 21.00000000000000000 ) ) ;
#190 = COORDINATED_UNIVERSAL_TIME_OFFSET ( 1, 0, .AHEAD. ) ;
#191 = PRODUCT ( '54601', '54601', '', ( #122 ) ) ;
#192 = PERSON_AND_ORGANIZATION ( #44, #134 ) ;
#193 = ADVANCED_FACE ( 'NONE', ( #49, #54 ), #143, .T. ) ;
#194 = CIRCLE ( 'NONE', #53, 2.399999999999995470 ) ;
#195 = CARTESIAN_POINT ( 'NONE',  ( 7.332110811570580046E-14, 2.249639673992774917E-32, 21.00000000000000000 ) ) ;
#196 = DATE_TIME_ROLE ( 'creation_date' ) ;
#197 = CC_DESIGN_APPROVAL ( #181, ( #78 ) ) ;
#198 = CC_DESIGN_DATE_AND_TIME_ASSIGNMENT ( #12, #138, ( #163 ) ) ;
#199 = EDGE_LOOP ( 'NONE', ( #155 ) ) ;
#200 = EDGE_LOOP ( 'NONE', ( #108 ) ) ;
#201 = COORDINATED_UNIVERSAL_TIME_OFFSET ( 1, 0, .AHEAD. ) ;
#202 = PERSON_AND_ORGANIZATION ( #44, #134 ) ;
#203 = CLOSED_SHELL ( 'NONE', ( #86, #193, #106, #27 ) ) ;
ENDSEC;
END-ISO-10303-21;
