ISO-10303-21;
HEADER;
FILE_DESCRIPTION (( 'STEP AP203' ),
    '1' );
FILE_NAME ('54600.step',
    '2021-09-03T07:52:24',
    ( '' ),
    ( '' ),
    'SwSTEP 2.0',
    'SolidWorks 2019',
    '' );
FILE_SCHEMA (( 'CONFIG_CONTROL_DESIGN' ));
ENDSEC;

DATA;
#1 = ORIENTED_EDGE ( 'NONE', *, *, #271, .T. ) ;
#2 = ADVANCED_FACE ( 'NONE', ( #178 ), #278, .T. ) ;
#3 = VERTEX_POINT ( 'NONE', #234 ) ;
#4 = DATE_AND_TIME ( #223, #194 ) ;
#5 = VECTOR ( 'NONE', #225, 1000.000000000000000 ) ;
#6 = DIRECTION ( 'NONE',  ( 4.275831445896958607E-31, 1.000000000000000000, 1.224646799147353207E-16 ) ) ;
#7 = DIRECTION ( 'NONE',  ( -3.491481338843133355E-15, 1.224646799147353207E-16, -1.000000000000000000 ) ) ;
#8 = DIRECTION ( 'NONE',  ( -2.468850131082272838E-15, 0.7071067811865453523, -0.7071067811865496822 ) ) ;
#9 = CARTESIAN_POINT ( 'NONE',  ( 2.283428795603408836E-13, -8.009190066423689102E-15, 65.40000000000000568 ) ) ;
#10 = AXIS2_PLACEMENT_3D ( 'NONE', #56, #82, #293 ) ;
#11 = FACE_OUTER_BOUND ( 'NONE', #78, .T. ) ;
#12 = CARTESIAN_POINT ( 'NONE',  ( 2.283428795603408836E-13, 2.949999999999992628, 65.40000000000000568 ) ) ;
#13 = FACE_OUTER_BOUND ( 'NONE', #250, .T. ) ;
#14 = AXIS2_PLACEMENT_3D ( 'NONE', #154, #71, #27 ) ;
#15 =( NAMED_UNIT ( * ) SI_UNIT ( $, .STERADIAN. ) SOLID_ANGLE_UNIT ( ) );
#16 = ORIENTED_EDGE ( 'NONE', *, *, #161, .T. ) ;
#17 = VECTOR ( 'NONE', #203, 1000.000000000000114 ) ;
#18 = CYLINDRICAL_SURFACE ( 'NONE', #40, 2.949999999999994404 ) ;
#19 = EDGE_LOOP ( 'NONE', ( #75, #236, #76, #282 ) ) ;
#20 = DATE_AND_TIME ( #77, #275 ) ;
#21 = EDGE_LOOP ( 'NONE', ( #151, #1, #16, #46 ) ) ;
#22 = DIRECTION ( 'NONE',  ( -3.491481338843133355E-15, 1.224646799147353207E-16, -1.000000000000000000 ) ) ;
#23 = COORDINATED_UNIVERSAL_TIME_OFFSET ( 1, 0, .AHEAD. ) ;
#24 = ORIENTED_EDGE ( 'NONE', *, *, #198, .T. ) ;
#25 = EDGE_LOOP ( 'NONE', ( #213, #209 ) ) ;
#26 = PERSON_AND_ORGANIZATION_ROLE ( 'design_supplier' ) ;
#27 = DIRECTION ( 'NONE',  ( 0.0000000000000000000, 1.000000000000000000, 0.0000000000000000000 ) ) ;
#28 = VECTOR ( 'NONE', #288, 1000.000000000000000 ) ;
#29 = AXIS2_PLACEMENT_3D ( 'NONE', #119, #301, #90 ) ;
#30 = CARTESIAN_POINT ( 'NONE',  ( 7.332110811570580046E-14, -2.571758278209441661E-15, 21.00000000000000000 ) ) ;
#31 = APPROVAL ( #61, 'UNSPECIFIED' ) ;
#32 = FACE_OUTER_BOUND ( 'NONE', #64, .T. ) ;
#33 = LINE ( 'NONE', #186, #123 ) ;
#34 = DIRECTION ( 'NONE',  ( 0.0000000000000000000, 1.000000000000000000, 0.0000000000000000000 ) ) ;
#35 = AXIS2_PLACEMENT_3D ( 'NONE', #229, #132, #6 ) ;
#36 = EDGE_CURVE ( 'NONE', #129, #296, #156, .T. ) ;
#37 = FACE_OUTER_BOUND ( 'NONE', #185, .T. ) ;
#38 = CARTESIAN_POINT ( 'NONE',  ( 3.612708057484672375E-16, -2.949999999999994404, -3.612708057484697027E-16 ) ) ;
#39 = CYLINDRICAL_SURFACE ( 'NONE', #127, 2.949999999999997957 ) ;
#40 = AXIS2_PLACEMENT_3D ( 'NONE', #62, #167, #272 ) ;
#41 = PRODUCT_DEFINITION_FORMATION_WITH_SPECIFIED_SOURCE ( 'ANY', '', #191, .NOT_KNOWN. ) ;
#42 = EDGE_CURVE ( 'NONE', #102, #148, #200, .T. ) ;
#43 = CARTESIAN_POINT ( 'NONE',  ( 2.307255603614464328E-13, -2.350000000000009415, 66.00000000000000000 ) ) ;
#44 = ORIENTED_EDGE ( 'NONE', *, *, #89, .F. ) ;
#45 = AXIS2_PLACEMENT_3D ( 'NONE', #241, #319, #34 ) ;
#46 = ORIENTED_EDGE ( 'NONE', *, *, #106, .F. ) ;
#47 = FACE_OUTER_BOUND ( 'NONE', #21, .T. ) ;
#48 = EDGE_CURVE ( 'NONE', #273, #3, #211, .T. ) ;
#49 = DIRECTION ( 'NONE',  ( 1.903218546456021928E-15, 0.8571673007021098911, 0.5150380749100583744 ) ) ;
#50 = SECURITY_CLASSIFICATION_LEVEL ( 'unclassified' ) ;
#51 = ORIENTED_EDGE ( 'NONE', *, *, #67, .F. ) ;
#52 = DIRECTION ( 'NONE',  ( 3.491481338843133355E-15, -1.224646799147353207E-16, 1.000000000000000000 ) ) ;
#53 = DIRECTION ( 'NONE',  ( -3.491481338843133355E-15, 1.224646799147353207E-16, -1.000000000000000000 ) ) ;
#54 = AXIS2_PLACEMENT_3D ( 'NONE', #91, #63, #168 ) ;
#55 = PLANE ( 'NONE',  #117 ) ;
#56 = CARTESIAN_POINT ( 'NONE',  ( 2.304377683636468267E-13, -8.082668874372532400E-15, 66.00000000000000000 ) ) ;
#57 = FACE_OUTER_BOUND ( 'NONE', #252, .T. ) ;
#58 = ADVANCED_FACE ( 'NONE', ( #47 ), #128, .T. ) ;
#59 = DIRECTION ( 'NONE',  ( -3.491481338843133355E-15, 1.224646799147353207E-16, -1.000000000000000000 ) ) ;
#60 = CARTESIAN_POINT ( 'NONE',  ( 0.0000000000000000000, 0.0000000000000000000, 0.0000000000000000000 ) ) ;
#61 = APPROVAL_STATUS ( 'not_yet_approved' ) ;
#62 = CARTESIAN_POINT ( 'NONE',  ( 0.0000000000000000000, 0.0000000000000000000, 0.0000000000000000000 ) ) ;
#63 = DIRECTION ( 'NONE',  ( -3.491481338843133355E-15, 1.224646799147353207E-16, -1.000000000000000000 ) ) ;
#64 = EDGE_LOOP ( 'NONE', ( #206, #208 ) ) ;
#65 = APPROVAL_DATE_TIME ( #202, #31 ) ;
#66 = ORIENTED_EDGE ( 'NONE', *, *, #300, .F. ) ;
#67 = EDGE_CURVE ( 'NONE', #148, #102, #122, .T. ) ;
#68 = PERSON_AND_ORGANIZATION ( #113, #201 ) ;
#69 = AXIS2_PLACEMENT_3D ( 'NONE', #232, #52, #279 ) ;
#70 = APPROVAL_STATUS ( 'not_yet_approved' ) ;
#71 = DIRECTION ( 'NONE',  ( -3.491481338843133355E-15, 1.224646799147353207E-16, -1.000000000000000000 ) ) ;
#72 = ORIENTED_EDGE ( 'NONE', *, *, #294, .T. ) ;
#73 = EDGE_CURVE ( 'NONE', #104, #248, #337, .T. ) ;
#74 = DATE_TIME_ROLE ( 'classification_date' ) ;
#75 = ORIENTED_EDGE ( 'NONE', *, *, #42, .T. ) ;
#76 = ORIENTED_EDGE ( 'NONE', *, *, #219, .F. ) ;
#77 = CALENDAR_DATE ( 2021, 3, 9 ) ;
#78 = EDGE_LOOP ( 'NONE', ( #145, #253, #72 ) ) ;
#79 = CARTESIAN_POINT ( 'NONE',  ( 7.332110811570580046E-14, 2.212145679426232582E-32, 21.00000000000000000 ) ) ;
#80 = CIRCLE ( 'NONE', #251, 2.949999999999995293 ) ;
#81 = LOCAL_TIME ( 9, 52, 24.00000000000000000, #121 ) ;
#82 = DIRECTION ( 'NONE',  ( -3.491481338843133355E-15, 1.224646799147353207E-16, -1.000000000000000000 ) ) ;
#83 = FACE_OUTER_BOUND ( 'NONE', #19, .T. ) ;
#84 = APPROVAL ( #212, 'UNSPECIFIED' ) ;
#85 = DIRECTION ( 'NONE',  ( -5.222860866134888810E-31, -1.000000000000000000, -1.470104640658314452E-16 ) ) ;
#86 = CARTESIAN_POINT ( 'NONE',  ( 2.304377683636468267E-13, 1.762217744627671194E-32, 66.00000000000000000 ) ) ;
#87 = AXIS2_PLACEMENT_3D ( 'NONE', #160, #214, #289 ) ;
#88 = UNCERTAINTY_MEASURE_WITH_UNIT (LENGTH_MEASURE( 1.000000000000000082E-05 ), #224, 'distance_accuracy_value', 'NONE');
#89 = EDGE_CURVE ( 'NONE', #3, #270, #262, .T. ) ;
#90 = DIRECTION ( 'NONE',  ( 1.000000000000000000, 0.0000000000000000000, 0.0000000000000000000 ) ) ;
#91 = CARTESIAN_POINT ( 'NONE',  ( 7.332110811570580046E-14, -2.571758278209441661E-15, 21.00000000000000000 ) ) ;
#92 = ADVANCED_FACE ( 'NONE', ( #32 ), #55, .F. ) ;
#93 = CALENDAR_DATE ( 2021, 3, 9 ) ;
#94 = CARTESIAN_POINT ( 'NONE',  ( 0.0000000000000000000, 0.0000000000000000000, 0.0000000000000000000 ) ) ;
#95 = APPROVAL ( #70, 'UNSPECIFIED' ) ;
#96 = PERSON_AND_ORGANIZATION_ROLE ( 'creator' ) ;
#97 = ORIENTED_EDGE ( 'NONE', *, *, #67, .T. ) ;
#98 = VECTOR ( 'NONE', #59, 1000.000000000000000 ) ;
#99 = COORDINATED_UNIVERSAL_TIME_OFFSET ( 1, 0, .AHEAD. ) ;
#100 = CARTESIAN_POINT ( 'NONE',  ( 6.550057039560878528E-15, 2.949999999999992628, 1.772538826131318190 ) ) ;
#101 = EDGE_CURVE ( 'NONE', #3, #273, #80, .T. ) ;
#102 = VERTEX_POINT ( 'NONE', #112 ) ;
#103 = MANIFOLD_SOLID_BREP ( 'Corps-Déplacer/Copier1[2]', #292 ) ;
#104 = VERTEX_POINT ( 'NONE', #215 ) ;
#105 = APPROVAL_DATE_TIME ( #207, #95 ) ;
#106 = EDGE_CURVE ( 'NONE', #296, #307, #242, .T. ) ;
#107 = CARTESIAN_POINT ( 'NONE',  ( 2.304377683636468267E-13, -8.082668874372532400E-15, 66.00000000000000000 ) ) ;
#108 = PLANE ( 'NONE',  #335 ) ;
#109 = DIRECTION ( 'NONE',  ( 0.0000000000000000000, 1.000000000000000000, 0.0000000000000000000 ) ) ;
#110 = ADVANCED_FACE ( 'NONE', ( #83 ), #264, .T. ) ;
#111 = CIRCLE ( 'NONE', #312, 2.949999999999993072 ) ;
#112 = CARTESIAN_POINT ( 'NONE',  ( 2.304377683636468267E-13, 2.349999999999992539, 66.00000000000000000 ) ) ;
#113 = PERSON ( 'UNSPECIFIED', 'UNSPECIFIED', 'UNSPECIFIED', ('UNSPECIFIED'), ('UNSPECIFIED'), ('UNSPECIFIED') ) ;
#114 = CARTESIAN_POINT ( 'NONE',  ( 6.188786233812409367E-15, -2.170733999786125257E-16, 1.772538826131317746 ) ) ;
#115 = DIRECTION ( 'NONE',  ( -3.491481338843133355E-15, 1.224646799147353207E-16, -1.000000000000000000 ) ) ;
#116 = APPLICATION_PROTOCOL_DEFINITION ( 'international standard', 'config_control_design', 1994, #329 ) ;
#117 = AXIS2_PLACEMENT_3D ( 'NONE', #79, #318, #140 ) ;
#118 = DIRECTION ( 'NONE',  ( -3.491481338843133355E-15, 1.224646799147353207E-16, -1.000000000000000000 ) ) ;
#119 = CARTESIAN_POINT ( 'NONE',  ( 0.0000000000000000000, 0.0000000000000000000, 0.0000000000000000000 ) ) ;
#120 = ADVANCED_FACE ( 'NONE', ( #325 ), #108, .F. ) ;
#121 = COORDINATED_UNIVERSAL_TIME_OFFSET ( 1, 0, .AHEAD. ) ;
#122 = CIRCLE ( 'NONE', #180, 2.350000000000000977 ) ;
#123 = VECTOR ( 'NONE', #8, 1000.000000000000000 ) ;
#124 = APPROVAL_ROLE ( '' ) ;
#125 = ORIENTED_EDGE ( 'NONE', *, *, #165, .T. ) ;
#126 = CC_DESIGN_DATE_AND_TIME_ASSIGNMENT ( #4, #230, ( #267 ) ) ;
#127 = AXIS2_PLACEMENT_3D ( 'NONE', #94, #297, #295 ) ;
#128 = CYLINDRICAL_SURFACE ( 'NONE', #35, 2.949999999999997957 ) ;
#129 = VERTEX_POINT ( 'NONE', #221 ) ;
#130 = ADVANCED_FACE ( 'NONE', ( #37 ), #304, .T. ) ;
#131 = PERSON_AND_ORGANIZATION ( #113, #201 ) ;
#132 = DIRECTION ( 'NONE',  ( -3.491481338843133355E-15, 1.224646799147353207E-16, -1.000000000000000000 ) ) ;
#133 = VECTOR ( 'NONE', #323, 1000.000000000000000 ) ;
#134 = PRODUCT_RELATED_PRODUCT_CATEGORY ( 'detail', '', ( #191 ) ) ;
#135 = ORIENTED_EDGE ( 'NONE', *, *, #219, .T. ) ;
#136 = DIRECTION ( 'NONE',  ( 4.275831445896958607E-31, 1.000000000000000000, 1.224646799147353207E-16 ) ) ;
#137 = DIRECTION ( 'NONE',  ( 4.275831445896958607E-31, 1.000000000000000000, 1.224646799147353207E-16 ) ) ;
#138 = AXIS2_PLACEMENT_3D ( 'NONE', #30, #7, #177 ) ;
#139 = DIRECTION ( 'NONE',  ( -3.491481338843133355E-15, 1.224646799147353207E-16, -1.000000000000000000 ) ) ;
#140 = DIRECTION ( 'NONE',  ( -4.275831445896958607E-31, -1.000000000000000000, -1.224646799147353207E-16 ) ) ;
#141 = CARTESIAN_POINT ( 'NONE',  ( 7.332110811570580046E-14, -2.571758278209441661E-15, 21.00000000000000000 ) ) ;
#142 = CARTESIAN_POINT ( 'NONE',  ( 1.511932646437717678E-13, -2.949999999999997957, 21.00000000000000000 ) ) ;
#143 = CIRCLE ( 'NONE', #327, 2.949999999999993072 ) ;
#144 = LOCAL_TIME ( 9, 52, 24.00000000000000000, #99 ) ;
#145 = ORIENTED_EDGE ( 'NONE', *, *, #73, .F. ) ;
#146 = PERSON_AND_ORGANIZATION_ROLE ( 'creator' ) ;
#147 = CONICAL_SURFACE ( 'NONE', #193, 2.949999999999993072, 1.029744258676649871 ) ;
#148 = VERTEX_POINT ( 'NONE', #266 ) ;
#149 = CARTESIAN_POINT ( 'NONE',  ( 6.188786233812407790E-15, -2.949999999999993516, 1.772538826131317302 ) ) ;
#150 = COORDINATED_UNIVERSAL_TIME_OFFSET ( 1, 0, .AHEAD. ) ;
#151 = ORIENTED_EDGE ( 'NONE', *, *, #36, .F. ) ;
#152 = ORIENTED_EDGE ( 'NONE', *, *, #271, .F. ) ;
#153 = AXIS2_PLACEMENT_3D ( 'NONE', #163, #139, #239 ) ;
#154 = CARTESIAN_POINT ( 'NONE',  ( 2.304377683636468267E-13, -8.082668874372532400E-15, 66.00000000000000000 ) ) ;
#155 = ADVANCED_FACE ( 'NONE', ( #195 ), #260, .T. ) ;
#156 = LINE ( 'NONE', #316, #257 ) ;
#157 = DIRECTION ( 'NONE',  ( 0.0000000000000000000, 1.000000000000000000, 0.0000000000000000000 ) ) ;
#158 = AXIS2_PLACEMENT_3D ( 'NONE', #9, #220, #109 ) ;
#159 = APPROVAL_PERSON_ORGANIZATION ( #131, #95, #333 ) ;
#160 = CARTESIAN_POINT ( 'NONE',  ( 6.188786233812409367E-15, -2.170733999786125257E-16, 1.772538826131317746 ) ) ;
#161 = EDGE_CURVE ( 'NONE', #255, #307, #162, .T. ) ;
#162 = LINE ( 'NONE', #290, #98 ) ;
#163 = CARTESIAN_POINT ( 'NONE',  ( 2.304377683636468267E-13, -8.082668874372532400E-15, 66.00000000000000000 ) ) ;
#164 = CARTESIAN_POINT ( 'NONE',  ( 6.188786233812409367E-15, -2.170733999786125257E-16, 1.772538826131317746 ) ) ;
#165 = EDGE_CURVE ( 'NONE', #248, #270, #111, .T. ) ;
#166 = DIRECTION ( 'NONE',  ( -3.491481338843133355E-15, 1.224646799147353207E-16, -1.000000000000000000 ) ) ;
#167 = DIRECTION ( 'NONE',  ( -3.491481338843133355E-15, 1.224646799147353207E-16, -1.000000000000000000 ) ) ;
#168 = DIRECTION ( 'NONE',  ( 0.0000000000000000000, 1.000000000000000000, 0.0000000000000000000 ) ) ;
#169 = AXIS2_PLACEMENT_3D ( 'NONE', #265, #115, #197 ) ;
#170 = DIRECTION ( 'NONE',  ( 5.222860866134888810E-31, 1.000000000000000000, 1.470104640658314452E-16 ) ) ;
#171 = ORIENTED_EDGE ( 'NONE', *, *, #165, .F. ) ;
#172 = PERSON_AND_ORGANIZATION ( #113, #201 ) ;
#173 = ORIENTED_EDGE ( 'NONE', *, *, #42, .F. ) ;
#174 = PERSON_AND_ORGANIZATION_ROLE ( 'design_owner' ) ;
#175 = CIRCLE ( 'NONE', #54, 2.949999999999995293 ) ;
#176 = PERSON_AND_ORGANIZATION ( #113, #201 ) ;
#177 = DIRECTION ( 'NONE',  ( 0.0000000000000000000, 1.000000000000000000, 0.0000000000000000000 ) ) ;
#178 = FACE_OUTER_BOUND ( 'NONE', #25, .T. ) ;
#179 = ORIENTED_EDGE ( 'NONE', *, *, #204, .T. ) ;
#180 = AXIS2_PLACEMENT_3D ( 'NONE', #107, #22, #157 ) ;
#181 = LOCAL_TIME ( 9, 52, 24.00000000000000000, #23 ) ;
#182 = APPLICATION_CONTEXT ( 'configuration controlled 3d designs of mechanical parts and assemblies' ) ;
#183 = ORIENTED_EDGE ( 'NONE', *, *, #89, .T. ) ;
#184 = APPROVAL_DATE_TIME ( #20, #84 ) ;
#185 = EDGE_LOOP ( 'NONE', ( #66, #309, #125 ) ) ;
#186 = CARTESIAN_POINT ( 'NONE',  ( 2.304377683636468267E-13, 2.349999999999992539, 66.00000000000000000 ) ) ;
#187 = DIRECTION ( 'NONE',  ( -3.491481338843133355E-15, 1.224646799147353207E-16, -1.000000000000000000 ) ) ;
#188 = PRODUCT_DEFINITION_SHAPE ( 'NONE', 'NONE',  #267 ) ;
#189 = ADVANCED_BREP_SHAPE_REPRESENTATION ( '54600', ( #222, #103, #29 ), #299 ) ;
#190 = DIRECTION ( 'NONE',  ( 0.0000000000000000000, 1.000000000000000000, 0.0000000000000000000 ) ) ;
#191 = PRODUCT ( '54600', '54600', '', ( #269 ) ) ;
#192 = CARTESIAN_POINT ( 'NONE',  ( 6.550057039560878528E-15, 2.949999999999992628, 1.772538826131318190 ) ) ;
#193 = AXIS2_PLACEMENT_3D ( 'NONE', #114, #324, #85 ) ;
#194 = LOCAL_TIME ( 9, 52, 24.00000000000000000, #332 ) ;
#195 = FACE_OUTER_BOUND ( 'NONE', #283, .T. ) ;
#196 = CARTESIAN_POINT ( 'NONE',  ( 7.332110811570580046E-14, 2.949999999999992628, 21.00000000000000000 ) ) ;
#197 = DIRECTION ( 'NONE',  ( 0.0000000000000000000, 1.000000000000000000, 0.0000000000000000000 ) ) ;
#198 = EDGE_CURVE ( 'NONE', #102, #255, #33, .T. ) ;
#199 = LINE ( 'NONE', #149, #5 ) ;
#200 = CIRCLE ( 'NONE', #14, 2.350000000000000977 ) ;
#201 = ORGANIZATION ( 'UNSPECIFIED', 'UNSPECIFIED', '' ) ;
#202 = DATE_AND_TIME ( #93, #81 ) ;
#203 = DIRECTION ( 'NONE',  ( -2.382254525458724175E-15, -0.7071067811865451302, -0.7071067811865499042 ) ) ;
#204 = EDGE_CURVE ( 'NONE', #273, #248, #237, .T. ) ;
#205 = CONICAL_SURFACE ( 'NONE', #153, 2.350000000000000977, 0.7853981633974450594 ) ;
#206 = ORIENTED_EDGE ( 'NONE', *, *, #311, .T. ) ;
#207 = DATE_AND_TIME ( #254, #181 ) ;
#208 = ORIENTED_EDGE ( 'NONE', *, *, #106, .T. ) ;
#209 = ORIENTED_EDGE ( 'NONE', *, *, #101, .F. ) ;
#210 = ORIENTED_EDGE ( 'NONE', *, *, #311, .F. ) ;
#211 = CIRCLE ( 'NONE', #138, 2.949999999999995293 ) ;
#212 = APPROVAL_STATUS ( 'not_yet_approved' ) ;
#213 = ORIENTED_EDGE ( 'NONE', *, *, #48, .F. ) ;
#214 = DIRECTION ( 'NONE',  ( 3.491481338843133355E-15, -1.224646799147353207E-16, 1.000000000000000000 ) ) ;
#215 = CARTESIAN_POINT ( 'NONE',  ( 0.0000000000000000000, 0.0000000000000000000, 0.0000000000000000000 ) ) ;
#216 = CLOSED_SHELL ( 'NONE', ( #110, #334, #92, #58, #235, #120 ) ) ;
#217 = APPROVAL_PERSON_ORGANIZATION ( #249, #84, #315 ) ;
#218 = DIRECTION ( 'NONE',  ( -3.491481338843133355E-15, 1.224646799147353207E-16, -1.000000000000000000 ) ) ;
#219 = EDGE_CURVE ( 'NONE', #255, #129, #281, .T. ) ;
#220 = DIRECTION ( 'NONE',  ( -3.491481338843133355E-15, 1.224646799147353207E-16, -1.000000000000000000 ) ) ;
#221 = CARTESIAN_POINT ( 'NONE',  ( 1.511932646437716668E-13, -2.950000000000008171, 65.40000000000000568 ) ) ;
#222 = MANIFOLD_SOLID_BREP ( 'Corps-Déplacer/Copier1[1]', #216 ) ;
#223 = CALENDAR_DATE ( 2021, 3, 9 ) ;
#224 =( LENGTH_UNIT ( ) NAMED_UNIT ( * ) SI_UNIT ( .MILLI., .METRE. ) );
#225 = DIRECTION ( 'NONE',  ( 1.798245827342159528E-15, -0.8571673007021100021, 0.5150380749100580413 ) ) ;
#226 =( NAMED_UNIT ( * ) PLANE_ANGLE_UNIT ( ) SI_UNIT ( $, .RADIAN. ) );
#227 = VECTOR ( 'NONE', #49, 1000.000000000000114 ) ;
#228 = PERSON_AND_ORGANIZATION ( #113, #201 ) ;
#229 = CARTESIAN_POINT ( 'NONE',  ( 0.0000000000000000000, 0.0000000000000000000, 0.0000000000000000000 ) ) ;
#230 = DATE_TIME_ROLE ( 'creation_date' ) ;
#231 = ORIENTED_EDGE ( 'NONE', *, *, #322, .F. ) ;
#232 = CARTESIAN_POINT ( 'NONE',  ( 7.332110811570580046E-14, 2.212145679426232582E-32, 21.00000000000000000 ) ) ;
#233 = PERSON_AND_ORGANIZATION_ROLE ( 'classification_officer' ) ;
#234 = CARTESIAN_POINT ( 'NONE',  ( 4.011621798050754646E-14, -2.949999999999998401, 21.00000000000000000 ) ) ;
#235 = ADVANCED_FACE ( 'NONE', ( #57 ), #205, .T. ) ;
#236 = ORIENTED_EDGE ( 'NONE', *, *, #322, .T. ) ;
#237 = LINE ( 'NONE', #238, #28 ) ;
#238 = CARTESIAN_POINT ( 'NONE',  ( 1.261370276539600415E-30, 2.949999999999994404, 3.612708057484685194E-16 ) ) ;
#239 = DIRECTION ( 'NONE',  ( 0.0000000000000000000, 1.000000000000000000, 0.0000000000000000000 ) ) ;
#240 = DIRECTION ( 'NONE',  ( -3.491481338843133355E-15, 1.224646799147353207E-16, -1.000000000000000000 ) ) ;
#241 = CARTESIAN_POINT ( 'NONE',  ( 7.332110811570580046E-14, -2.571758278209441661E-15, 21.00000000000000000 ) ) ;
#242 = CIRCLE ( 'NONE', #45, 2.949999999999995293 ) ;
#243 = CC_DESIGN_PERSON_AND_ORGANIZATION_ASSIGNMENT ( #172, #146, ( #267 ) ) ;
#244 = APPLICATION_PROTOCOL_DEFINITION ( 'international standard', 'config_control_design', 1994, #182 ) ;
#245 = ORIENTED_EDGE ( 'NONE', *, *, #161, .F. ) ;
#246 = ADVANCED_FACE ( 'NONE', ( #11 ), #147, .T. ) ;
#247 = EDGE_LOOP ( 'NONE', ( #173, #51 ) ) ;
#248 = VERTEX_POINT ( 'NONE', #192 ) ;
#249 = PERSON_AND_ORGANIZATION ( #113, #201 ) ;
#250 = EDGE_LOOP ( 'NONE', ( #135, #256, #210, #245 ) ) ;
#251 = AXIS2_PLACEMENT_3D ( 'NONE', #141, #218, #190 ) ;
#252 = EDGE_LOOP ( 'NONE', ( #231, #97, #24, #152 ) ) ;
#253 = ORIENTED_EDGE ( 'NONE', *, *, #300, .T. ) ;
#254 = CALENDAR_DATE ( 2021, 3, 9 ) ;
#255 = VERTEX_POINT ( 'NONE', #12 ) ;
#256 = ORIENTED_EDGE ( 'NONE', *, *, #36, .T. ) ;
#257 = VECTOR ( 'NONE', #53, 1000.000000000000000 ) ;
#258 = CC_DESIGN_APPROVAL ( #84, ( #321 ) ) ;
#259 = CC_DESIGN_PERSON_AND_ORGANIZATION_ASSIGNMENT ( #280, #96, ( #41 ) ) ;
#260 = CYLINDRICAL_SURFACE ( 'NONE', #320, 2.949999999999994404 ) ;
#261 = DIRECTION ( 'NONE',  ( 5.222860866134888810E-31, 1.000000000000000000, 1.470104640658314452E-16 ) ) ;
#262 = LINE ( 'NONE', #38, #133 ) ;
#263 = CC_DESIGN_PERSON_AND_ORGANIZATION_ASSIGNMENT ( #176, #26, ( #41 ) ) ;
#264 = CONICAL_SURFACE ( 'NONE', #10, 2.350000000000000977, 0.7853981633974450594 ) ;
#265 = CARTESIAN_POINT ( 'NONE',  ( 2.283428795603408836E-13, -8.009190066423689102E-15, 65.40000000000000568 ) ) ;
#266 = CARTESIAN_POINT ( 'NONE',  ( 2.297148553637678742E-13, -2.350000000000009415, 66.00000000000000000 ) ) ;
#267 = PRODUCT_DEFINITION ( 'UNKNOWN', '', #41, #298 ) ;
#268 = LINE ( 'NONE', #43, #17 ) ;
#269 = MECHANICAL_CONTEXT ( 'NONE', #182, 'mechanical' ) ;
#270 = VERTEX_POINT ( 'NONE', #291 ) ;
#271 = EDGE_CURVE ( 'NONE', #129, #255, #310, .T. ) ;
#272 = DIRECTION ( 'NONE',  ( 4.275831445896958607E-31, 1.000000000000000000, 1.224646799147353207E-16 ) ) ;
#273 = VERTEX_POINT ( 'NONE', #302 ) ;
#274 = CARTESIAN_POINT ( 'NONE',  ( 6.188786233812409367E-15, -2.170733999786125257E-16, 1.772538826131317746 ) ) ;
#275 = LOCAL_TIME ( 9, 52, 24.00000000000000000, #150 ) ;
#276 = EDGE_LOOP ( 'NONE', ( #44, #313, #179, #303 ) ) ;
#277 = CALENDAR_DATE ( 2021, 3, 9 ) ;
#278 = PLANE ( 'NONE',  #69 ) ;
#279 = DIRECTION ( 'NONE',  ( -4.275831445896958607E-31, -1.000000000000000000, -1.224646799147353207E-16 ) ) ;
#280 = PERSON_AND_ORGANIZATION ( #113, #201 ) ;
#281 = CIRCLE ( 'NONE', #158, 2.950000000000000178 ) ;
#282 = ORIENTED_EDGE ( 'NONE', *, *, #198, .F. ) ;
#283 = EDGE_LOOP ( 'NONE', ( #286, #183, #171, #306 ) ) ;
#284 = CC_DESIGN_PERSON_AND_ORGANIZATION_ASSIGNMENT ( #68, #174, ( #191 ) ) ;
#285 = SHAPE_DEFINITION_REPRESENTATION ( #188, #189 ) ;
#286 = ORIENTED_EDGE ( 'NONE', *, *, #48, .T. ) ;
#287 = CC_DESIGN_DATE_AND_TIME_ASSIGNMENT ( #308, #74, ( #321 ) ) ;
#288 = DIRECTION ( 'NONE',  ( -3.491481338843133355E-15, 1.224646799147353207E-16, -1.000000000000000000 ) ) ;
#289 = DIRECTION ( 'NONE',  ( -5.222860866134888810E-31, -1.000000000000000000, -1.470104640658314452E-16 ) ) ;
#290 = CARTESIAN_POINT ( 'NONE',  ( 1.261370276539601992E-30, 2.949999999999997957, 3.612708057484689632E-16 ) ) ;
#291 = CARTESIAN_POINT ( 'NONE',  ( 6.188786233812407790E-15, -2.949999999999993516, 1.772538826131317302 ) ) ;
#292 = CLOSED_SHELL ( 'NONE', ( #155, #130, #246, #326, #2 ) ) ;
#293 = DIRECTION ( 'NONE',  ( 0.0000000000000000000, 1.000000000000000000, 0.0000000000000000000 ) ) ;
#294 = EDGE_CURVE ( 'NONE', #270, #248, #143, .T. ) ;
#295 = DIRECTION ( 'NONE',  ( 4.275831445896958607E-31, 1.000000000000000000, 1.224646799147353207E-16 ) ) ;
#296 = VERTEX_POINT ( 'NONE', #142 ) ;
#297 = DIRECTION ( 'NONE',  ( -3.491481338843133355E-15, 1.224646799147353207E-16, -1.000000000000000000 ) ) ;
#298 = DESIGN_CONTEXT ( 'detailed design', #329, 'design' ) ;
#299 =( GEOMETRIC_REPRESENTATION_CONTEXT ( 3 ) GLOBAL_UNCERTAINTY_ASSIGNED_CONTEXT ( ( #88 ) ) GLOBAL_UNIT_ASSIGNED_CONTEXT ( ( #224, #226, #15 ) ) REPRESENTATION_CONTEXT ( 'NONE', 'WORKASPACE' ) );
#300 = EDGE_CURVE ( 'NONE', #104, #270, #199, .T. ) ;
#301 = DIRECTION ( 'NONE',  ( 0.0000000000000000000, 0.0000000000000000000, 1.000000000000000000 ) ) ;
#302 = CARTESIAN_POINT ( 'NONE',  ( 7.332110811570580046E-14, 2.949999999999992628, 21.00000000000000000 ) ) ;
#303 = ORIENTED_EDGE ( 'NONE', *, *, #294, .F. ) ;
#304 = CONICAL_SURFACE ( 'NONE', #87, 2.949999999999993072, 1.029744258676649871 ) ;
#305 = CC_DESIGN_APPROVAL ( #95, ( #41 ) ) ;
#306 = ORIENTED_EDGE ( 'NONE', *, *, #204, .F. ) ;
#307 = VERTEX_POINT ( 'NONE', #196 ) ;
#308 = DATE_AND_TIME ( #277, #144 ) ;
#309 = ORIENTED_EDGE ( 'NONE', *, *, #73, .T. ) ;
#310 = CIRCLE ( 'NONE', #169, 2.950000000000000178 ) ;
#311 = EDGE_CURVE ( 'NONE', #307, #296, #175, .T. ) ;
#312 = AXIS2_PLACEMENT_3D ( 'NONE', #164, #166, #261 ) ;
#313 = ORIENTED_EDGE ( 'NONE', *, *, #101, .T. ) ;
#314 = CC_DESIGN_SECURITY_CLASSIFICATION ( #321, ( #41 ) ) ;
#315 = APPROVAL_ROLE ( '' ) ;
#316 = CARTESIAN_POINT ( 'NONE',  ( 3.612708057484676813E-16, -2.949999999999997957, -3.612708057484701464E-16 ) ) ;
#317 = CC_DESIGN_PERSON_AND_ORGANIZATION_ASSIGNMENT ( #228, #233, ( #321 ) ) ;
#318 = DIRECTION ( 'NONE',  ( 3.491481338843133355E-15, -1.224646799147353207E-16, 1.000000000000000000 ) ) ;
#319 = DIRECTION ( 'NONE',  ( -3.491481338843133355E-15, 1.224646799147353207E-16, -1.000000000000000000 ) ) ;
#320 = AXIS2_PLACEMENT_3D ( 'NONE', #60, #240, #136 ) ;
#321 = SECURITY_CLASSIFICATION ( '', '', #50 ) ;
#322 = EDGE_CURVE ( 'NONE', #148, #129, #268, .T. ) ;
#323 = DIRECTION ( 'NONE',  ( -3.491481338843133355E-15, 1.224646799147353207E-16, -1.000000000000000000 ) ) ;
#324 = DIRECTION ( 'NONE',  ( 3.491481338843133355E-15, -1.224646799147353207E-16, 1.000000000000000000 ) ) ;
#325 = FACE_OUTER_BOUND ( 'NONE', #247, .T. ) ;
#326 = ADVANCED_FACE ( 'NONE', ( #328 ), #18, .T. ) ;
#327 = AXIS2_PLACEMENT_3D ( 'NONE', #274, #118, #170 ) ;
#328 = FACE_OUTER_BOUND ( 'NONE', #276, .T. ) ;
#329 = APPLICATION_CONTEXT ( 'configuration controlled 3d designs of mechanical parts and assemblies' ) ;
#330 = CC_DESIGN_APPROVAL ( #31, ( #267 ) ) ;
#331 = PERSON_AND_ORGANIZATION ( #113, #201 ) ;
#332 = COORDINATED_UNIVERSAL_TIME_OFFSET ( 1, 0, .AHEAD. ) ;
#333 = APPROVAL_ROLE ( '' ) ;
#334 = ADVANCED_FACE ( 'NONE', ( #13 ), #39, .T. ) ;
#335 = AXIS2_PLACEMENT_3D ( 'NONE', #86, #187, #137 ) ;
#336 = APPROVAL_PERSON_ORGANIZATION ( #331, #31, #124 ) ;
#337 = LINE ( 'NONE', #100, #227 ) ;
ENDSEC;
END-ISO-10303-21;
