ISO-10303-21;
HEADER;
FILE_DESCRIPTION (( 'STEP AP203' ),
    '1' );
FILE_NAME ('54599.step',
    '2021-09-03T07:52:20',
    ( '' ),
    ( '' ),
    'SwSTEP 2.0',
    'SolidWorks 2019',
    '' );
FILE_SCHEMA (( 'CONFIG_CONTROL_DESIGN' ));
ENDSEC;

DATA;
#1 = CARTESIAN_POINT ( 'NONE',  ( 2.304377683636468267E-13, 1.724723750061123933E-32, 66.00000000000000000 ) ) ;
#2 = ADVANCED_FACE ( 'NONE', ( #96 ), #216, .T. ) ;
#3 = DIRECTION ( 'NONE',  ( 0.0000000000000000000, 1.000000000000000000, 0.0000000000000000000 ) ) ;
#4 = SECURITY_CLASSIFICATION ( '', '', #14 ) ;
#5 = CARTESIAN_POINT ( 'NONE',  ( 2.283428795603408836E-13, 2.899999999999991918, 65.40000000000000568 ) ) ;
#6 = PLANE ( 'NONE',  #138 ) ;
#7 = ORIENTED_EDGE ( 'NONE', *, *, #73, .T. ) ;
#8 = CARTESIAN_POINT ( 'NONE',  ( 0.0000000000000000000, 0.0000000000000000000, 0.0000000000000000000 ) ) ;
#9 = CC_DESIGN_PERSON_AND_ORGANIZATION_ASSIGNMENT ( #248, #86, ( #137 ) ) ;
#10 = DESIGN_CONTEXT ( 'detailed design', #41, 'design' ) ;
#11 = CALENDAR_DATE ( 2021, 3, 9 ) ;
#12 = ORIENTED_EDGE ( 'NONE', *, *, #61, .F. ) ;
#13 = PERSON ( 'UNSPECIFIED', 'UNSPECIFIED', 'UNSPECIFIED', ('UNSPECIFIED'), ('UNSPECIFIED'), ('UNSPECIFIED') ) ;
#14 = SECURITY_CLASSIFICATION_LEVEL ( 'unclassified' ) ;
#15 = ORIENTED_EDGE ( 'NONE', *, *, #239, .F. ) ;
#16 = AXIS2_PLACEMENT_3D ( 'NONE', #8, #266, #114 ) ;
#17 = VERTEX_POINT ( 'NONE', #70 ) ;
#18 = CIRCLE ( 'NONE', #186, 2.899999999999991918 ) ;
#19 = LINE ( 'NONE', #45, #56 ) ;
#20 = DIRECTION ( 'NONE',  ( -3.491481338843133355E-15, 1.224646799147353207E-16, -1.000000000000000000 ) ) ;
#21 = DIRECTION ( 'NONE',  ( -5.312910191413079583E-31, -1.000000000000000000, -1.495451272393803487E-16 ) ) ;
#22 = CARTESIAN_POINT ( 'NONE',  ( 2.304377683636468267E-13, -8.082668874372532400E-15, 66.00000000000000000 ) ) ;
#23 = DIRECTION ( 'NONE',  ( 3.491481338843133355E-15, -1.224646799147353207E-16, 1.000000000000000000 ) ) ;
#24 = PLANE ( 'NONE',  #154 ) ;
#25 = APPLICATION_CONTEXT ( 'configuration controlled 3d designs of mechanical parts and assemblies' ) ;
#26 = AXIS2_PLACEMENT_3D ( 'NONE', #315, #78, #3 ) ;
#27 = ORGANIZATION ( 'UNSPECIFIED', 'UNSPECIFIED', '' ) ;
#28 = DIRECTION ( 'NONE',  ( -3.491481338843133355E-15, 1.224646799147353207E-16, -1.000000000000000000 ) ) ;
#29 = DIRECTION ( 'NONE',  ( -3.491481338843133355E-15, 1.224646799147353207E-16, -1.000000000000000000 ) ) ;
#30 = FACE_OUTER_BOUND ( 'NONE', #203, .T. ) ;
#31 = EDGE_CURVE ( 'NONE', #17, #59, #18, .T. ) ;
#32 = APPROVAL_DATE_TIME ( #60, #37 ) ;
#33 = ORIENTED_EDGE ( 'NONE', *, *, #31, .T. ) ;
#34 = AXIS2_PLACEMENT_3D ( 'NONE', #232, #178, #146 ) ;
#35 = DATE_TIME_ROLE ( 'classification_date' ) ;
#36 = VECTOR ( 'NONE', #303, 1000.000000000000000 ) ;
#37 = APPROVAL ( #110, 'UNSPECIFIED' ) ;
#38 = ORIENTED_EDGE ( 'NONE', *, *, #42, .T. ) ;
#39 = FACE_OUTER_BOUND ( 'NONE', #322, .T. ) ;
#40 = CIRCLE ( 'NONE', #123, 2.899999999999994582 ) ;
#41 = APPLICATION_CONTEXT ( 'configuration controlled 3d designs of mechanical parts and assemblies' ) ;
#42 = EDGE_CURVE ( 'NONE', #241, #199, #94, .T. ) ;
#43 = DIRECTION ( 'NONE',  ( -3.491481338843133355E-15, 1.224646799147353207E-16, -1.000000000000000000 ) ) ;
#44 = FACE_OUTER_BOUND ( 'NONE', #230, .T. ) ;
#45 = CARTESIAN_POINT ( 'NONE',  ( 2.304377683636468267E-13, 2.299999999999992273, 66.00000000000000000 ) ) ;
#46 = CARTESIAN_POINT ( 'NONE',  ( 2.307194371274506847E-13, -2.300000000000008704, 66.00000000000000000 ) ) ;
#47 = FACE_OUTER_BOUND ( 'NONE', #268, .T. ) ;
#48 = EDGE_CURVE ( 'NONE', #117, #17, #120, .T. ) ;
#49 = DIRECTION ( 'NONE',  ( 0.0000000000000000000, 1.000000000000000000, 0.0000000000000000000 ) ) ;
#50 = AXIS2_PLACEMENT_3D ( 'NONE', #187, #102, #309 ) ;
#51 = CLOSED_SHELL ( 'NONE', ( #2, #163, #286, #98, #177, #326 ) ) ;
#52 = CARTESIAN_POINT ( 'NONE',  ( 4.005764740554729758E-14, -2.899999999999997247, 21.00000000000000000 ) ) ;
#53 = DIRECTION ( 'NONE',  ( 4.275831445896958607E-31, 1.000000000000000000, 1.224646799147353207E-16 ) ) ;
#54 = CARTESIAN_POINT ( 'NONE',  ( 2.297087321297721766E-13, -2.300000000000008704, 66.00000000000000000 ) ) ;
#55 = APPROVAL_PERSON_ORGANIZATION ( #84, #149, #139 ) ;
#56 = VECTOR ( 'NONE', #256, 1000.000000000000000 ) ;
#57 = APPROVAL_ROLE ( '' ) ;
#58 = APPLICATION_PROTOCOL_DEFINITION ( 'international standard', 'config_control_design', 1994, #25 ) ;
#59 = VERTEX_POINT ( 'NONE', #302 ) ;
#60 = DATE_AND_TIME ( #292, #150 ) ;
#61 = EDGE_CURVE ( 'NONE', #244, #270, #318, .T. ) ;
#62 = ORIENTED_EDGE ( 'NONE', *, *, #132, .F. ) ;
#63 = PERSON_AND_ORGANIZATION ( #13, #27 ) ;
#64 = EDGE_LOOP ( 'NONE', ( #92, #99, #140, #62 ) ) ;
#65 = DATE_TIME_ROLE ( 'creation_date' ) ;
#66 = VERTEX_POINT ( 'NONE', #147 ) ;
#67 = FACE_OUTER_BOUND ( 'NONE', #135, .T. ) ;
#68 = AXIS2_PLACEMENT_3D ( 'NONE', #125, #334, #261 ) ;
#69 = LOCAL_TIME ( 9, 52, 20.00000000000000000, #171 ) ;
#70 = CARTESIAN_POINT ( 'NONE',  ( 6.439039123636116257E-15, 2.899999999999991918, 1.742495795179939577 ) ) ;
#71 = LINE ( 'NONE', #231, #176 ) ;
#72 = DIRECTION ( 'NONE',  ( -3.491481338843133355E-15, 1.224646799147353207E-16, -1.000000000000000000 ) ) ;
#73 = EDGE_CURVE ( 'NONE', #244, #250, #19, .T. ) ;
#74 = DIRECTION ( 'NONE',  ( -3.491481338843133355E-15, 1.224646799147353207E-16, -1.000000000000000000 ) ) ;
#75 = CARTESIAN_POINT ( 'NONE',  ( 7.332110811570580046E-14, -2.571758278209441661E-15, 21.00000000000000000 ) ) ;
#76 = DIRECTION ( 'NONE',  ( 3.491481338843133355E-15, -1.224646799147353207E-16, 1.000000000000000000 ) ) ;
#77 = EDGE_CURVE ( 'NONE', #328, #59, #71, .T. ) ;
#78 = DIRECTION ( 'NONE',  ( -3.491481338843133355E-15, 1.224646799147353207E-16, -1.000000000000000000 ) ) ;
#79 = CIRCLE ( 'NONE', #219, 2.899999999999994582 ) ;
#80 = LOCAL_TIME ( 9, 52, 20.00000000000000000, #246 ) ;
#81 = DIRECTION ( 'NONE',  ( 1.798245827342160317E-15, -0.8571673007021098911, 0.5150380749100582634 ) ) ;
#82 = FACE_OUTER_BOUND ( 'NONE', #323, .T. ) ;
#83 = AXIS2_PLACEMENT_3D ( 'NONE', #305, #173, #273 ) ;
#84 = PERSON_AND_ORGANIZATION ( #13, #27 ) ;
#85 = ORIENTED_EDGE ( 'NONE', *, *, #158, .F. ) ;
#86 = PERSON_AND_ORGANIZATION_ROLE ( 'design_supplier' ) ;
#87 = ORIENTED_EDGE ( 'NONE', *, *, #132, .T. ) ;
#88 = PRODUCT_RELATED_PRODUCT_CATEGORY ( 'detail', '', ( #129 ) ) ;
#89 =( NAMED_UNIT ( * ) SI_UNIT ( $, .STERADIAN. ) SOLID_ANGLE_UNIT ( ) );
#90 = EDGE_LOOP ( 'NONE', ( #111, #223, #115, #249 ) ) ;
#91 = ORIENTED_EDGE ( 'NONE', *, *, #221, .F. ) ;
#92 = ORIENTED_EDGE ( 'NONE', *, *, #77, .F. ) ;
#93 = EDGE_CURVE ( 'NONE', #250, #196, #152, .T. ) ;
#94 = LINE ( 'NONE', #332, #208 ) ;
#95 = AXIS2_PLACEMENT_3D ( 'NONE', #287, #76, #183 ) ;
#96 = FACE_OUTER_BOUND ( 'NONE', #298, .T. ) ;
#97 = AXIS2_PLACEMENT_3D ( 'NONE', #200, #20, #304 ) ;
#98 = ADVANCED_FACE ( 'NONE', ( #44 ), #148, .T. ) ;
#99 = ORIENTED_EDGE ( 'NONE', *, *, #272, .T. ) ;
#100 = FACE_OUTER_BOUND ( 'NONE', #64, .T. ) ;
#101 = CARTESIAN_POINT ( 'NONE',  ( 6.083891551883384169E-15, -2.133941898094834476E-16, 1.742495795179939133 ) ) ;
#102 = DIRECTION ( 'NONE',  ( -3.491481338843133355E-15, 1.224646799147353207E-16, -1.000000000000000000 ) ) ;
#103 = ADVANCED_FACE ( 'NONE', ( #67 ), #112, .T. ) ;
#104 = DIRECTION ( 'NONE',  ( -3.491481338843133355E-15, 1.224646799147353207E-16, -1.000000000000000000 ) ) ;
#105 = ADVANCED_BREP_SHAPE_REPRESENTATION ( '54599', ( #324, #214, #16 ), #295 ) ;
#106 = CARTESIAN_POINT ( 'NONE',  ( 2.304377683636468267E-13, 2.299999999999992273, 66.00000000000000000 ) ) ;
#107 = ADVANCED_FACE ( 'NONE', ( #122 ), #333, .T. ) ;
#108 = CARTESIAN_POINT ( 'NONE',  ( 7.332110811570580046E-14, -2.571758278209441661E-15, 21.00000000000000000 ) ) ;
#109 = PERSON_AND_ORGANIZATION_ROLE ( 'classification_officer' ) ;
#110 = APPROVAL_STATUS ( 'not_yet_approved' ) ;
#111 = ORIENTED_EDGE ( 'NONE', *, *, #221, .T. ) ;
#112 = CONICAL_SURFACE ( 'NONE', #312, 2.899999999999991918, 1.029744258676649649 ) ;
#113 = PRODUCT_DEFINITION ( 'UNKNOWN', '', #137, #10 ) ;
#114 = DIRECTION ( 'NONE',  ( 1.000000000000000000, 0.0000000000000000000, 0.0000000000000000000 ) ) ;
#115 = ORIENTED_EDGE ( 'NONE', *, *, #31, .F. ) ;
#116 = DATE_AND_TIME ( #11, #80 ) ;
#117 = VERTEX_POINT ( 'NONE', #300 ) ;
#118 = PERSON_AND_ORGANIZATION ( #13, #27 ) ;
#119 = ORIENTED_EDGE ( 'NONE', *, *, #42, .F. ) ;
#120 = LINE ( 'NONE', #151, #274 ) ;
#121 = DIRECTION ( 'NONE',  ( -3.491481338843133355E-15, 1.224646799147353207E-16, -1.000000000000000000 ) ) ;
#122 = FACE_OUTER_BOUND ( 'NONE', #90, .T. ) ;
#123 = AXIS2_PLACEMENT_3D ( 'NONE', #108, #236, #260 ) ;
#124 = ORIENTED_EDGE ( 'NONE', *, *, #313, .F. ) ;
#125 = CARTESIAN_POINT ( 'NONE',  ( 0.0000000000000000000, 0.0000000000000000000, 0.0000000000000000000 ) ) ;
#126 = DIRECTION ( 'NONE',  ( -3.491481338843133355E-15, 1.224646799147353207E-16, -1.000000000000000000 ) ) ;
#127 = ADVANCED_FACE ( 'NONE', ( #100 ), #205, .T. ) ;
#128 = AXIS2_PLACEMENT_3D ( 'NONE', #157, #131, #134 ) ;
#129 = PRODUCT ( '54599', '54599', '', ( #191 ) ) ;
#130 = FACE_OUTER_BOUND ( 'NONE', #293, .T. ) ;
#131 = DIRECTION ( 'NONE',  ( -3.491481338843133355E-15, 1.224646799147353207E-16, -1.000000000000000000 ) ) ;
#132 = EDGE_CURVE ( 'NONE', #59, #17, #174, .T. ) ;
#133 = DIRECTION ( 'NONE',  ( 0.0000000000000000000, 1.000000000000000000, 0.0000000000000000000 ) ) ;
#134 = DIRECTION ( 'NONE',  ( 0.0000000000000000000, 1.000000000000000000, 0.0000000000000000000 ) ) ;
#135 = EDGE_LOOP ( 'NONE', ( #142, #247, #87 ) ) ;
#136 = AXIS2_PLACEMENT_3D ( 'NONE', #1, #104, #53 ) ;
#137 = PRODUCT_DEFINITION_FORMATION_WITH_SPECIFIED_SOURCE ( 'ANY', '', #129, .NOT_KNOWN. ) ;
#138 = AXIS2_PLACEMENT_3D ( 'NONE', #308, #280, #211 ) ;
#139 = APPROVAL_ROLE ( '' ) ;
#140 = ORIENTED_EDGE ( 'NONE', *, *, #251, .T. ) ;
#141 = PERSON_AND_ORGANIZATION ( #13, #27 ) ;
#142 = ORIENTED_EDGE ( 'NONE', *, *, #48, .F. ) ;
#143 = CC_DESIGN_DATE_AND_TIME_ASSIGNMENT ( #197, #65, ( #113 ) ) ;
#144 = PERSON_AND_ORGANIZATION ( #13, #27 ) ;
#145 = AXIS2_PLACEMENT_3D ( 'NONE', #153, #29, #133 ) ;
#146 = DIRECTION ( 'NONE',  ( 0.0000000000000000000, 1.000000000000000000, 0.0000000000000000000 ) ) ;
#147 = CARTESIAN_POINT ( 'NONE',  ( 7.332110811570580046E-14, 2.899999999999991918, 21.00000000000000000 ) ) ;
#148 = CYLINDRICAL_SURFACE ( 'NONE', #156, 2.899999999999997247 ) ;
#149 = APPROVAL ( #166, 'UNSPECIFIED' ) ;
#150 = LOCAL_TIME ( 9, 52, 20.00000000000000000, #325 ) ;
#151 = CARTESIAN_POINT ( 'NONE',  ( 6.439039123636116257E-15, 2.899999999999991918, 1.742495795179939577 ) ) ;
#152 = LINE ( 'NONE', #276, #36 ) ;
#153 = CARTESIAN_POINT ( 'NONE',  ( 2.304377683636468267E-13, -8.082668874372532400E-15, 66.00000000000000000 ) ) ;
#154 = AXIS2_PLACEMENT_3D ( 'NONE', #337, #263, #188 ) ;
#155 = CARTESIAN_POINT ( 'NONE',  ( 1.239991119310115176E-30, 2.899999999999993250, 3.551475717527315944E-16 ) ) ;
#156 = AXIS2_PLACEMENT_3D ( 'NONE', #254, #74, #253 ) ;
#157 = CARTESIAN_POINT ( 'NONE',  ( 2.304377683636468267E-13, -8.082668874372532400E-15, 66.00000000000000000 ) ) ;
#158 = EDGE_CURVE ( 'NONE', #270, #241, #329, .T. ) ;
#159 =( NAMED_UNIT ( * ) PLANE_ANGLE_UNIT ( ) SI_UNIT ( $, .RADIAN. ) );
#160 = CLOSED_SHELL ( 'NONE', ( #107, #299, #103, #127, #170 ) ) ;
#161 = DATE_AND_TIME ( #321, #69 ) ;
#162 = ORIENTED_EDGE ( 'NONE', *, *, #239, .T. ) ;
#163 = ADVANCED_FACE ( 'NONE', ( #39 ), #228, .T. ) ;
#164 = PERSON_AND_ORGANIZATION_ROLE ( 'creator' ) ;
#165 = ORIENTED_EDGE ( 'NONE', *, *, #272, .F. ) ;
#166 = APPROVAL_STATUS ( 'not_yet_approved' ) ;
#167 = ORIENTED_EDGE ( 'NONE', *, *, #93, .T. ) ;
#168 = APPROVAL_STATUS ( 'not_yet_approved' ) ;
#169 = EDGE_LOOP ( 'NONE', ( #172, #220, #33 ) ) ;
#170 = ADVANCED_FACE ( 'NONE', ( #47 ), #6, .T. ) ;
#171 = COORDINATED_UNIVERSAL_TIME_OFFSET ( 1, 0, .AHEAD. ) ;
#172 = ORIENTED_EDGE ( 'NONE', *, *, #335, .F. ) ;
#173 = DIRECTION ( 'NONE',  ( -3.491481338843133355E-15, 1.224646799147353207E-16, -1.000000000000000000 ) ) ;
#174 = CIRCLE ( 'NONE', #283, 2.899999999999991918 ) ;
#175 = CC_DESIGN_SECURITY_CLASSIFICATION ( #4, ( #137 ) ) ;
#176 = VECTOR ( 'NONE', #72, 1000.000000000000000 ) ;
#177 = ADVANCED_FACE ( 'NONE', ( #30 ), #290, .T. ) ;
#178 = DIRECTION ( 'NONE',  ( -3.491481338843133355E-15, 1.224646799147353207E-16, -1.000000000000000000 ) ) ;
#179 = DIRECTION ( 'NONE',  ( 1.903218546456022717E-15, 0.8571673007021097801, 0.5150380749100585964 ) ) ;
#180 = DIRECTION ( 'NONE',  ( -3.491481338843133355E-15, 1.224646799147353207E-16, -1.000000000000000000 ) ) ;
#181 = CARTESIAN_POINT ( 'NONE',  ( 6.083891551883384169E-15, -2.133941898094834476E-16, 1.742495795179939133 ) ) ;
#182 = DIRECTION ( 'NONE',  ( -3.491481338843133355E-15, 1.224646799147353207E-16, -1.000000000000000000 ) ) ;
#183 = DIRECTION ( 'NONE',  ( -5.312910191413079583E-31, -1.000000000000000000, -1.495451272393803487E-16 ) ) ;
#184 = CC_DESIGN_APPROVAL ( #310, ( #137 ) ) ;
#185 = LINE ( 'NONE', #213, #330 ) ;
#186 = AXIS2_PLACEMENT_3D ( 'NONE', #101, #278, #275 ) ;
#187 = CARTESIAN_POINT ( 'NONE',  ( 7.332110811570580046E-14, -2.571758278209441661E-15, 21.00000000000000000 ) ) ;
#188 = DIRECTION ( 'NONE',  ( -4.275831445896958607E-31, -1.000000000000000000, -1.224646799147353207E-16 ) ) ;
#189 = APPLICATION_PROTOCOL_DEFINITION ( 'international standard', 'config_control_design', 1994, #41 ) ;
#190 = AXIS2_PLACEMENT_3D ( 'NONE', #75, #182, #238 ) ;
#191 = MECHANICAL_CONTEXT ( 'NONE', #25, 'mechanical' ) ;
#192 = CC_DESIGN_PERSON_AND_ORGANIZATION_ASSIGNMENT ( #63, #264, ( #137 ) ) ;
#193 = PERSON_AND_ORGANIZATION ( #13, #27 ) ;
#194 = ORIENTED_EDGE ( 'NONE', *, *, #255, .F. ) ;
#195 = COORDINATED_UNIVERSAL_TIME_OFFSET ( 1, 0, .AHEAD. ) ;
#196 = VERTEX_POINT ( 'NONE', #258 ) ;
#197 = DATE_AND_TIME ( #296, #212 ) ;
#198 = ORIENTED_EDGE ( 'NONE', *, *, #202, .T. ) ;
#199 = VERTEX_POINT ( 'NONE', #234 ) ;
#200 = CARTESIAN_POINT ( 'NONE',  ( 0.0000000000000000000, 0.0000000000000000000, 0.0000000000000000000 ) ) ;
#201 = CIRCLE ( 'NONE', #282, 2.899999999999999911 ) ;
#202 = EDGE_CURVE ( 'NONE', #199, #196, #307, .T. ) ;
#203 = EDGE_LOOP ( 'NONE', ( #85, #327, #7, #226 ) ) ;
#204 = DIRECTION ( 'NONE',  ( 0.0000000000000000000, 1.000000000000000000, 0.0000000000000000000 ) ) ;
#205 = CYLINDRICAL_SURFACE ( 'NONE', #83, 2.899999999999993250 ) ;
#206 = CC_DESIGN_PERSON_AND_ORGANIZATION_ASSIGNMENT ( #118, #164, ( #113 ) ) ;
#207 = LOCAL_TIME ( 9, 52, 20.00000000000000000, #316 ) ;
#208 = VECTOR ( 'NONE', #43, 1000.000000000000000 ) ;
#209 = DIRECTION ( 'NONE',  ( 0.0000000000000000000, 1.000000000000000000, 0.0000000000000000000 ) ) ;
#210 = FACE_OUTER_BOUND ( 'NONE', #169, .T. ) ;
#211 = DIRECTION ( 'NONE',  ( -4.275831445896958607E-31, -1.000000000000000000, -1.224646799147353207E-16 ) ) ;
#212 = LOCAL_TIME ( 9, 52, 20.00000000000000000, #195 ) ;
#213 = CARTESIAN_POINT ( 'NONE',  ( 6.083891551883382592E-15, -2.899999999999991918, 1.742495795179938689 ) ) ;
#214 = MANIFOLD_SOLID_BREP ( 'Corps-Déplacer/Copier1[2]', #160 ) ;
#215 = SHAPE_DEFINITION_REPRESENTATION ( #237, #105 ) ;
#216 = CONICAL_SURFACE ( 'NONE', #34, 2.300000000000000266, 0.7853981633974450594 ) ;
#217 = APPROVAL_ROLE ( '' ) ;
#218 = APPROVAL_PERSON_ORGANIZATION ( #141, #310, #57 ) ;
#219 = AXIS2_PLACEMENT_3D ( 'NONE', #314, #126, #209 ) ;
#220 = ORIENTED_EDGE ( 'NONE', *, *, #48, .T. ) ;
#221 = EDGE_CURVE ( 'NONE', #66, #328, #269, .T. ) ;
#222 = APPROVAL_DATE_TIME ( #116, #149 ) ;
#223 = ORIENTED_EDGE ( 'NONE', *, *, #77, .T. ) ;
#224 = ORIENTED_EDGE ( 'NONE', *, *, #73, .F. ) ;
#225 = APPROVAL_PERSON_ORGANIZATION ( #144, #37, #217 ) ;
#226 = ORIENTED_EDGE ( 'NONE', *, *, #277, .F. ) ;
#227 = CARTESIAN_POINT ( 'NONE',  ( 6.083891551883384169E-15, -2.133941898094834476E-16, 1.742495795179939133 ) ) ;
#228 = CYLINDRICAL_SURFACE ( 'NONE', #68, 2.899999999999997247 ) ;
#229 = VECTOR ( 'NONE', #257, 1000.000000000000114 ) ;
#230 = EDGE_LOOP ( 'NONE', ( #119, #265, #167, #297 ) ) ;
#231 = CARTESIAN_POINT ( 'NONE',  ( 3.551475717527303618E-16, -2.899999999999993250, -3.551475717527328270E-16 ) ) ;
#232 = CARTESIAN_POINT ( 'NONE',  ( 2.304377683636468267E-13, -8.082668874372532400E-15, 66.00000000000000000 ) ) ;
#233 = CIRCLE ( 'NONE', #128, 2.300000000000000266 ) ;
#234 = CARTESIAN_POINT ( 'NONE',  ( 1.511871414097760449E-13, -2.899999999999997247, 21.00000000000000000 ) ) ;
#235 = CARTESIAN_POINT ( 'NONE',  ( 2.283428795603408836E-13, -8.009190066423689102E-15, 65.40000000000000568 ) ) ;
#236 = DIRECTION ( 'NONE',  ( -3.491481338843133355E-15, 1.224646799147353207E-16, -1.000000000000000000 ) ) ;
#237 = PRODUCT_DEFINITION_SHAPE ( 'NONE', 'NONE',  #113 ) ;
#238 = DIRECTION ( 'NONE',  ( 0.0000000000000000000, 1.000000000000000000, 0.0000000000000000000 ) ) ;
#239 = EDGE_CURVE ( 'NONE', #196, #199, #40, .T. ) ;
#240 = PERSON_AND_ORGANIZATION_ROLE ( 'design_owner' ) ;
#241 = VERTEX_POINT ( 'NONE', #285 ) ;
#242 = CONICAL_SURFACE ( 'NONE', #95, 2.899999999999991918, 1.029744258676649649 ) ;
#243 = DATE_AND_TIME ( #294, #207 ) ;
#244 = VERTEX_POINT ( 'NONE', #106 ) ;
#245 = AXIS2_PLACEMENT_3D ( 'NONE', #22, #180, #204 ) ;
#246 = COORDINATED_UNIVERSAL_TIME_OFFSET ( 1, 0, .AHEAD. ) ;
#247 = ORIENTED_EDGE ( 'NONE', *, *, #335, .T. ) ;
#248 = PERSON_AND_ORGANIZATION ( #13, #27 ) ;
#249 = ORIENTED_EDGE ( 'NONE', *, *, #251, .F. ) ;
#250 = VERTEX_POINT ( 'NONE', #5 ) ;
#251 = EDGE_CURVE ( 'NONE', #66, #17, #311, .T. ) ;
#252 = ORIENTED_EDGE ( 'NONE', *, *, #313, .T. ) ;
#253 = DIRECTION ( 'NONE',  ( 4.275831445896958607E-31, 1.000000000000000000, 1.224646799147353207E-16 ) ) ;
#254 = CARTESIAN_POINT ( 'NONE',  ( 0.0000000000000000000, 0.0000000000000000000, 0.0000000000000000000 ) ) ;
#255 = EDGE_CURVE ( 'NONE', #270, #244, #233, .T. ) ;
#256 = DIRECTION ( 'NONE',  ( -2.468850131082272838E-15, 0.7071067811865453523, -0.7071067811865496822 ) ) ;
#257 = DIRECTION ( 'NONE',  ( -2.382254525458724175E-15, -0.7071067811865451302, -0.7071067811865499042 ) ) ;
#258 = CARTESIAN_POINT ( 'NONE',  ( 7.332110811570580046E-14, 2.899999999999991918, 21.00000000000000000 ) ) ;
#259 = VECTOR ( 'NONE', #28, 1000.000000000000000 ) ;
#260 = DIRECTION ( 'NONE',  ( 0.0000000000000000000, 1.000000000000000000, 0.0000000000000000000 ) ) ;
#261 = DIRECTION ( 'NONE',  ( 4.275831445896958607E-31, 1.000000000000000000, 1.224646799147353207E-16 ) ) ;
#262 =( LENGTH_UNIT ( ) NAMED_UNIT ( * ) SI_UNIT ( .MILLI., .METRE. ) );
#263 = DIRECTION ( 'NONE',  ( 3.491481338843133355E-15, -1.224646799147353207E-16, 1.000000000000000000 ) ) ;
#264 = PERSON_AND_ORGANIZATION_ROLE ( 'creator' ) ;
#265 = ORIENTED_EDGE ( 'NONE', *, *, #277, .T. ) ;
#266 = DIRECTION ( 'NONE',  ( 0.0000000000000000000, 0.0000000000000000000, 1.000000000000000000 ) ) ;
#267 = CC_DESIGN_DATE_AND_TIME_ASSIGNMENT ( #243, #35, ( #4 ) ) ;
#268 = EDGE_LOOP ( 'NONE', ( #91, #165 ) ) ;
#269 = CIRCLE ( 'NONE', #190, 2.899999999999994582 ) ;
#270 = VERTEX_POINT ( 'NONE', #54 ) ;
#271 = ORIENTED_EDGE ( 'NONE', *, *, #93, .F. ) ;
#272 = EDGE_CURVE ( 'NONE', #328, #66, #79, .T. ) ;
#273 = DIRECTION ( 'NONE',  ( 4.275831445896958607E-31, 1.000000000000000000, 1.224646799147353207E-16 ) ) ;
#274 = VECTOR ( 'NONE', #179, 999.9999999999998863 ) ;
#275 = DIRECTION ( 'NONE',  ( 5.312910191413079583E-31, 1.000000000000000000, 1.495451272393803487E-16 ) ) ;
#276 = CARTESIAN_POINT ( 'NONE',  ( 1.239991119310116752E-30, 2.899999999999997247, 3.551475717527320874E-16 ) ) ;
#277 = EDGE_CURVE ( 'NONE', #241, #250, #301, .T. ) ;
#278 = DIRECTION ( 'NONE',  ( -3.491481338843133355E-15, 1.224646799147353207E-16, -1.000000000000000000 ) ) ;
#279 = DIRECTION ( 'NONE',  ( 5.312910191413079583E-31, 1.000000000000000000, 1.495451272393803487E-16 ) ) ;
#280 = DIRECTION ( 'NONE',  ( 3.491481338843133355E-15, -1.224646799147353207E-16, 1.000000000000000000 ) ) ;
#281 = DIRECTION ( 'NONE',  ( -3.491481338843133355E-15, 1.224646799147353207E-16, -1.000000000000000000 ) ) ;
#282 = AXIS2_PLACEMENT_3D ( 'NONE', #235, #281, #49 ) ;
#283 = AXIS2_PLACEMENT_3D ( 'NONE', #227, #121, #279 ) ;
#284 = PLANE ( 'NONE',  #136 ) ;
#285 = CARTESIAN_POINT ( 'NONE',  ( 1.511871414097759439E-13, -2.900000000000007461, 65.40000000000000568 ) ) ;
#286 = ADVANCED_FACE ( 'NONE', ( #82 ), #24, .F. ) ;
#287 = CARTESIAN_POINT ( 'NONE',  ( 6.083891551883384169E-15, -2.133941898094834476E-16, 1.742495795179939133 ) ) ;
#288 = CC_DESIGN_PERSON_AND_ORGANIZATION_ASSIGNMENT ( #193, #109, ( #4 ) ) ;
#289 = PERSON_AND_ORGANIZATION ( #13, #27 ) ;
#290 = CONICAL_SURFACE ( 'NONE', #145, 2.300000000000000266, 0.7853981633974450594 ) ;
#291 = UNCERTAINTY_MEASURE_WITH_UNIT (LENGTH_MEASURE( 1.000000000000000082E-05 ), #262, 'distance_accuracy_value', 'NONE');
#292 = CALENDAR_DATE ( 2021, 3, 9 ) ;
#293 = EDGE_LOOP ( 'NONE', ( #12, #194 ) ) ;
#294 = CALENDAR_DATE ( 2021, 3, 9 ) ;
#295 =( GEOMETRIC_REPRESENTATION_CONTEXT ( 3 ) GLOBAL_UNCERTAINTY_ASSIGNED_CONTEXT ( ( #291 ) ) GLOBAL_UNIT_ASSIGNED_CONTEXT ( ( #262, #159, #89 ) ) REPRESENTATION_CONTEXT ( 'NONE', 'WORKASPACE' ) );
#296 = CALENDAR_DATE ( 2021, 3, 9 ) ;
#297 = ORIENTED_EDGE ( 'NONE', *, *, #202, .F. ) ;
#298 = EDGE_LOOP ( 'NONE', ( #319, #331, #124, #224 ) ) ;
#299 = ADVANCED_FACE ( 'NONE', ( #210 ), #242, .T. ) ;
#300 = CARTESIAN_POINT ( 'NONE',  ( 0.0000000000000000000, 0.0000000000000000000, 0.0000000000000000000 ) ) ;
#301 = CIRCLE ( 'NONE', #26, 2.899999999999999911 ) ;
#302 = CARTESIAN_POINT ( 'NONE',  ( 6.083891551883382592E-15, -2.899999999999991918, 1.742495795179938689 ) ) ;
#303 = DIRECTION ( 'NONE',  ( -3.491481338843133355E-15, 1.224646799147353207E-16, -1.000000000000000000 ) ) ;
#304 = DIRECTION ( 'NONE',  ( 4.275831445896958607E-31, 1.000000000000000000, 1.224646799147353207E-16 ) ) ;
#305 = CARTESIAN_POINT ( 'NONE',  ( 0.0000000000000000000, 0.0000000000000000000, 0.0000000000000000000 ) ) ;
#306 = CC_DESIGN_APPROVAL ( #149, ( #4 ) ) ;
#307 = CIRCLE ( 'NONE', #50, 2.899999999999994582 ) ;
#308 = CARTESIAN_POINT ( 'NONE',  ( 7.332110811570580046E-14, 2.174651684859685868E-32, 21.00000000000000000 ) ) ;
#309 = DIRECTION ( 'NONE',  ( 0.0000000000000000000, 1.000000000000000000, 0.0000000000000000000 ) ) ;
#310 = APPROVAL ( #168, 'UNSPECIFIED' ) ;
#311 = LINE ( 'NONE', #155, #259 ) ;
#312 = AXIS2_PLACEMENT_3D ( 'NONE', #181, #23, #21 ) ;
#313 = EDGE_CURVE ( 'NONE', #250, #241, #201, .T. ) ;
#314 = CARTESIAN_POINT ( 'NONE',  ( 7.332110811570580046E-14, -2.571758278209441661E-15, 21.00000000000000000 ) ) ;
#315 = CARTESIAN_POINT ( 'NONE',  ( 2.283428795603408836E-13, -8.009190066423689102E-15, 65.40000000000000568 ) ) ;
#316 = COORDINATED_UNIVERSAL_TIME_OFFSET ( 1, 0, .AHEAD. ) ;
#317 = APPROVAL_DATE_TIME ( #161, #310 ) ;
#318 = CIRCLE ( 'NONE', #245, 2.300000000000000266 ) ;
#319 = ORIENTED_EDGE ( 'NONE', *, *, #61, .T. ) ;
#320 = CC_DESIGN_PERSON_AND_ORGANIZATION_ASSIGNMENT ( #289, #240, ( #129 ) ) ;
#321 = CALENDAR_DATE ( 2021, 3, 9 ) ;
#322 = EDGE_LOOP ( 'NONE', ( #252, #38, #15, #271 ) ) ;
#323 = EDGE_LOOP ( 'NONE', ( #162, #198 ) ) ;
#324 = MANIFOLD_SOLID_BREP ( 'Corps-Déplacer/Copier1[1]', #51 ) ;
#325 = COORDINATED_UNIVERSAL_TIME_OFFSET ( 1, 0, .AHEAD. ) ;
#326 = ADVANCED_FACE ( 'NONE', ( #130 ), #284, .F. ) ;
#327 = ORIENTED_EDGE ( 'NONE', *, *, #255, .T. ) ;
#328 = VERTEX_POINT ( 'NONE', #52 ) ;
#329 = LINE ( 'NONE', #46, #229 ) ;
#330 = VECTOR ( 'NONE', #81, 1000.000000000000000 ) ;
#331 = ORIENTED_EDGE ( 'NONE', *, *, #158, .T. ) ;
#332 = CARTESIAN_POINT ( 'NONE',  ( 3.551475717527308548E-16, -2.899999999999997247, -3.551475717527333200E-16 ) ) ;
#333 = CYLINDRICAL_SURFACE ( 'NONE', #97, 2.899999999999993250 ) ;
#334 = DIRECTION ( 'NONE',  ( -3.491481338843133355E-15, 1.224646799147353207E-16, -1.000000000000000000 ) ) ;
#335 = EDGE_CURVE ( 'NONE', #117, #59, #185, .T. ) ;
#336 = CC_DESIGN_APPROVAL ( #37, ( #113 ) ) ;
#337 = CARTESIAN_POINT ( 'NONE',  ( 7.332110811570580046E-14, 2.174651684859685868E-32, 21.00000000000000000 ) ) ;
ENDSEC;
END-ISO-10303-21;
