ISO-10303-21;
HEADER;
FILE_DESCRIPTION (( 'STEP AP203' ),
    '1' );
FILE_NAME ('54596.step',
    '2021-09-03T07:52:11',
    ( '' ),
    ( '' ),
    'SwSTEP 2.0',
    'SolidWorks 2019',
    '' );
FILE_SCHEMA (( 'CONFIG_CONTROL_DESIGN' ));
ENDSEC;

DATA;
#1 = CARTESIAN_POINT ( 'NONE',  ( 2.304377683636468267E-13, 2.199999999999992184, 66.00000000000000000 ) ) ;
#2 = DIRECTION ( 'NONE',  ( -4.275831445896958607E-31, -1.000000000000000000, -1.224646799147353207E-16 ) ) ;
#3 = EDGE_LOOP ( 'NONE', ( #10, #213 ) ) ;
#4 = LOCAL_TIME ( 9, 52, 11.00000000000000000, #67 ) ;
#5 = CARTESIAN_POINT ( 'NONE',  ( 5.874102188025336140E-15, -2.060357694712254147E-16, 1.682409733277182573 ) ) ;
#6 = APPROVAL_DATE_TIME ( #232, #112 ) ;
#7 = AXIS2_PLACEMENT_3D ( 'NONE', #29, #318, #146 ) ;
#8 = AXIS2_PLACEMENT_3D ( 'NONE', #223, #304, #247 ) ;
#9 = DATE_AND_TIME ( #116, #4 ) ;
#10 = ORIENTED_EDGE ( 'NONE', *, *, #251, .F. ) ;
#11 = DATE_AND_TIME ( #68, #162 ) ;
#12 = EDGE_CURVE ( 'NONE', #115, #119, #147, .T. ) ;
#13 = EDGE_LOOP ( 'NONE', ( #299, #141, #59, #71 ) ) ;
#14 = FACE_OUTER_BOUND ( 'NONE', #264, .T. ) ;
#15 = DIRECTION ( 'NONE',  ( -3.491481338843133355E-15, 1.224646799147353207E-16, -1.000000000000000000 ) ) ;
#16 = CARTESIAN_POINT ( 'NONE',  ( 1.511748949417844982E-13, -2.800000000000007372, 65.40000000000000568 ) ) ;
#17 = CARTESIAN_POINT ( 'NONE',  ( 6.217003291786595659E-15, 2.799999999999992273, 1.682409733277183017 ) ) ;
#18 = FACE_OUTER_BOUND ( 'NONE', #329, .T. ) ;
#19 = CARTESIAN_POINT ( 'NONE',  ( 1.197232804851145572E-30, 2.799999999999993605, 3.429011037612581387E-16 ) ) ;
#20 = DIRECTION ( 'NONE',  ( -3.491481338843133355E-15, 1.224646799147353207E-16, -1.000000000000000000 ) ) ;
#21 = PLANE ( 'NONE',  #66 ) ;
#22 = EDGE_LOOP ( 'NONE', ( #121, #88, #156, #331 ) ) ;
#23 = DIRECTION ( 'NONE',  ( 5.502656983963546273E-31, 1.000000000000000000, 1.548860246407867774E-16 ) ) ;
#24 = APPLICATION_PROTOCOL_DEFINITION ( 'international standard', 'config_control_design', 1994, #259 ) ;
#25 = CC_DESIGN_SECURITY_CLASSIFICATION ( #206, ( #309 ) ) ;
#26 = VERTEX_POINT ( 'NONE', #16 ) ;
#27 = CARTESIAN_POINT ( 'NONE',  ( 3.994050625562679350E-14, -2.799999999999997158, 21.00000000000000000 ) ) ;
#28 = COORDINATED_UNIVERSAL_TIME_OFFSET ( 1, 0, .AHEAD. ) ;
#29 = CARTESIAN_POINT ( 'NONE',  ( 7.332110811570580046E-14, -2.571758278209441661E-15, 21.00000000000000000 ) ) ;
#30 = FACE_OUTER_BOUND ( 'NONE', #89, .T. ) ;
#31 = PERSON_AND_ORGANIZATION ( #236, #60 ) ;
#32 = CIRCLE ( 'NONE', #263, 2.200000000000000622 ) ;
#33 = LOCAL_TIME ( 9, 52, 11.00000000000000000, #311 ) ;
#34 = DIRECTION ( 'NONE',  ( 3.491481338843133355E-15, -1.224646799147353207E-16, 1.000000000000000000 ) ) ;
#35 = ORIENTED_EDGE ( 'NONE', *, *, #235, .T. ) ;
#36 = APPROVAL_DATE_TIME ( #9, #296 ) ;
#37 = VERTEX_POINT ( 'NONE', #144 ) ;
#38 =( GEOMETRIC_REPRESENTATION_CONTEXT ( 3 ) GLOBAL_UNCERTAINTY_ASSIGNED_CONTEXT ( ( #255 ) ) GLOBAL_UNIT_ASSIGNED_CONTEXT ( ( #262, #102, #150 ) ) REPRESENTATION_CONTEXT ( 'NONE', 'WORKASPACE' ) );
#39 = ADVANCED_FACE ( 'NONE', ( #170 ), #270, .T. ) ;
#40 = ADVANCED_BREP_SHAPE_REPRESENTATION ( '54596', ( #303, #188, #159 ), #38 ) ;
#41 = VERTEX_POINT ( 'NONE', #51 ) ;
#42 = EDGE_LOOP ( 'NONE', ( #268, #193, #94 ) ) ;
#43 = DIRECTION ( 'NONE',  ( 0.0000000000000000000, 1.000000000000000000, 0.0000000000000000000 ) ) ;
#44 = CARTESIAN_POINT ( 'NONE',  ( 0.0000000000000000000, 0.0000000000000000000, 0.0000000000000000000 ) ) ;
#45 = AXIS2_PLACEMENT_3D ( 'NONE', #55, #273, #43 ) ;
#46 = VECTOR ( 'NONE', #319, 1000.000000000000000 ) ;
#47 = DIRECTION ( 'NONE',  ( 0.0000000000000000000, 1.000000000000000000, 0.0000000000000000000 ) ) ;
#48 = PRODUCT_RELATED_PRODUCT_CATEGORY ( 'detail', '', ( #120 ) ) ;
#49 = CARTESIAN_POINT ( 'NONE',  ( 5.874102188025334562E-15, -2.799999999999992273, 1.682409733277182129 ) ) ;
#50 = EDGE_CURVE ( 'NONE', #115, #218, #248, .T. ) ;
#51 = CARTESIAN_POINT ( 'NONE',  ( 2.283428795603408836E-13, 2.799999999999992273, 65.40000000000000568 ) ) ;
#52 = LINE ( 'NONE', #1, #191 ) ;
#53 = VECTOR ( 'NONE', #197, 1000.000000000000000 ) ;
#54 = CONICAL_SURFACE ( 'NONE', #238, 2.200000000000000622, 0.7853981633974450594 ) ;
#55 = CARTESIAN_POINT ( 'NONE',  ( 7.332110811570580046E-14, -2.571758278209441661E-15, 21.00000000000000000 ) ) ;
#56 = DIRECTION ( 'NONE',  ( 4.275831445896959482E-31, 1.000000000000000000, 1.224646799147353207E-16 ) ) ;
#57 = LINE ( 'NONE', #205, #46 ) ;
#58 = DIRECTION ( 'NONE',  ( 4.275831445896958607E-31, 1.000000000000000000, 1.224646799147353207E-16 ) ) ;
#59 = ORIENTED_EDGE ( 'NONE', *, *, #314, .F. ) ;
#60 = ORGANIZATION ( 'UNSPECIFIED', 'UNSPECIFIED', '' ) ;
#61 = DIRECTION ( 'NONE',  ( -3.491481338843133355E-15, 1.224646799147353207E-16, -1.000000000000000000 ) ) ;
#62 = CALENDAR_DATE ( 2021, 3, 9 ) ;
#63 = CARTESIAN_POINT ( 'NONE',  ( 0.0000000000000000000, 0.0000000000000000000, 0.0000000000000000000 ) ) ;
#64 = DIRECTION ( 'NONE',  ( 4.275831445896959482E-31, 1.000000000000000000, 1.224646799147353207E-16 ) ) ;
#65 = ORIENTED_EDGE ( 'NONE', *, *, #195, .F. ) ;
#66 = AXIS2_PLACEMENT_3D ( 'NONE', #227, #98, #2 ) ;
#67 = COORDINATED_UNIVERSAL_TIME_OFFSET ( 1, 0, .AHEAD. ) ;
#68 = CALENDAR_DATE ( 2021, 3, 9 ) ;
#69 = CIRCLE ( 'NONE', #190, 2.799999999999999822 ) ;
#70 = APPLICATION_CONTEXT ( 'configuration controlled 3d designs of mechanical parts and assemblies' ) ;
#71 = ORIENTED_EDGE ( 'NONE', *, *, #235, .F. ) ;
#72 = CARTESIAN_POINT ( 'NONE',  ( 6.217003291786595659E-15, 2.799999999999992273, 1.682409733277183017 ) ) ;
#73 = EDGE_CURVE ( 'NONE', #37, #153, #253, .T. ) ;
#74 = ORIENTED_EDGE ( 'NONE', *, *, #50, .T. ) ;
#75 = CARTESIAN_POINT ( 'NONE',  ( 2.304377683636468267E-13, -8.082668874372532400E-15, 66.00000000000000000 ) ) ;
#76 = DIRECTION ( 'NONE',  ( -3.491481338843133355E-15, 1.224646799147353207E-16, -1.000000000000000000 ) ) ;
#77 = DIRECTION ( 'NONE',  ( -4.275831445896958607E-31, -1.000000000000000000, -1.224646799147353207E-16 ) ) ;
#78 = CC_DESIGN_PERSON_AND_ORGANIZATION_ASSIGNMENT ( #230, #313, ( #179 ) ) ;
#79 = CARTESIAN_POINT ( 'NONE',  ( 0.0000000000000000000, 0.0000000000000000000, 0.0000000000000000000 ) ) ;
#80 = ORIENTED_EDGE ( 'NONE', *, *, #292, .T. ) ;
#81 = DIRECTION ( 'NONE',  ( 0.0000000000000000000, 0.0000000000000000000, 1.000000000000000000 ) ) ;
#82 = ORIENTED_EDGE ( 'NONE', *, *, #292, .F. ) ;
#83 = COORDINATED_UNIVERSAL_TIME_OFFSET ( 1, 0, .AHEAD. ) ;
#84 = AXIS2_PLACEMENT_3D ( 'NONE', #200, #308, #245 ) ;
#85 = LOCAL_TIME ( 9, 52, 11.00000000000000000, #83 ) ;
#86 = DIRECTION ( 'NONE',  ( 4.275831445896958607E-31, 1.000000000000000000, 1.224646799147353207E-16 ) ) ;
#87 = PERSON_AND_ORGANIZATION_ROLE ( 'creator' ) ;
#88 = ORIENTED_EDGE ( 'NONE', *, *, #97, .T. ) ;
#89 = EDGE_LOOP ( 'NONE', ( #82, #320, #287, #214 ) ) ;
#90 = DATE_TIME_ROLE ( 'classification_date' ) ;
#91 = ORIENTED_EDGE ( 'NONE', *, *, #97, .F. ) ;
#92 = EDGE_LOOP ( 'NONE', ( #317, #257, #35, #136 ) ) ;
#93 = PERSON_AND_ORGANIZATION_ROLE ( 'classification_officer' ) ;
#94 = ORIENTED_EDGE ( 'NONE', *, *, #282, .T. ) ;
#95 = ORIENTED_EDGE ( 'NONE', *, *, #168, .T. ) ;
#96 = CARTESIAN_POINT ( 'NONE',  ( 7.332110811570580046E-14, -2.571758278209441661E-15, 21.00000000000000000 ) ) ;
#97 = EDGE_CURVE ( 'NONE', #119, #291, #305, .T. ) ;
#98 = DIRECTION ( 'NONE',  ( 3.491481338843133355E-15, -1.224646799147353207E-16, 1.000000000000000000 ) ) ;
#99 = DIRECTION ( 'NONE',  ( 0.0000000000000000000, 1.000000000000000000, 0.0000000000000000000 ) ) ;
#100 = CARTESIAN_POINT ( 'NONE',  ( 5.874102188025334562E-15, -2.799999999999992273, 1.682409733277182129 ) ) ;
#101 = CARTESIAN_POINT ( 'NONE',  ( 5.874102188025336140E-15, -2.060357694712254147E-16, 1.682409733277182573 ) ) ;
#102 =( NAMED_UNIT ( * ) PLANE_ANGLE_UNIT ( ) SI_UNIT ( $, .RADIAN. ) );
#103 = AXIS2_PLACEMENT_3D ( 'NONE', #96, #194, #142 ) ;
#104 = AXIS2_PLACEMENT_3D ( 'NONE', #75, #220, #199 ) ;
#105 = EDGE_CURVE ( 'NONE', #291, #218, #118, .T. ) ;
#106 = FACE_OUTER_BOUND ( 'NONE', #174, .T. ) ;
#107 = ADVANCED_FACE ( 'NONE', ( #106 ), #207, .T. ) ;
#108 = CARTESIAN_POINT ( 'NONE',  ( 0.0000000000000000000, 0.0000000000000000000, 0.0000000000000000000 ) ) ;
#109 = CARTESIAN_POINT ( 'NONE',  ( 3.429011037612569061E-16, -2.799999999999993605, -3.429011037612592727E-16 ) ) ;
#110 = PERSON_AND_ORGANIZATION ( #236, #60 ) ;
#111 = VERTEX_POINT ( 'NONE', #63 ) ;
#112 = APPROVAL ( #152, 'UNSPECIFIED' ) ;
#113 = APPROVAL_STATUS ( 'not_yet_approved' ) ;
#114 = CARTESIAN_POINT ( 'NONE',  ( 2.283428795603408836E-13, -8.009190066423689102E-15, 65.40000000000000568 ) ) ;
#115 = VERTEX_POINT ( 'NONE', #187 ) ;
#116 = CALENDAR_DATE ( 2021, 3, 9 ) ;
#117 = ADVANCED_FACE ( 'NONE', ( #30 ), #261, .T. ) ;
#118 = CIRCLE ( 'NONE', #140, 2.799999999999992273 ) ;
#119 = VERTEX_POINT ( 'NONE', #27 ) ;
#120 = PRODUCT ( '54596', '54596', '', ( #310 ) ) ;
#121 = ORIENTED_EDGE ( 'NONE', *, *, #12, .T. ) ;
#122 = DIRECTION ( 'NONE',  ( -3.491481338843133355E-15, 1.224646799147353207E-16, -1.000000000000000000 ) ) ;
#123 = FACE_OUTER_BOUND ( 'NONE', #297, .T. ) ;
#124 = DIRECTION ( 'NONE',  ( 1.903218546456022717E-15, 0.8571673007021097801, 0.5150380749100585964 ) ) ;
#125 = LOCAL_TIME ( 9, 52, 11.00000000000000000, #28 ) ;
#126 = DIRECTION ( 'NONE',  ( -3.491481338843133355E-15, 1.224646799147353207E-16, -1.000000000000000000 ) ) ;
#127 = DIRECTION ( 'NONE',  ( -2.382254525458724175E-15, -0.7071067811865451302, -0.7071067811865499042 ) ) ;
#128 = EDGE_CURVE ( 'NONE', #26, #41, #69, .T. ) ;
#129 = PERSON_AND_ORGANIZATION ( #236, #60 ) ;
#130 = AXIS2_PLACEMENT_3D ( 'NONE', #330, #249, #333 ) ;
#131 = DIRECTION ( 'NONE',  ( -3.491481338843133355E-15, 1.224646799147353207E-16, -1.000000000000000000 ) ) ;
#132 = DIRECTION ( 'NONE',  ( 1.000000000000000000, 0.0000000000000000000, 0.0000000000000000000 ) ) ;
#133 = CALENDAR_DATE ( 2021, 3, 9 ) ;
#134 = FACE_OUTER_BOUND ( 'NONE', #42, .T. ) ;
#135 = PLANE ( 'NONE',  #181 ) ;
#136 = ORIENTED_EDGE ( 'NONE', *, *, #128, .F. ) ;
#137 = AXIS2_PLACEMENT_3D ( 'NONE', #79, #157, #64 ) ;
#138 = EDGE_CURVE ( 'NONE', #111, #291, #242, .T. ) ;
#139 = PERSON_AND_ORGANIZATION ( #236, #60 ) ;
#140 = AXIS2_PLACEMENT_3D ( 'NONE', #154, #210, #23 ) ;
#141 = ORIENTED_EDGE ( 'NONE', *, *, #209, .T. ) ;
#142 = DIRECTION ( 'NONE',  ( 0.0000000000000000000, 1.000000000000000000, 0.0000000000000000000 ) ) ;
#143 = DIRECTION ( 'NONE',  ( 0.0000000000000000000, 1.000000000000000000, 0.0000000000000000000 ) ) ;
#144 = CARTESIAN_POINT ( 'NONE',  ( 1.511748949417845739E-13, -2.799999999999997158, 21.00000000000000000 ) ) ;
#145 = CARTESIAN_POINT ( 'NONE',  ( 3.429011037612573992E-16, -2.799999999999997158, -3.429011037612597658E-16 ) ) ;
#146 = DIRECTION ( 'NONE',  ( 0.0000000000000000000, 1.000000000000000000, 0.0000000000000000000 ) ) ;
#147 = CIRCLE ( 'NONE', #7, 2.799999999999994937 ) ;
#148 = CYLINDRICAL_SURFACE ( 'NONE', #130, 2.799999999999993605 ) ;
#149 = CARTESIAN_POINT ( 'NONE',  ( 7.332110811570580046E-14, 2.099663695726592988E-32, 21.00000000000000000 ) ) ;
#150 =( NAMED_UNIT ( * ) SI_UNIT ( $, .STERADIAN. ) SOLID_ANGLE_UNIT ( ) );
#151 = APPROVAL_PERSON_ORGANIZATION ( #288, #296, #215 ) ;
#152 = APPROVAL_STATUS ( 'not_yet_approved' ) ;
#153 = VERTEX_POINT ( 'NONE', #165 ) ;
#154 = CARTESIAN_POINT ( 'NONE',  ( 5.874102188025336140E-15, -2.060357694712254147E-16, 1.682409733277182573 ) ) ;
#155 = CARTESIAN_POINT ( 'NONE',  ( 2.304377683636468267E-13, 1.649735760928031600E-32, 66.00000000000000000 ) ) ;
#156 = ORIENTED_EDGE ( 'NONE', *, *, #282, .F. ) ;
#157 = DIRECTION ( 'NONE',  ( -3.491481338843133355E-15, 1.224646799147353207E-16, -1.000000000000000000 ) ) ;
#158 = CIRCLE ( 'NONE', #103, 2.799999999999994937 ) ;
#159 = AXIS2_PLACEMENT_3D ( 'NONE', #108, #81, #132 ) ;
#160 = EDGE_CURVE ( 'NONE', #258, #239, #32, .T. ) ;
#161 = ORIENTED_EDGE ( 'NONE', *, *, #138, .T. ) ;
#162 = LOCAL_TIME ( 9, 52, 11.00000000000000000, #323 ) ;
#163 = CC_DESIGN_DATE_AND_TIME_ASSIGNMENT ( #11, #90, ( #206 ) ) ;
#164 = PERSON_AND_ORGANIZATION_ROLE ( 'design_supplier' ) ;
#165 = CARTESIAN_POINT ( 'NONE',  ( 7.332110811570580046E-14, 2.799999999999992273, 21.00000000000000000 ) ) ;
#166 = PRODUCT_DEFINITION_SHAPE ( 'NONE', 'NONE',  #179 ) ;
#167 = CARTESIAN_POINT ( 'NONE',  ( 2.304377683636468267E-13, -8.082668874372532400E-15, 66.00000000000000000 ) ) ;
#168 = EDGE_CURVE ( 'NONE', #119, #115, #158, .T. ) ;
#169 = DIRECTION ( 'NONE',  ( 5.502656983963546273E-31, 1.000000000000000000, 1.548860246407867774E-16 ) ) ;
#170 = FACE_OUTER_BOUND ( 'NONE', #92, .T. ) ;
#171 = PLANE ( 'NONE',  #289 ) ;
#172 = ADVANCED_FACE ( 'NONE', ( #14 ), #171, .F. ) ;
#173 = DIRECTION ( 'NONE',  ( 3.491481338843133355E-15, -1.224646799147353207E-16, 1.000000000000000000 ) ) ;
#174 = EDGE_LOOP ( 'NONE', ( #91, #95, #74, #177 ) ) ;
#175 = CALENDAR_DATE ( 2021, 3, 9 ) ;
#176 = EDGE_LOOP ( 'NONE', ( #312, #183 ) ) ;
#177 = ORIENTED_EDGE ( 'NONE', *, *, #105, .F. ) ;
#178 = DATE_AND_TIME ( #62, #85 ) ;
#179 = PRODUCT_DEFINITION ( 'UNKNOWN', '', #309, #307 ) ;
#180 = AXIS2_PLACEMENT_3D ( 'NONE', #101, #76, #169 ) ;
#181 = AXIS2_PLACEMENT_3D ( 'NONE', #155, #234, #58 ) ;
#182 = PERSON_AND_ORGANIZATION ( #236, #60 ) ;
#183 = ORIENTED_EDGE ( 'NONE', *, *, #168, .F. ) ;
#184 = APPROVAL_ROLE ( '' ) ;
#185 = CIRCLE ( 'NONE', #45, 2.799999999999994937 ) ;
#186 = CONICAL_SURFACE ( 'NONE', #335, 2.799999999999992273, 1.029744258676649649 ) ;
#187 = CARTESIAN_POINT ( 'NONE',  ( 7.332110811570580046E-14, 2.799999999999992273, 21.00000000000000000 ) ) ;
#188 = MANIFOLD_SOLID_BREP ( 'Corps-Déplacer/Copier1[2]', #334 ) ;
#189 = CC_DESIGN_PERSON_AND_ORGANIZATION_ASSIGNMENT ( #182, #250, ( #120 ) ) ;
#190 = AXIS2_PLACEMENT_3D ( 'NONE', #114, #267, #272 ) ;
#191 = VECTOR ( 'NONE', #277, 1000.000000000000000 ) ;
#192 = ORIENTED_EDGE ( 'NONE', *, *, #332, .F. ) ;
#193 = ORIENTED_EDGE ( 'NONE', *, *, #295, .T. ) ;
#194 = DIRECTION ( 'NONE',  ( -3.491481338843133355E-15, 1.224646799147353207E-16, -1.000000000000000000 ) ) ;
#195 = EDGE_CURVE ( 'NONE', #153, #37, #185, .T. ) ;
#196 = ORIENTED_EDGE ( 'NONE', *, *, #73, .T. ) ;
#197 = DIRECTION ( 'NONE',  ( 1.798245827342160317E-15, -0.8571673007021098911, 0.5150380749100582634 ) ) ;
#198 = CIRCLE ( 'NONE', #104, 2.200000000000000622 ) ;
#199 = DIRECTION ( 'NONE',  ( 0.0000000000000000000, 1.000000000000000000, 0.0000000000000000000 ) ) ;
#200 = CARTESIAN_POINT ( 'NONE',  ( 7.332110811570580046E-14, -2.571758278209441661E-15, 21.00000000000000000 ) ) ;
#201 = DIRECTION ( 'NONE',  ( 3.491481338843133355E-15, -1.224646799147353207E-16, 1.000000000000000000 ) ) ;
#202 = ADVANCED_FACE ( 'NONE', ( #123 ), #186, .T. ) ;
#203 = LINE ( 'NONE', #145, #290 ) ;
#204 = VECTOR ( 'NONE', #226, 1000.000000000000000 ) ;
#205 = CARTESIAN_POINT ( 'NONE',  ( 1.197232804851147324E-30, 2.799999999999997158, 3.429011037612585332E-16 ) ) ;
#206 = SECURITY_CLASSIFICATION ( '', '', #325 ) ;
#207 = CYLINDRICAL_SURFACE ( 'NONE', #293, 2.799999999999993605 ) ;
#208 = DIRECTION ( 'NONE',  ( -5.502656983963546273E-31, -1.000000000000000000, -1.548860246407867774E-16 ) ) ;
#209 = EDGE_CURVE ( 'NONE', #258, #26, #271, .T. ) ;
#210 = DIRECTION ( 'NONE',  ( -3.491481338843133355E-15, 1.224646799147353207E-16, -1.000000000000000000 ) ) ;
#211 = APPROVAL_PERSON_ORGANIZATION ( #31, #112, #256 ) ;
#212 = ADVANCED_FACE ( 'NONE', ( #241 ), #21, .T. ) ;
#213 = ORIENTED_EDGE ( 'NONE', *, *, #160, .F. ) ;
#214 = ORIENTED_EDGE ( 'NONE', *, *, #73, .F. ) ;
#215 = APPROVAL_ROLE ( '' ) ;
#216 = APPROVAL ( #228, 'UNSPECIFIED' ) ;
#217 = CC_DESIGN_APPROVAL ( #296, ( #206 ) ) ;
#218 = VERTEX_POINT ( 'NONE', #72 ) ;
#219 = CARTESIAN_POINT ( 'NONE',  ( 2.304377683636468267E-13, 2.199999999999992184, 66.00000000000000000 ) ) ;
#220 = DIRECTION ( 'NONE',  ( -3.491481338843133355E-15, 1.224646799147353207E-16, -1.000000000000000000 ) ) ;
#221 = AXIS2_PLACEMENT_3D ( 'NONE', #274, #336, #99 ) ;
#222 = AXIS2_PLACEMENT_3D ( 'NONE', #5, #34, #208 ) ;
#223 = CARTESIAN_POINT ( 'NONE',  ( 2.283428795603408836E-13, -8.009190066423689102E-15, 65.40000000000000568 ) ) ;
#224 = DIRECTION ( 'NONE',  ( -5.502656983963546273E-31, -1.000000000000000000, -1.548860246407867774E-16 ) ) ;
#225 = CC_DESIGN_PERSON_AND_ORGANIZATION_ASSIGNMENT ( #139, #93, ( #206 ) ) ;
#226 = DIRECTION ( 'NONE',  ( -3.491481338843133355E-15, 1.224646799147353207E-16, -1.000000000000000000 ) ) ;
#227 = CARTESIAN_POINT ( 'NONE',  ( 7.332110811570580046E-14, 2.099663695726592988E-32, 21.00000000000000000 ) ) ;
#228 = APPROVAL_STATUS ( 'not_yet_approved' ) ;
#229 = ADVANCED_FACE ( 'NONE', ( #275 ), #54, .T. ) ;
#230 = PERSON_AND_ORGANIZATION ( #236, #60 ) ;
#231 = ORIENTED_EDGE ( 'NONE', *, *, #314, .T. ) ;
#232 = DATE_AND_TIME ( #133, #125 ) ;
#233 = ORIENTED_EDGE ( 'NONE', *, *, #295, .F. ) ;
#234 = DIRECTION ( 'NONE',  ( -3.491481338843133355E-15, 1.224646799147353207E-16, -1.000000000000000000 ) ) ;
#235 = EDGE_CURVE ( 'NONE', #239, #41, #52, .T. ) ;
#236 = PERSON ( 'UNSPECIFIED', 'UNSPECIFIED', 'UNSPECIFIED', ('UNSPECIFIED'), ('UNSPECIFIED'), ('UNSPECIFIED') ) ;
#237 = CONICAL_SURFACE ( 'NONE', #222, 2.799999999999992273, 1.029744258676649649 ) ;
#238 = AXIS2_PLACEMENT_3D ( 'NONE', #337, #122, #47 ) ;
#239 = VERTEX_POINT ( 'NONE', #219 ) ;
#240 = VECTOR ( 'NONE', #20, 1000.000000000000000 ) ;
#241 = FACE_OUTER_BOUND ( 'NONE', #176, .T. ) ;
#242 = LINE ( 'NONE', #100, #53 ) ;
#243 = LINE ( 'NONE', #17, #327 ) ;
#244 = ADVANCED_FACE ( 'NONE', ( #300 ), #148, .T. ) ;
#245 = DIRECTION ( 'NONE',  ( 0.0000000000000000000, 1.000000000000000000, 0.0000000000000000000 ) ) ;
#246 = AXIS2_PLACEMENT_3D ( 'NONE', #44, #61, #56 ) ;
#247 = DIRECTION ( 'NONE',  ( 0.0000000000000000000, 1.000000000000000000, 0.0000000000000000000 ) ) ;
#248 = LINE ( 'NONE', #19, #204 ) ;
#249 = DIRECTION ( 'NONE',  ( -3.491481338843133355E-15, 1.224646799147353207E-16, -1.000000000000000000 ) ) ;
#250 = PERSON_AND_ORGANIZATION_ROLE ( 'design_owner' ) ;
#251 = EDGE_CURVE ( 'NONE', #239, #258, #198, .T. ) ;
#252 = CARTESIAN_POINT ( 'NONE',  ( 0.0000000000000000000, 0.0000000000000000000, 0.0000000000000000000 ) ) ;
#253 = CIRCLE ( 'NONE', #84, 2.799999999999994937 ) ;
#254 = APPROVAL_DATE_TIME ( #278, #216 ) ;
#255 = UNCERTAINTY_MEASURE_WITH_UNIT (LENGTH_MEASURE( 1.000000000000000082E-05 ), #262, 'distance_accuracy_value', 'NONE');
#256 = APPROVAL_ROLE ( '' ) ;
#257 = ORIENTED_EDGE ( 'NONE', *, *, #160, .T. ) ;
#258 = VERTEX_POINT ( 'NONE', #302 ) ;
#259 = APPLICATION_CONTEXT ( 'configuration controlled 3d designs of mechanical parts and assemblies' ) ;
#260 = APPLICATION_PROTOCOL_DEFINITION ( 'international standard', 'config_control_design', 1994, #70 ) ;
#261 = CYLINDRICAL_SURFACE ( 'NONE', #246, 2.799999999999997158 ) ;
#262 =( LENGTH_UNIT ( ) NAMED_UNIT ( * ) SI_UNIT ( .MILLI., .METRE. ) );
#263 = AXIS2_PLACEMENT_3D ( 'NONE', #167, #15, #143 ) ;
#264 = EDGE_LOOP ( 'NONE', ( #283, #196 ) ) ;
#265 = VECTOR ( 'NONE', #127, 1000.000000000000114 ) ;
#266 = SHAPE_DEFINITION_REPRESENTATION ( #166, #40 ) ;
#267 = DIRECTION ( 'NONE',  ( -3.491481338843133355E-15, 1.224646799147353207E-16, -1.000000000000000000 ) ) ;
#268 = ORIENTED_EDGE ( 'NONE', *, *, #138, .F. ) ;
#269 = CARTESIAN_POINT ( 'NONE',  ( 2.307071906594592390E-13, -2.200000000000008615, 66.00000000000000000 ) ) ;
#270 = CONICAL_SURFACE ( 'NONE', #221, 2.200000000000000622, 0.7853981633974450594 ) ;
#271 = LINE ( 'NONE', #269, #265 ) ;
#272 = DIRECTION ( 'NONE',  ( 0.0000000000000000000, 1.000000000000000000, 0.0000000000000000000 ) ) ;
#273 = DIRECTION ( 'NONE',  ( -3.491481338843133355E-15, 1.224646799147353207E-16, -1.000000000000000000 ) ) ;
#274 = CARTESIAN_POINT ( 'NONE',  ( 2.304377683636468267E-13, -8.082668874372532400E-15, 66.00000000000000000 ) ) ;
#275 = FACE_OUTER_BOUND ( 'NONE', #13, .T. ) ;
#276 = APPROVAL_PERSON_ORGANIZATION ( #129, #216, #184 ) ;
#277 = DIRECTION ( 'NONE',  ( -2.468850131082272838E-15, 0.7071067811865453523, -0.7071067811865496822 ) ) ;
#278 = DATE_AND_TIME ( #175, #33 ) ;
#279 = CC_DESIGN_PERSON_AND_ORGANIZATION_ASSIGNMENT ( #284, #164, ( #309 ) ) ;
#280 = FACE_OUTER_BOUND ( 'NONE', #3, .T. ) ;
#281 = CIRCLE ( 'NONE', #8, 2.799999999999999822 ) ;
#282 = EDGE_CURVE ( 'NONE', #218, #291, #322, .T. ) ;
#283 = ORIENTED_EDGE ( 'NONE', *, *, #195, .T. ) ;
#284 = PERSON_AND_ORGANIZATION ( #236, #60 ) ;
#285 = CC_DESIGN_DATE_AND_TIME_ASSIGNMENT ( #178, #286, ( #179 ) ) ;
#286 = DATE_TIME_ROLE ( 'creation_date' ) ;
#287 = ORIENTED_EDGE ( 'NONE', *, *, #332, .T. ) ;
#288 = PERSON_AND_ORGANIZATION ( #236, #60 ) ;
#289 = AXIS2_PLACEMENT_3D ( 'NONE', #149, #173, #77 ) ;
#290 = VECTOR ( 'NONE', #126, 1000.000000000000000 ) ;
#291 = VERTEX_POINT ( 'NONE', #49 ) ;
#292 = EDGE_CURVE ( 'NONE', #26, #37, #203, .T. ) ;
#293 = AXIS2_PLACEMENT_3D ( 'NONE', #252, #131, #86 ) ;
#294 = CC_DESIGN_APPROVAL ( #216, ( #179 ) ) ;
#295 = EDGE_CURVE ( 'NONE', #111, #218, #243, .T. ) ;
#296 = APPROVAL ( #113, 'UNSPECIFIED' ) ;
#297 = EDGE_LOOP ( 'NONE', ( #233, #161, #328 ) ) ;
#298 = CARTESIAN_POINT ( 'NONE',  ( 5.874102188025336140E-15, -2.060357694712254147E-16, 1.682409733277182573 ) ) ;
#299 = ORIENTED_EDGE ( 'NONE', *, *, #251, .T. ) ;
#300 = FACE_OUTER_BOUND ( 'NONE', #22, .T. ) ;
#301 = CLOSED_SHELL ( 'NONE', ( #229, #315, #172, #117, #39, #324 ) ) ;
#302 = CARTESIAN_POINT ( 'NONE',  ( 2.296964856617806804E-13, -2.200000000000008615, 66.00000000000000000 ) ) ;
#303 = MANIFOLD_SOLID_BREP ( 'Corps-Déplacer/Copier1[1]', #301 ) ;
#304 = DIRECTION ( 'NONE',  ( -3.491481338843133355E-15, 1.224646799147353207E-16, -1.000000000000000000 ) ) ;
#305 = LINE ( 'NONE', #109, #240 ) ;
#306 = CYLINDRICAL_SURFACE ( 'NONE', #137, 2.799999999999997158 ) ;
#307 = DESIGN_CONTEXT ( 'detailed design', #259, 'design' ) ;
#308 = DIRECTION ( 'NONE',  ( -3.491481338843133355E-15, 1.224646799147353207E-16, -1.000000000000000000 ) ) ;
#309 = PRODUCT_DEFINITION_FORMATION_WITH_SPECIFIED_SOURCE ( 'ANY', '', #120, .NOT_KNOWN. ) ;
#310 = MECHANICAL_CONTEXT ( 'NONE', #70, 'mechanical' ) ;
#311 = COORDINATED_UNIVERSAL_TIME_OFFSET ( 1, 0, .AHEAD. ) ;
#312 = ORIENTED_EDGE ( 'NONE', *, *, #12, .F. ) ;
#313 = PERSON_AND_ORGANIZATION_ROLE ( 'creator' ) ;
#314 = EDGE_CURVE ( 'NONE', #41, #26, #281, .T. ) ;
#315 = ADVANCED_FACE ( 'NONE', ( #18 ), #306, .T. ) ;
#316 = CC_DESIGN_APPROVAL ( #112, ( #309 ) ) ;
#317 = ORIENTED_EDGE ( 'NONE', *, *, #209, .F. ) ;
#318 = DIRECTION ( 'NONE',  ( -3.491481338843133355E-15, 1.224646799147353207E-16, -1.000000000000000000 ) ) ;
#319 = DIRECTION ( 'NONE',  ( -3.491481338843133355E-15, 1.224646799147353207E-16, -1.000000000000000000 ) ) ;
#320 = ORIENTED_EDGE ( 'NONE', *, *, #128, .T. ) ;
#321 = ADVANCED_FACE ( 'NONE', ( #134 ), #237, .T. ) ;
#322 = CIRCLE ( 'NONE', #180, 2.799999999999992273 ) ;
#323 = COORDINATED_UNIVERSAL_TIME_OFFSET ( 1, 0, .AHEAD. ) ;
#324 = ADVANCED_FACE ( 'NONE', ( #280 ), #135, .F. ) ;
#325 = SECURITY_CLASSIFICATION_LEVEL ( 'unclassified' ) ;
#326 = CC_DESIGN_PERSON_AND_ORGANIZATION_ASSIGNMENT ( #110, #87, ( #309 ) ) ;
#327 = VECTOR ( 'NONE', #124, 999.9999999999998863 ) ;
#328 = ORIENTED_EDGE ( 'NONE', *, *, #105, .T. ) ;
#329 = EDGE_LOOP ( 'NONE', ( #231, #80, #65, #192 ) ) ;
#330 = CARTESIAN_POINT ( 'NONE',  ( 0.0000000000000000000, 0.0000000000000000000, 0.0000000000000000000 ) ) ;
#331 = ORIENTED_EDGE ( 'NONE', *, *, #50, .F. ) ;
#332 = EDGE_CURVE ( 'NONE', #41, #153, #57, .T. ) ;
#333 = DIRECTION ( 'NONE',  ( 4.275831445896958607E-31, 1.000000000000000000, 1.224646799147353207E-16 ) ) ;
#334 = CLOSED_SHELL ( 'NONE', ( #244, #321, #202, #107, #212 ) ) ;
#335 = AXIS2_PLACEMENT_3D ( 'NONE', #298, #201, #224 ) ;
#336 = DIRECTION ( 'NONE',  ( -3.491481338843133355E-15, 1.224646799147353207E-16, -1.000000000000000000 ) ) ;
#337 = CARTESIAN_POINT ( 'NONE',  ( 2.304377683636468267E-13, -8.082668874372532400E-15, 66.00000000000000000 ) ) ;
ENDSEC;
END-ISO-10303-21;
