ISO-10303-21;
HEADER;
FILE_DESCRIPTION (( 'STEP AP203' ),
    '1' );
FILE_NAME ('54595.step',
    '2021-09-03T07:52:07',
    ( '' ),
    ( '' ),
    'SwSTEP 2.0',
    'SolidWorks 2019',
    '' );
FILE_SCHEMA (( 'CONFIG_CONTROL_DESIGN' ));
ENDSEC;

DATA;
#1 = ORIENTED_EDGE ( 'NONE', *, *, #229, .T. ) ;
#2 = CYLINDRICAL_SURFACE ( 'NONE', #274, 2.749999999999993339 ) ;
#3 = VECTOR ( 'NONE', #218, 1000.000000000000114 ) ;
#4 = CC_DESIGN_APPROVAL ( #53, ( #129 ) ) ;
#5 = AXIS2_PLACEMENT_3D ( 'NONE', #133, #76, #7 ) ;
#6 = DIRECTION ( 'NONE',  ( 4.275831445896958607E-31, 1.000000000000000000, 1.224646799147353454E-16 ) ) ;
#7 = DIRECTION ( 'NONE',  ( 0.0000000000000000000, 1.000000000000000000, 0.0000000000000000000 ) ) ;
#8 = AXIS2_PLACEMENT_3D ( 'NONE', #308, #104, #155 ) ;
#9 = EDGE_CURVE ( 'NONE', #324, #273, #138, .T. ) ;
#10 = EDGE_LOOP ( 'NONE', ( #282, #295, #224 ) ) ;
#11 = APPROVAL_STATUS ( 'not_yet_approved' ) ;
#12 = ORIENTED_EDGE ( 'NONE', *, *, #320, .F. ) ;
#13 = PERSON_AND_ORGANIZATION_ROLE ( 'creator' ) ;
#14 = ORIENTED_EDGE ( 'NONE', *, *, #157, .F. ) ;
#15 = CALENDAR_DATE ( 2021, 3, 9 ) ;
#16 = AXIS2_PLACEMENT_3D ( 'NONE', #259, #71, #23 ) ;
#17 = LINE ( 'NONE', #92, #225 ) ;
#18 = ORIENTED_EDGE ( 'NONE', *, *, #277, .F. ) ;
#19 = PERSON_AND_ORGANIZATION ( #192, #284 ) ;
#20 = DIRECTION ( 'NONE',  ( 4.275831445896958607E-31, 1.000000000000000000, 1.224646799147352961E-16 ) ) ;
#21 = CC_DESIGN_APPROVAL ( #105, ( #171 ) ) ;
#22 = CARTESIAN_POINT ( 'NONE',  ( 7.332110811570580046E-14, -2.571758278209441661E-15, 21.00000000000000000 ) ) ;
#23 = DIRECTION ( 'NONE',  ( 5.602705292762884417E-31, 1.000000000000000000, 1.577021341797101998E-16 ) ) ;
#24 = DIRECTION ( 'NONE',  ( 3.491481338843133355E-15, -1.224646799147353207E-16, 1.000000000000000000 ) ) ;
#25 = CARTESIAN_POINT ( 'NONE',  ( 2.304377683636468267E-13, -8.082668874372532400E-15, 66.00000000000000000 ) ) ;
#26 =( NAMED_UNIT ( * ) SI_UNIT ( $, .STERADIAN. ) SOLID_ANGLE_UNIT ( ) );
#27 = CIRCLE ( 'NONE', #70, 2.749999999999994671 ) ;
#28 = CARTESIAN_POINT ( 'NONE',  ( 2.283428795603408836E-13, -8.009190066423689102E-15, 65.40000000000000568 ) ) ;
#29 = CARTESIAN_POINT ( 'NONE',  ( 5.769207506096310153E-15, -2.749999999999992006, 1.652366702325803738 ) ) ;
#30 = CC_DESIGN_DATE_AND_TIME_ASSIGNMENT ( #117, #141, ( #171 ) ) ;
#31 = DIRECTION ( 'NONE',  ( -3.491481338843133355E-15, 1.224646799147353207E-16, -1.000000000000000000 ) ) ;
#32 = CC_DESIGN_PERSON_AND_ORGANIZATION_ASSIGNMENT ( #334, #124, ( #171 ) ) ;
#33 = APPLICATION_PROTOCOL_DEFINITION ( 'international standard', 'config_control_design', 1994, #226 ) ;
#34 = DIRECTION ( 'NONE',  ( -3.491481338843133355E-15, 1.224646799147353207E-16, -1.000000000000000000 ) ) ;
#35 = VERTEX_POINT ( 'NONE', #186 ) ;
#36 = DIRECTION ( 'NONE',  ( -2.468850131082272838E-15, 0.7071067811865453523, -0.7071067811865496822 ) ) ;
#37 = COORDINATED_UNIVERSAL_TIME_OFFSET ( 1, 0, .AHEAD. ) ;
#38 = CARTESIAN_POINT ( 'NONE',  ( 3.367778697655206713E-16, -2.749999999999997335, -3.367778697655229393E-16 ) ) ;
#39 = COORDINATED_UNIVERSAL_TIME_OFFSET ( 1, 0, .AHEAD. ) ;
#40 = DIRECTION ( 'NONE',  ( -5.602705292762884417E-31, -1.000000000000000000, -1.577021341797101998E-16 ) ) ;
#41 = DATE_TIME_ROLE ( 'classification_date' ) ;
#42 = AXIS2_PLACEMENT_3D ( 'NONE', #25, #182, #316 ) ;
#43 = VERTEX_POINT ( 'NONE', #260 ) ;
#44 = CC_DESIGN_DATE_AND_TIME_ASSIGNMENT ( #245, #41, ( #129 ) ) ;
#45 = ORIENTED_EDGE ( 'NONE', *, *, #96, .F. ) ;
#46 = EDGE_CURVE ( 'NONE', #190, #126, #311, .T. ) ;
#47 = CARTESIAN_POINT ( 'NONE',  ( 6.105985375861834177E-15, 2.749999999999992006, 1.652366702325804626 ) ) ;
#48 = AXIS2_PLACEMENT_3D ( 'NONE', #142, #123, #222 ) ;
#49 = ORIENTED_EDGE ( 'NONE', *, *, #313, .F. ) ;
#50 = EDGE_LOOP ( 'NONE', ( #58, #170, #87, #241 ) ) ;
#51 = CARTESIAN_POINT ( 'NONE',  ( 0.0000000000000000000, 0.0000000000000000000, 0.0000000000000000000 ) ) ;
#52 = CIRCLE ( 'NONE', #59, 2.749999999999992006 ) ;
#53 = APPROVAL ( #11, 'UNSPECIFIED' ) ;
#54 = PLANE ( 'NONE',  #177 ) ;
#55 = DIRECTION ( 'NONE',  ( 0.0000000000000000000, 1.000000000000000000, 0.0000000000000000000 ) ) ;
#56 = AXIS2_PLACEMENT_3D ( 'NONE', #64, #271, #40 ) ;
#57 = APPROVAL_STATUS ( 'not_yet_approved' ) ;
#58 = ORIENTED_EDGE ( 'NONE', *, *, #9, .F. ) ;
#59 = AXIS2_PLACEMENT_3D ( 'NONE', #79, #321, #235 ) ;
#60 = SECURITY_CLASSIFICATION_LEVEL ( 'unclassified' ) ;
#61 = LINE ( 'NONE', #38, #114 ) ;
#62 = ORIENTED_EDGE ( 'NONE', *, *, #277, .T. ) ;
#63 = PERSON_AND_ORGANIZATION ( #192, #284 ) ;
#64 = CARTESIAN_POINT ( 'NONE',  ( 5.769207506096311731E-15, -2.023565593020963612E-16, 1.652366702325804182 ) ) ;
#65 = APPROVAL_STATUS ( 'not_yet_approved' ) ;
#66 = CARTESIAN_POINT ( 'NONE',  ( 0.0000000000000000000, 0.0000000000000000000, 0.0000000000000000000 ) ) ;
#67 = VECTOR ( 'NONE', #279, 1000.000000000000000 ) ;
#68 = ORIENTED_EDGE ( 'NONE', *, *, #236, .F. ) ;
#69 = ORIENTED_EDGE ( 'NONE', *, *, #323, .T. ) ;
#70 = AXIS2_PLACEMENT_3D ( 'NONE', #22, #98, #200 ) ;
#71 = DIRECTION ( 'NONE',  ( -3.491481338843133355E-15, 1.224646799147353207E-16, -1.000000000000000000 ) ) ;
#72 = FACE_OUTER_BOUND ( 'NONE', #268, .T. ) ;
#73 = LOCAL_TIME ( 9, 52, 7.000000000000000000, #166 ) ;
#74 = MANIFOLD_SOLID_BREP ( 'Corps-Déplacer/Copier1[1]', #239 ) ;
#75 = PLANE ( 'NONE',  #169 ) ;
#76 = DIRECTION ( 'NONE',  ( -3.491481338843133355E-15, 1.224646799147353207E-16, -1.000000000000000000 ) ) ;
#77 = DIRECTION ( 'NONE',  ( -4.275831445896958607E-31, -1.000000000000000000, -1.224646799147353207E-16 ) ) ;
#78 = DIRECTION ( 'NONE',  ( 4.275831445896958607E-31, 1.000000000000000000, 1.224646799147353207E-16 ) ) ;
#79 = CARTESIAN_POINT ( 'NONE',  ( 5.769207506096311731E-15, -2.023565593020963612E-16, 1.652366702325804182 ) ) ;
#80 = VECTOR ( 'NONE', #36, 1000.000000000000000 ) ;
#81 = APPROVAL_PERSON_ORGANIZATION ( #139, #53, #223 ) ;
#82 = DIRECTION ( 'NONE',  ( -3.491481338843133355E-15, 1.224646799147353207E-16, -1.000000000000000000 ) ) ;
#83 = EDGE_CURVE ( 'NONE', #333, #336, #265, .T. ) ;
#84 = CARTESIAN_POINT ( 'NONE',  ( 2.304377683636468267E-13, 1.612241766361484612E-32, 66.00000000000000000 ) ) ;
#85 = DIRECTION ( 'NONE',  ( -3.491481338843133355E-15, 1.224646799147353207E-16, -1.000000000000000000 ) ) ;
#86 = CARTESIAN_POINT ( 'NONE',  ( 7.332110811570580046E-14, 2.062169701160046547E-32, 21.00000000000000000 ) ) ;
#87 = ORIENTED_EDGE ( 'NONE', *, *, #291, .T. ) ;
#88 = PERSON_AND_ORGANIZATION_ROLE ( 'design_supplier' ) ;
#89 = EDGE_LOOP ( 'NONE', ( #14, #201, #62, #247 ) ) ;
#90 = CONICAL_SURFACE ( 'NONE', #131, 2.749999999999992006, 1.029744258676649649 ) ;
#91 = DIRECTION ( 'NONE',  ( 0.0000000000000000000, 0.0000000000000000000, 1.000000000000000000 ) ) ;
#92 = CARTESIAN_POINT ( 'NONE',  ( 5.769207506096310153E-15, -2.749999999999992006, 1.652366702325803738 ) ) ;
#93 = PERSON_AND_ORGANIZATION ( #192, #284 ) ;
#94 = FACE_OUTER_BOUND ( 'NONE', #326, .T. ) ;
#95 = CALENDAR_DATE ( 2021, 3, 9 ) ;
#96 = EDGE_CURVE ( 'NONE', #151, #273, #52, .T. ) ;
#97 = PERSON_AND_ORGANIZATION ( #192, #284 ) ;
#98 = DIRECTION ( 'NONE',  ( -3.491481338843133355E-15, 1.224646799147353207E-16, -1.000000000000000000 ) ) ;
#99 = ORIENTED_EDGE ( 'NONE', *, *, #46, .F. ) ;
#100 = ORIENTED_EDGE ( 'NONE', *, *, #202, .F. ) ;
#101 = PRODUCT ( '54595', '54595', '', ( #193 ) ) ;
#102 = ADVANCED_FACE ( 'NONE', ( #287 ), #54, .F. ) ;
#103 = AXIS2_PLACEMENT_3D ( 'NONE', #161, #91, #125 ) ;
#104 = DIRECTION ( 'NONE',  ( -3.491481338843133355E-15, 1.224646799147353207E-16, -1.000000000000000000 ) ) ;
#105 = APPROVAL ( #65, 'UNSPECIFIED' ) ;
#106 = CARTESIAN_POINT ( 'NONE',  ( 2.296903624277849323E-13, -2.150000000000008793, 66.00000000000000000 ) ) ;
#107 = FACE_OUTER_BOUND ( 'NONE', #10, .T. ) ;
#108 = CONICAL_SURFACE ( 'NONE', #280, 2.150000000000000355, 0.7853981633974450594 ) ;
#109 = CARTESIAN_POINT ( 'NONE',  ( 7.332110811570580046E-14, 2.749999999999992006, 21.00000000000000000 ) ) ;
#110 = DIRECTION ( 'NONE',  ( 0.0000000000000000000, 1.000000000000000000, 0.0000000000000000000 ) ) ;
#111 = DIRECTION ( 'NONE',  ( -3.491481338843133355E-15, 1.224646799147353207E-16, -1.000000000000000000 ) ) ;
#112 = DIRECTION ( 'NONE',  ( 4.275831445896958607E-31, 1.000000000000000000, 1.224646799147352961E-16 ) ) ;
#113 = ADVANCED_FACE ( 'NONE', ( #293 ), #243, .T. ) ;
#114 = VECTOR ( 'NONE', #130, 1000.000000000000000 ) ;
#115 = LOCAL_TIME ( 9, 52, 7.000000000000000000, #248 ) ;
#116 = EDGE_LOOP ( 'NONE', ( #213, #149, #165, #99 ) ) ;
#117 = DATE_AND_TIME ( #242, #73 ) ;
#118 = CARTESIAN_POINT ( 'NONE',  ( 3.367778697655201783E-16, -2.749999999999993339, -3.367778697655224463E-16 ) ) ;
#119 = CARTESIAN_POINT ( 'NONE',  ( 2.307010674254634909E-13, -2.150000000000008793, 66.00000000000000000 ) ) ;
#120 = EDGE_LOOP ( 'NONE', ( #68, #146 ) ) ;
#121 = APPROVAL_PERSON_ORGANIZATION ( #97, #264, #214 ) ;
#122 = DATE_AND_TIME ( #95, #115 ) ;
#123 = DIRECTION ( 'NONE',  ( -3.491481338843133355E-15, 1.224646799147353207E-16, -1.000000000000000000 ) ) ;
#124 = PERSON_AND_ORGANIZATION_ROLE ( 'creator' ) ;
#125 = DIRECTION ( 'NONE',  ( 1.000000000000000000, 0.0000000000000000000, 0.0000000000000000000 ) ) ;
#126 = VERTEX_POINT ( 'NONE', #215 ) ;
#127 = VECTOR ( 'NONE', #319, 1000.000000000000000 ) ;
#128 =( NAMED_UNIT ( * ) PLANE_ANGLE_UNIT ( ) SI_UNIT ( $, .RADIAN. ) );
#129 = SECURITY_CLASSIFICATION ( '', '', #60 ) ;
#130 = DIRECTION ( 'NONE',  ( -3.491481338843133355E-15, 1.224646799147353207E-16, -1.000000000000000000 ) ) ;
#131 = AXIS2_PLACEMENT_3D ( 'NONE', #132, #329, #183 ) ;
#132 = CARTESIAN_POINT ( 'NONE',  ( 5.769207506096311731E-15, -2.023565593020963612E-16, 1.652366702325804182 ) ) ;
#133 = CARTESIAN_POINT ( 'NONE',  ( 2.304377683636468267E-13, -8.082668874372532400E-15, 66.00000000000000000 ) ) ;
#134 = CARTESIAN_POINT ( 'NONE',  ( 1.175853647621662434E-30, 2.749999999999997335, 3.367778697655217560E-16 ) ) ;
#135 = VERTEX_POINT ( 'NONE', #109 ) ;
#136 = PERSON_AND_ORGANIZATION_ROLE ( 'classification_officer' ) ;
#137 = EDGE_CURVE ( 'NONE', #126, #190, #240, .T. ) ;
#138 = LINE ( 'NONE', #118, #67 ) ;
#139 = PERSON_AND_ORGANIZATION ( #192, #284 ) ;
#140 = DIRECTION ( 'NONE',  ( -3.491481338843133355E-15, 1.224646799147353207E-16, -1.000000000000000000 ) ) ;
#141 = DATE_TIME_ROLE ( 'creation_date' ) ;
#142 = CARTESIAN_POINT ( 'NONE',  ( 7.332110811570580046E-14, -2.571758278209441661E-15, 21.00000000000000000 ) ) ;
#143 = AXIS2_PLACEMENT_3D ( 'NONE', #228, #255, #20 ) ;
#144 = ORIENTED_EDGE ( 'NONE', *, *, #157, .T. ) ;
#145 = CARTESIAN_POINT ( 'NONE',  ( 7.332110811570580046E-14, -2.571758278209441661E-15, 21.00000000000000000 ) ) ;
#146 = ORIENTED_EDGE ( 'NONE', *, *, #83, .F. ) ;
#147 = CC_DESIGN_PERSON_AND_ORGANIZATION_ASSIGNMENT ( #272, #88, ( #207 ) ) ;
#148 = CARTESIAN_POINT ( 'NONE',  ( 3.988193568066654462E-14, -2.749999999999997335, 21.00000000000000000 ) ) ;
#149 = ORIENTED_EDGE ( 'NONE', *, *, #83, .T. ) ;
#150 = AXIS2_PLACEMENT_3D ( 'NONE', #312, #85, #233 ) ;
#151 = VERTEX_POINT ( 'NONE', #286 ) ;
#152 = AXIS2_PLACEMENT_3D ( 'NONE', #246, #34, #6 ) ;
#153 = DIRECTION ( 'NONE',  ( 0.0000000000000000000, 1.000000000000000000, 0.0000000000000000000 ) ) ;
#154 = PRODUCT_DEFINITION_SHAPE ( 'NONE', 'NONE',  #171 ) ;
#155 = DIRECTION ( 'NONE',  ( 0.0000000000000000000, 1.000000000000000000, 0.0000000000000000000 ) ) ;
#156 = FACE_OUTER_BOUND ( 'NONE', #89, .T. ) ;
#157 = EDGE_CURVE ( 'NONE', #190, #159, #61, .T. ) ;
#158 = AXIS2_PLACEMENT_3D ( 'NONE', #301, #24, #162 ) ;
#159 = VERTEX_POINT ( 'NONE', #237 ) ;
#160 = ADVANCED_FACE ( 'NONE', ( #234 ), #108, .T. ) ;
#161 = CARTESIAN_POINT ( 'NONE',  ( 0.0000000000000000000, 0.0000000000000000000, 0.0000000000000000000 ) ) ;
#162 = DIRECTION ( 'NONE',  ( -4.275831445896958607E-31, -1.000000000000000000, -1.224646799147353207E-16 ) ) ;
#163 =( GEOMETRIC_REPRESENTATION_CONTEXT ( 3 ) GLOBAL_UNCERTAINTY_ASSIGNED_CONTEXT ( ( #176 ) ) GLOBAL_UNIT_ASSIGNED_CONTEXT ( ( #204, #128, #26 ) ) REPRESENTATION_CONTEXT ( 'NONE', 'WORKASPACE' ) );
#164 = ORIENTED_EDGE ( 'NONE', *, *, #313, .T. ) ;
#165 = ORIENTED_EDGE ( 'NONE', *, *, #202, .T. ) ;
#166 = COORDINATED_UNIVERSAL_TIME_OFFSET ( 1, 0, .AHEAD. ) ;
#167 = CALENDAR_DATE ( 2021, 3, 9 ) ;
#168 = EDGE_CURVE ( 'NONE', #333, #190, #318, .T. ) ;
#169 = AXIS2_PLACEMENT_3D ( 'NONE', #86, #185, #77 ) ;
#170 = ORIENTED_EDGE ( 'NONE', *, *, #320, .T. ) ;
#171 = PRODUCT_DEFINITION ( 'UNKNOWN', '', #207, #257 ) ;
#172 = CYLINDRICAL_SURFACE ( 'NONE', #143, 2.749999999999997335 ) ;
#173 = EDGE_LOOP ( 'NONE', ( #164, #299 ) ) ;
#174 = ADVANCED_FACE ( 'NONE', ( #107 ), #90, .T. ) ;
#175 = ORIENTED_EDGE ( 'NONE', *, *, #291, .F. ) ;
#176 = UNCERTAINTY_MEASURE_WITH_UNIT (LENGTH_MEASURE( 1.000000000000000082E-05 ), #204, 'distance_accuracy_value', 'NONE');
#177 = AXIS2_PLACEMENT_3D ( 'NONE', #84, #82, #78 ) ;
#178 = CC_DESIGN_APPROVAL ( #264, ( #207 ) ) ;
#179 = CC_DESIGN_PERSON_AND_ORGANIZATION_ASSIGNMENT ( #63, #13, ( #207 ) ) ;
#180 = LINE ( 'NONE', #285, #328 ) ;
#181 = CYLINDRICAL_SURFACE ( 'NONE', #298, 2.749999999999997335 ) ;
#182 = DIRECTION ( 'NONE',  ( -3.491481338843133355E-15, 1.224646799147353207E-16, -1.000000000000000000 ) ) ;
#183 = DIRECTION ( 'NONE',  ( -5.602705292762884417E-31, -1.000000000000000000, -1.577021341797101998E-16 ) ) ;
#184 = LOCAL_TIME ( 9, 52, 7.000000000000000000, #294 ) ;
#185 = DIRECTION ( 'NONE',  ( 3.491481338843133355E-15, -1.224646799147353207E-16, 1.000000000000000000 ) ) ;
#186 = CARTESIAN_POINT ( 'NONE',  ( 0.0000000000000000000, 0.0000000000000000000, 0.0000000000000000000 ) ) ;
#187 = MANIFOLD_SOLID_BREP ( 'Corps-Déplacer/Copier1[2]', #198 ) ;
#188 = DIRECTION ( 'NONE',  ( -3.491481338843133355E-15, 1.224646799147353207E-16, -1.000000000000000000 ) ) ;
#189 = LINE ( 'NONE', #331, #80 ) ;
#190 = VERTEX_POINT ( 'NONE', #210 ) ;
#191 = DIRECTION ( 'NONE',  ( 1.798245827342160317E-15, -0.8571673007021098911, 0.5150380749100582634 ) ) ;
#192 = PERSON ( 'UNSPECIFIED', 'UNSPECIFIED', 'UNSPECIFIED', ('UNSPECIFIED'), ('UNSPECIFIED'), ('UNSPECIFIED') ) ;
#193 = MECHANICAL_CONTEXT ( 'NONE', #226, 'mechanical' ) ;
#194 = ADVANCED_FACE ( 'NONE', ( #258 ), #75, .F. ) ;
#195 = PLANE ( 'NONE',  #158 ) ;
#196 = ORIENTED_EDGE ( 'NONE', *, *, #137, .T. ) ;
#197 = SHAPE_DEFINITION_REPRESENTATION ( #154, #227 ) ;
#198 = CLOSED_SHELL ( 'NONE', ( #205, #221, #174, #113, #231 ) ) ;
#199 = LOCAL_TIME ( 9, 52, 7.000000000000000000, #39 ) ;
#200 = DIRECTION ( 'NONE',  ( 0.0000000000000000000, 1.000000000000000000, 0.0000000000000000000 ) ) ;
#201 = ORIENTED_EDGE ( 'NONE', *, *, #46, .T. ) ;
#202 = EDGE_CURVE ( 'NONE', #336, #126, #189, .T. ) ;
#203 = ORIENTED_EDGE ( 'NONE', *, *, #236, .T. ) ;
#204 =( LENGTH_UNIT ( ) NAMED_UNIT ( * ) SI_UNIT ( .MILLI., .METRE. ) );
#205 = ADVANCED_FACE ( 'NONE', ( #314 ), #2, .T. ) ;
#206 = CARTESIAN_POINT ( 'NONE',  ( 2.304377683636468267E-13, 2.149999999999992362, 66.00000000000000000 ) ) ;
#207 = PRODUCT_DEFINITION_FORMATION_WITH_SPECIFIED_SOURCE ( 'ANY', '', #101, .NOT_KNOWN. ) ;
#208 = CARTESIAN_POINT ( 'NONE',  ( 2.304377683636468267E-13, -8.082668874372532400E-15, 66.00000000000000000 ) ) ;
#209 = EDGE_CURVE ( 'NONE', #35, #273, #17, .T. ) ;
#210 = CARTESIAN_POINT ( 'NONE',  ( 1.511687717077887248E-13, -2.750000000000007994, 65.40000000000000568 ) ) ;
#211 = LINE ( 'NONE', #134, #127 ) ;
#212 = CIRCLE ( 'NONE', #249, 2.749999999999994671 ) ;
#213 = ORIENTED_EDGE ( 'NONE', *, *, #168, .F. ) ;
#214 = APPROVAL_ROLE ( '' ) ;
#215 = CARTESIAN_POINT ( 'NONE',  ( 2.283428795603408836E-13, 2.749999999999992006, 65.40000000000000568 ) ) ;
#216 = ORIENTED_EDGE ( 'NONE', *, *, #168, .T. ) ;
#217 = APPROVAL_DATE_TIME ( #250, #105 ) ;
#218 = DIRECTION ( 'NONE',  ( -2.382254525458724175E-15, -0.7071067811865451302, -0.7071067811865499042 ) ) ;
#219 = AXIS2_PLACEMENT_3D ( 'NONE', #28, #111, #110 ) ;
#220 = ORIENTED_EDGE ( 'NONE', *, *, #9, .T. ) ;
#221 = ADVANCED_FACE ( 'NONE', ( #300 ), #261, .T. ) ;
#222 = DIRECTION ( 'NONE',  ( 0.0000000000000000000, 1.000000000000000000, 0.0000000000000000000 ) ) ;
#223 = APPROVAL_ROLE ( '' ) ;
#224 = ORIENTED_EDGE ( 'NONE', *, *, #283, .T. ) ;
#225 = VECTOR ( 'NONE', #191, 1000.000000000000000 ) ;
#226 = APPLICATION_CONTEXT ( 'configuration controlled 3d designs of mechanical parts and assemblies' ) ;
#227 = ADVANCED_BREP_SHAPE_REPRESENTATION ( '54595', ( #74, #187, #103 ), #163 ) ;
#228 = CARTESIAN_POINT ( 'NONE',  ( 0.0000000000000000000, 0.0000000000000000000, 0.0000000000000000000 ) ) ;
#229 = EDGE_CURVE ( 'NONE', #135, #324, #315, .T. ) ;
#230 = CIRCLE ( 'NONE', #150, 2.150000000000000355 ) ;
#231 = ADVANCED_FACE ( 'NONE', ( #94 ), #195, .T. ) ;
#232 = DIRECTION ( 'NONE',  ( -3.491481338843133355E-15, 1.224646799147353207E-16, -1.000000000000000000 ) ) ;
#233 = DIRECTION ( 'NONE',  ( 0.0000000000000000000, 1.000000000000000000, 0.0000000000000000000 ) ) ;
#234 = FACE_OUTER_BOUND ( 'NONE', #116, .T. ) ;
#235 = DIRECTION ( 'NONE',  ( 5.602705292762884417E-31, 1.000000000000000000, 1.577021341797101998E-16 ) ) ;
#236 = EDGE_CURVE ( 'NONE', #336, #333, #230, .T. ) ;
#237 = CARTESIAN_POINT ( 'NONE',  ( 1.511687717077888258E-13, -2.749999999999997335, 21.00000000000000000 ) ) ;
#238 = VECTOR ( 'NONE', #253, 999.9999999999998863 ) ;
#239 = CLOSED_SHELL ( 'NONE', ( #296, #256, #194, #304, #160, #102 ) ) ;
#240 = CIRCLE ( 'NONE', #254, 2.750000000000000000 ) ;
#241 = ORIENTED_EDGE ( 'NONE', *, *, #283, .F. ) ;
#242 = CALENDAR_DATE ( 2021, 3, 9 ) ;
#243 = CYLINDRICAL_SURFACE ( 'NONE', #152, 2.749999999999993339 ) ;
#244 = EDGE_LOOP ( 'NONE', ( #196, #144, #49, #18 ) ) ;
#245 = DATE_AND_TIME ( #327, #199 ) ;
#246 = CARTESIAN_POINT ( 'NONE',  ( 0.0000000000000000000, 0.0000000000000000000, 0.0000000000000000000 ) ) ;
#247 = ORIENTED_EDGE ( 'NONE', *, *, #332, .F. ) ;
#248 = COORDINATED_UNIVERSAL_TIME_OFFSET ( 1, 0, .AHEAD. ) ;
#249 = AXIS2_PLACEMENT_3D ( 'NONE', #145, #309, #335 ) ;
#250 = DATE_AND_TIME ( #15, #184 ) ;
#251 = PERSON_AND_ORGANIZATION_ROLE ( 'design_owner' ) ;
#252 = ORIENTED_EDGE ( 'NONE', *, *, #229, .F. ) ;
#253 = DIRECTION ( 'NONE',  ( 1.903218546456022717E-15, 0.8571673007021097801, 0.5150380749100585964 ) ) ;
#254 = AXIS2_PLACEMENT_3D ( 'NONE', #289, #188, #153 ) ;
#255 = DIRECTION ( 'NONE',  ( -3.491481338843133355E-15, 1.224646799147353207E-16, -1.000000000000000000 ) ) ;
#256 = ADVANCED_FACE ( 'NONE', ( #262 ), #181, .T. ) ;
#257 = DESIGN_CONTEXT ( 'detailed design', #317, 'design' ) ;
#258 = FACE_OUTER_BOUND ( 'NONE', #173, .T. ) ;
#259 = CARTESIAN_POINT ( 'NONE',  ( 5.769207506096311731E-15, -2.023565593020963612E-16, 1.652366702325804182 ) ) ;
#260 = CARTESIAN_POINT ( 'NONE',  ( 7.332110811570580046E-14, 2.749999999999992006, 21.00000000000000000 ) ) ;
#261 = CONICAL_SURFACE ( 'NONE', #56, 2.749999999999992006, 1.029744258676649649 ) ;
#262 = FACE_OUTER_BOUND ( 'NONE', #244, .T. ) ;
#263 = ORIENTED_EDGE ( 'NONE', *, *, #96, .T. ) ;
#264 = APPROVAL ( #57, 'UNSPECIFIED' ) ;
#265 = CIRCLE ( 'NONE', #5, 2.150000000000000355 ) ;
#266 = CONICAL_SURFACE ( 'NONE', #42, 2.150000000000000355, 0.7853981633974450594 ) ;
#267 = PERSON_AND_ORGANIZATION ( #192, #284 ) ;
#268 = EDGE_LOOP ( 'NONE', ( #203, #216, #302, #100 ) ) ;
#269 = APPROVAL_DATE_TIME ( #303, #264 ) ;
#270 = PRODUCT_RELATED_PRODUCT_CATEGORY ( 'detail', '', ( #101 ) ) ;
#271 = DIRECTION ( 'NONE',  ( 3.491481338843133355E-15, -1.224646799147353207E-16, 1.000000000000000000 ) ) ;
#272 = PERSON_AND_ORGANIZATION ( #192, #284 ) ;
#273 = VERTEX_POINT ( 'NONE', #29 ) ;
#274 = AXIS2_PLACEMENT_3D ( 'NONE', #66, #330, #290 ) ;
#275 = APPROVAL_ROLE ( '' ) ;
#276 = EDGE_LOOP ( 'NONE', ( #307, #69, #263 ) ) ;
#277 = EDGE_CURVE ( 'NONE', #126, #43, #211, .T. ) ;
#278 = LINE ( 'NONE', #47, #238 ) ;
#279 = DIRECTION ( 'NONE',  ( -3.491481338843133355E-15, 1.224646799147353207E-16, -1.000000000000000000 ) ) ;
#280 = AXIS2_PLACEMENT_3D ( 'NONE', #208, #140, #55 ) ;
#281 = LOCAL_TIME ( 9, 52, 7.000000000000000000, #37 ) ;
#282 = ORIENTED_EDGE ( 'NONE', *, *, #323, .F. ) ;
#283 = EDGE_CURVE ( 'NONE', #273, #151, #322, .T. ) ;
#284 = ORGANIZATION ( 'UNSPECIFIED', 'UNSPECIFIED', '' ) ;
#285 = CARTESIAN_POINT ( 'NONE',  ( 1.175853647621660683E-30, 2.749999999999993339, 3.367778697655213616E-16 ) ) ;
#286 = CARTESIAN_POINT ( 'NONE',  ( 6.105985375861834177E-15, 2.749999999999992006, 1.652366702325804626 ) ) ;
#287 = FACE_OUTER_BOUND ( 'NONE', #120, .T. ) ;
#288 = CC_DESIGN_PERSON_AND_ORGANIZATION_ASSIGNMENT ( #93, #136, ( #129 ) ) ;
#289 = CARTESIAN_POINT ( 'NONE',  ( 2.283428795603408836E-13, -8.009190066423689102E-15, 65.40000000000000568 ) ) ;
#290 = DIRECTION ( 'NONE',  ( 4.275831445896958607E-31, 1.000000000000000000, 1.224646799147353454E-16 ) ) ;
#291 = EDGE_CURVE ( 'NONE', #135, #151, #180, .T. ) ;
#292 = CC_DESIGN_PERSON_AND_ORGANIZATION_ASSIGNMENT ( #267, #251, ( #101 ) ) ;
#293 = FACE_OUTER_BOUND ( 'NONE', #50, .T. ) ;
#294 = COORDINATED_UNIVERSAL_TIME_OFFSET ( 1, 0, .AHEAD. ) ;
#295 = ORIENTED_EDGE ( 'NONE', *, *, #209, .T. ) ;
#296 = ADVANCED_FACE ( 'NONE', ( #72 ), #266, .T. ) ;
#297 = APPROVAL_DATE_TIME ( #122, #53 ) ;
#298 = AXIS2_PLACEMENT_3D ( 'NONE', #51, #31, #112 ) ;
#299 = ORIENTED_EDGE ( 'NONE', *, *, #332, .T. ) ;
#300 = FACE_OUTER_BOUND ( 'NONE', #276, .T. ) ;
#301 = CARTESIAN_POINT ( 'NONE',  ( 7.332110811570580046E-14, 2.062169701160046547E-32, 21.00000000000000000 ) ) ;
#302 = ORIENTED_EDGE ( 'NONE', *, *, #137, .F. ) ;
#303 = DATE_AND_TIME ( #167, #281 ) ;
#304 = ADVANCED_FACE ( 'NONE', ( #156 ), #172, .T. ) ;
#305 = CIRCLE ( 'NONE', #8, 2.749999999999994671 ) ;
#306 = CC_DESIGN_SECURITY_CLASSIFICATION ( #129, ( #207 ) ) ;
#307 = ORIENTED_EDGE ( 'NONE', *, *, #209, .F. ) ;
#308 = CARTESIAN_POINT ( 'NONE',  ( 7.332110811570580046E-14, -2.571758278209441661E-15, 21.00000000000000000 ) ) ;
#309 = DIRECTION ( 'NONE',  ( -3.491481338843133355E-15, 1.224646799147353207E-16, -1.000000000000000000 ) ) ;
#310 = EDGE_LOOP ( 'NONE', ( #1, #220, #45, #175 ) ) ;
#311 = CIRCLE ( 'NONE', #219, 2.750000000000000000 ) ;
#312 = CARTESIAN_POINT ( 'NONE',  ( 2.304377683636468267E-13, -8.082668874372532400E-15, 66.00000000000000000 ) ) ;
#313 = EDGE_CURVE ( 'NONE', #43, #159, #212, .T. ) ;
#314 = FACE_OUTER_BOUND ( 'NONE', #310, .T. ) ;
#315 = CIRCLE ( 'NONE', #48, 2.749999999999994671 ) ;
#316 = DIRECTION ( 'NONE',  ( 0.0000000000000000000, 1.000000000000000000, 0.0000000000000000000 ) ) ;
#317 = APPLICATION_CONTEXT ( 'configuration controlled 3d designs of mechanical parts and assemblies' ) ;
#318 = LINE ( 'NONE', #119, #3 ) ;
#319 = DIRECTION ( 'NONE',  ( -3.491481338843133355E-15, 1.224646799147353207E-16, -1.000000000000000000 ) ) ;
#320 = EDGE_CURVE ( 'NONE', #324, #135, #27, .T. ) ;
#321 = DIRECTION ( 'NONE',  ( -3.491481338843133355E-15, 1.224646799147353207E-16, -1.000000000000000000 ) ) ;
#322 = CIRCLE ( 'NONE', #16, 2.749999999999992006 ) ;
#323 = EDGE_CURVE ( 'NONE', #35, #151, #278, .T. ) ;
#324 = VERTEX_POINT ( 'NONE', #148 ) ;
#325 = APPLICATION_PROTOCOL_DEFINITION ( 'international standard', 'config_control_design', 1994, #317 ) ;
#326 = EDGE_LOOP ( 'NONE', ( #252, #12 ) ) ;
#327 = CALENDAR_DATE ( 2021, 3, 9 ) ;
#328 = VECTOR ( 'NONE', #232, 1000.000000000000000 ) ;
#329 = DIRECTION ( 'NONE',  ( 3.491481338843133355E-15, -1.224646799147353207E-16, 1.000000000000000000 ) ) ;
#330 = DIRECTION ( 'NONE',  ( -3.491481338843133355E-15, 1.224646799147353207E-16, -1.000000000000000000 ) ) ;
#331 = CARTESIAN_POINT ( 'NONE',  ( 2.304377683636468267E-13, 2.149999999999992362, 66.00000000000000000 ) ) ;
#332 = EDGE_CURVE ( 'NONE', #159, #43, #305, .T. ) ;
#333 = VERTEX_POINT ( 'NONE', #106 ) ;
#334 = PERSON_AND_ORGANIZATION ( #192, #284 ) ;
#335 = DIRECTION ( 'NONE',  ( 0.0000000000000000000, 1.000000000000000000, 0.0000000000000000000 ) ) ;
#336 = VERTEX_POINT ( 'NONE', #206 ) ;
#337 = APPROVAL_PERSON_ORGANIZATION ( #19, #105, #275 ) ;
ENDSEC;
END-ISO-10303-21;
