ISO-10303-21;
HEADER;
FILE_DESCRIPTION (( 'STEP AP203' ),
    '1' );
FILE_NAME ('54594.step',
    '2021-09-03T07:52:03',
    ( '' ),
    ( '' ),
    'SwSTEP 2.0',
    'SolidWorks 2019',
    '' );
FILE_SCHEMA (( 'CONFIG_CONTROL_DESIGN' ));
ENDSEC;

DATA;
#1 = FACE_OUTER_BOUND ( 'NONE', #235, .T. ) ;
#2 = LOCAL_TIME ( 9, 52, 3.000000000000000000, #325 ) ;
#3 = DIRECTION ( 'NONE',  ( -3.491481338843133355E-15, 1.224646799147353207E-16, -1.000000000000000000 ) ) ;
#4 = ORIENTED_EDGE ( 'NONE', *, *, #278, .T. ) ;
#5 = EDGE_CURVE ( 'NONE', #151, #53, #64, .T. ) ;
#6 = APPROVAL_ROLE ( '' ) ;
#7 = DIRECTION ( 'NONE',  ( -3.491481338843133355E-15, 1.224646799147353207E-16, -1.000000000000000000 ) ) ;
#8 = ORIENTED_EDGE ( 'NONE', *, *, #302, .F. ) ;
#9 = ORIENTED_EDGE ( 'NONE', *, *, #274, .T. ) ;
#10 = AXIS2_PLACEMENT_3D ( 'NONE', #149, #277, #310 ) ;
#11 = VERTEX_POINT ( 'NONE', #50 ) ;
#12 = ORIENTED_EDGE ( 'NONE', *, *, #61, .F. ) ;
#13 = PERSON ( 'UNSPECIFIED', 'UNSPECIFIED', 'UNSPECIFIED', ('UNSPECIFIED'), ('UNSPECIFIED'), ('UNSPECIFIED') ) ;
#14 = VECTOR ( 'NONE', #331, 1000.000000000000000 ) ;
#15 = CARTESIAN_POINT ( 'NONE',  ( 2.283428795603408836E-13, -8.009190066423689102E-15, 65.40000000000000568 ) ) ;
#16 = CARTESIAN_POINT ( 'NONE',  ( 5.664312824167288111E-15, -1.986773491329673325E-16, 1.622323671374426013 ) ) ;
#17 = CLOSED_SHELL ( 'NONE', ( #27, #82, #38, #157, #133 ) ) ;
#18 = VECTOR ( 'NONE', #91, 1000.000000000000000 ) ;
#19 = DIRECTION ( 'NONE',  ( -3.491481338843133355E-15, 1.224646799147353207E-16, -1.000000000000000000 ) ) ;
#20 = CARTESIAN_POINT ( 'NONE',  ( 0.0000000000000000000, 0.0000000000000000000, 0.0000000000000000000 ) ) ;
#21 = COORDINATED_UNIVERSAL_TIME_OFFSET ( 1, 0, .AHEAD. ) ;
#22 = CARTESIAN_POINT ( 'NONE',  ( 7.332110811570580046E-14, -2.571758278209441661E-15, 21.00000000000000000 ) ) ;
#23 =( GEOMETRIC_REPRESENTATION_CONTEXT ( 3 ) GLOBAL_UNCERTAINTY_ASSIGNED_CONTEXT ( ( #230 ) ) GLOBAL_UNIT_ASSIGNED_CONTEXT ( ( #155, #298, #245 ) ) REPRESENTATION_CONTEXT ( 'NONE', 'WORKASPACE' ) );
#24 = DIRECTION ( 'NONE',  ( 0.0000000000000000000, 1.000000000000000000, 0.0000000000000000000 ) ) ;
#25 = DIRECTION ( 'NONE',  ( -3.491481338843133355E-15, 1.224646799147353207E-16, -1.000000000000000000 ) ) ;
#26 = DIRECTION ( 'NONE',  ( 1.798245827342160317E-15, -0.8571673007021098911, 0.5150380749100582634 ) ) ;
#27 = ADVANCED_FACE ( 'NONE', ( #73 ), #54, .T. ) ;
#28 = FACE_OUTER_BOUND ( 'NONE', #135, .T. ) ;
#29 = ORIENTED_EDGE ( 'NONE', *, *, #324, .F. ) ;
#30 = PERSON_AND_ORGANIZATION ( #13, #218 ) ;
#31 = ORIENTED_EDGE ( 'NONE', *, *, #5, .F. ) ;
#32 = DIRECTION ( 'NONE',  ( -3.491481338843133355E-15, 1.224646799147353207E-16, -1.000000000000000000 ) ) ;
#33 = ORIENTED_EDGE ( 'NONE', *, *, #76, .F. ) ;
#34 = EDGE_LOOP ( 'NONE', ( #12, #79, #185 ) ) ;
#35 = FACE_OUTER_BOUND ( 'NONE', #239, .T. ) ;
#36 = DATE_TIME_ROLE ( 'classification_date' ) ;
#37 = PRODUCT ( '54594', '54594', '', ( #291 ) ) ;
#38 = ADVANCED_FACE ( 'NONE', ( #104 ), #88, .T. ) ;
#39 = APPROVAL_ROLE ( '' ) ;
#40 = CONICAL_SURFACE ( 'NONE', #123, 2.100000000000000977, 0.7853981633974450594 ) ;
#41 = CIRCLE ( 'NONE', #136, 2.700000000000000622 ) ;
#42 = ADVANCED_BREP_SHAPE_REPRESENTATION ( '54594', ( #174, #68, #197 ), #23 ) ;
#43 = CARTESIAN_POINT ( 'NONE',  ( 3.306546357697834998E-16, -2.699999999999993960, -3.306546357697857678E-16 ) ) ;
#44 = COORDINATED_UNIVERSAL_TIME_OFFSET ( 1, 0, .AHEAD. ) ;
#45 = LINE ( 'NONE', #113, #159 ) ;
#46 = AXIS2_PLACEMENT_3D ( 'NONE', #22, #315, #78 ) ;
#47 = CALENDAR_DATE ( 2021, 3, 9 ) ;
#48 = DIRECTION ( 'NONE',  ( -3.491481338843133355E-15, 1.224646799147353207E-16, -1.000000000000000000 ) ) ;
#49 = APPROVAL ( #193, 'UNSPECIFIED' ) ;
#50 = CARTESIAN_POINT ( 'NONE',  ( 2.283428795603408836E-13, 2.699999999999992628, 65.40000000000000568 ) ) ;
#51 = CARTESIAN_POINT ( 'NONE',  ( 1.511626484737931029E-13, -2.699999999999997957, 21.00000000000000000 ) ) ;
#52 = CARTESIAN_POINT ( 'NONE',  ( 2.304377683636468267E-13, -8.082668874372532400E-15, 66.00000000000000000 ) ) ;
#53 = VERTEX_POINT ( 'NONE', #102 ) ;
#54 = CYLINDRICAL_SURFACE ( 'NONE', #190, 2.699999999999993960 ) ;
#55 = ORIENTED_EDGE ( 'NONE', *, *, #294, .F. ) ;
#56 = VECTOR ( 'NONE', #74, 999.9999999999998863 ) ;
#57 = AXIS2_PLACEMENT_3D ( 'NONE', #128, #3, #106 ) ;
#58 = SECURITY_CLASSIFICATION_LEVEL ( 'unclassified' ) ;
#59 = ORIENTED_EDGE ( 'NONE', *, *, #278, .F. ) ;
#60 = VERTEX_POINT ( 'NONE', #173 ) ;
#61 = EDGE_CURVE ( 'NONE', #60, #132, #175, .T. ) ;
#62 = ORIENTED_EDGE ( 'NONE', *, *, #306, .T. ) ;
#63 = DIRECTION ( 'NONE',  ( 3.491481338843133355E-15, -1.224646799147353207E-16, 1.000000000000000000 ) ) ;
#64 = CIRCLE ( 'NONE', #296, 2.699999999999995293 ) ;
#65 = EDGE_CURVE ( 'NONE', #138, #154, #187, .T. ) ;
#66 = CC_DESIGN_APPROVAL ( #266, ( #247 ) ) ;
#67 = DIRECTION ( 'NONE',  ( -3.491481338843133355E-15, 1.224646799147353207E-16, -1.000000000000000000 ) ) ;
#68 = MANIFOLD_SOLID_BREP ( 'Corps-Déplacer/Copier1[2]', #17 ) ;
#69 = CYLINDRICAL_SURFACE ( 'NONE', #75, 2.699999999999997957 ) ;
#70 = PERSON_AND_ORGANIZATION ( #13, #218 ) ;
#71 = DATE_AND_TIME ( #308, #118 ) ;
#72 = DIRECTION ( 'NONE',  ( 0.0000000000000000000, 1.000000000000000000, 0.0000000000000000000 ) ) ;
#73 = FACE_OUTER_BOUND ( 'NONE', #213, .T. ) ;
#74 = DIRECTION ( 'NONE',  ( 1.903218546456022717E-15, 0.8571673007021097801, 0.5150380749100585964 ) ) ;
#75 = AXIS2_PLACEMENT_3D ( 'NONE', #20, #219, #119 ) ;
#76 = EDGE_CURVE ( 'NONE', #318, #208, #129, .T. ) ;
#77 = DIRECTION ( 'NONE',  ( 3.491481338843133355E-15, -1.224646799147353207E-16, 1.000000000000000000 ) ) ;
#78 = DIRECTION ( 'NONE',  ( 0.0000000000000000000, 1.000000000000000000, 0.0000000000000000000 ) ) ;
#79 = ORIENTED_EDGE ( 'NONE', *, *, #160, .T. ) ;
#80 = VERTEX_POINT ( 'NONE', #228 ) ;
#81 = CONICAL_SURFACE ( 'NONE', #57, 2.100000000000000977, 0.7853981633974450594 ) ;
#82 = ADVANCED_FACE ( 'NONE', ( #1 ), #179, .T. ) ;
#83 = CC_DESIGN_DATE_AND_TIME_ASSIGNMENT ( #322, #36, ( #247 ) ) ;
#84 = ORIENTED_EDGE ( 'NONE', *, *, #302, .T. ) ;
#85 = EDGE_LOOP ( 'NONE', ( #316, #242 ) ) ;
#86 = DIRECTION ( 'NONE',  ( 4.275831445896958607E-31, 1.000000000000000000, 1.224646799147353207E-16 ) ) ;
#87 = PLANE ( 'NONE',  #328 ) ;
#88 = CONICAL_SURFACE ( 'NONE', #209, 2.699999999999992628, 1.029744258676649649 ) ;
#89 = LOCAL_TIME ( 9, 52, 3.000000000000000000, #299 ) ;
#90 = FACE_OUTER_BOUND ( 'NONE', #285, .T. ) ;
#91 = DIRECTION ( 'NONE',  ( -3.491481338843133355E-15, 1.224646799147353207E-16, -1.000000000000000000 ) ) ;
#92 = DIRECTION ( 'NONE',  ( -3.491481338843133355E-15, 1.224646799147353207E-16, -1.000000000000000000 ) ) ;
#93 = PERSON_AND_ORGANIZATION ( #13, #218 ) ;
#94 = APPLICATION_PROTOCOL_DEFINITION ( 'international standard', 'config_control_design', 1994, #295 ) ;
#95 = CARTESIAN_POINT ( 'NONE',  ( 5.664312824167288111E-15, -1.986773491329673325E-16, 1.622323671374426013 ) ) ;
#96 = LINE ( 'NONE', #304, #161 ) ;
#97 = CALENDAR_DATE ( 2021, 3, 9 ) ;
#98 = ADVANCED_FACE ( 'NONE', ( #103 ), #40, .T. ) ;
#99 = PRODUCT_DEFINITION_FORMATION_WITH_SPECIFIED_SOURCE ( 'ANY', '', #37, .NOT_KNOWN. ) ;
#100 = APPROVAL_ROLE ( '' ) ;
#101 = CIRCLE ( 'NONE', #279, 2.100000000000000977 ) ;
#102 = CARTESIAN_POINT ( 'NONE',  ( 7.332110811570580046E-14, 2.699999999999992628, 21.00000000000000000 ) ) ;
#103 = FACE_OUTER_BOUND ( 'NONE', #263, .T. ) ;
#104 = FACE_OUTER_BOUND ( 'NONE', #34, .T. ) ;
#105 = APPROVAL_PERSON_ORGANIZATION ( #221, #201, #100 ) ;
#106 = DIRECTION ( 'NONE',  ( 0.0000000000000000000, 1.000000000000000000, 0.0000000000000000000 ) ) ;
#107 = EDGE_LOOP ( 'NONE', ( #29, #234, #4, #31 ) ) ;
#108 = ORIENTED_EDGE ( 'NONE', *, *, #61, .T. ) ;
#109 = CC_DESIGN_PERSON_AND_ORGANIZATION_ASSIGNMENT ( #332, #184, ( #37 ) ) ;
#110 = VERTEX_POINT ( 'NONE', #203 ) ;
#111 = EDGE_LOOP ( 'NONE', ( #258, #182, #289, #186 ) ) ;
#112 = CC_DESIGN_PERSON_AND_ORGANIZATION_ASSIGNMENT ( #93, #163, ( #99 ) ) ;
#113 = CARTESIAN_POINT ( 'NONE',  ( 3.306546357697839928E-16, -2.699999999999997957, -3.306546357697862608E-16 ) ) ;
#114 = CYLINDRICAL_SURFACE ( 'NONE', #269, 2.699999999999997957 ) ;
#115 = CARTESIAN_POINT ( 'NONE',  ( 1.154474490392176319E-30, 2.699999999999993960, 3.306546357697846338E-16 ) ) ;
#116 = APPROVAL_STATUS ( 'not_yet_approved' ) ;
#117 = DIRECTION ( 'NONE',  ( 2.853229547240357375E-31, 1.000000000000000000, 1.606225440719270311E-16 ) ) ;
#118 = LOCAL_TIME ( 9, 52, 3.000000000000000000, #198 ) ;
#119 = DIRECTION ( 'NONE',  ( 4.275831445896958607E-31, 1.000000000000000000, 1.224646799147353207E-16 ) ) ;
#120 = LINE ( 'NONE', #220, #252 ) ;
#121 = DATE_TIME_ROLE ( 'creation_date' ) ;
#122 = APPLICATION_CONTEXT ( 'configuration controlled 3d designs of mechanical parts and assemblies' ) ;
#123 = AXIS2_PLACEMENT_3D ( 'NONE', #52, #254, #150 ) ;
#124 = CIRCLE ( 'NONE', #130, 2.699999999999992628 ) ;
#125 = CARTESIAN_POINT ( 'NONE',  ( 2.283428795603408836E-13, -8.009190066423689102E-15, 65.40000000000000568 ) ) ;
#126 = CARTESIAN_POINT ( 'NONE',  ( 5.994967459937074273E-15, 2.699999999999992628, 1.622323671374426457 ) ) ;
#127 = CARTESIAN_POINT ( 'NONE',  ( 0.0000000000000000000, 0.0000000000000000000, 0.0000000000000000000 ) ) ;
#128 = CARTESIAN_POINT ( 'NONE',  ( 2.304377683636468267E-13, -8.082668874372532400E-15, 66.00000000000000000 ) ) ;
#129 = CIRCLE ( 'NONE', #167, 2.100000000000000977 ) ;
#130 = AXIS2_PLACEMENT_3D ( 'NONE', #16, #19, #117 ) ;
#131 = PLANE ( 'NONE',  #264 ) ;
#132 = VERTEX_POINT ( 'NONE', #336 ) ;
#133 = ADVANCED_FACE ( 'NONE', ( #152 ), #284, .T. ) ;
#134 = ORIENTED_EDGE ( 'NONE', *, *, #189, .F. ) ;
#135 = EDGE_LOOP ( 'NONE', ( #33, #211 ) ) ;
#136 = AXIS2_PLACEMENT_3D ( 'NONE', #125, #177, #257 ) ;
#137 = DIRECTION ( 'NONE',  ( 0.0000000000000000000, 0.0000000000000000000, 1.000000000000000000 ) ) ;
#138 = VERTEX_POINT ( 'NONE', #282 ) ;
#139 = DIRECTION ( 'NONE',  ( 1.000000000000000000, 0.0000000000000000000, 0.0000000000000000000 ) ) ;
#140 = DIRECTION ( 'NONE',  ( -3.491481338843133355E-15, 1.224646799147353207E-16, -1.000000000000000000 ) ) ;
#141 = CALENDAR_DATE ( 2021, 3, 9 ) ;
#142 = CC_DESIGN_PERSON_AND_ORGANIZATION_ASSIGNMENT ( #30, #268, ( #247 ) ) ;
#143 = CARTESIAN_POINT ( 'NONE',  ( 7.332110811570580046E-14, -2.571758278209441661E-15, 21.00000000000000000 ) ) ;
#144 = DIRECTION ( 'NONE',  ( -3.491481338843133355E-15, 1.224646799147353207E-16, -1.000000000000000000 ) ) ;
#145 = APPROVAL_PERSON_ORGANIZATION ( #215, #266, #39 ) ;
#146 = DATE_AND_TIME ( #47, #89 ) ;
#147 = DIRECTION ( 'NONE',  ( 3.491481338843133355E-15, -1.224646799147353207E-16, 1.000000000000000000 ) ) ;
#148 = DIRECTION ( 'NONE',  ( 0.0000000000000000000, 1.000000000000000000, 0.0000000000000000000 ) ) ;
#149 = CARTESIAN_POINT ( 'NONE',  ( 0.0000000000000000000, 0.0000000000000000000, 0.0000000000000000000 ) ) ;
#150 = DIRECTION ( 'NONE',  ( 0.0000000000000000000, 1.000000000000000000, 0.0000000000000000000 ) ) ;
#151 = VERTEX_POINT ( 'NONE', #51 ) ;
#152 = FACE_OUTER_BOUND ( 'NONE', #85, .T. ) ;
#153 = ORIENTED_EDGE ( 'NONE', *, *, #324, .T. ) ;
#154 = VERTEX_POINT ( 'NONE', #199 ) ;
#155 =( LENGTH_UNIT ( ) NAMED_UNIT ( * ) SI_UNIT ( .MILLI., .METRE. ) );
#156 = ORIENTED_EDGE ( 'NONE', *, *, #65, .T. ) ;
#157 = ADVANCED_FACE ( 'NONE', ( #253 ), #255, .T. ) ;
#158 = ORIENTED_EDGE ( 'NONE', *, *, #160, .F. ) ;
#159 = VECTOR ( 'NONE', #238, 1000.000000000000000 ) ;
#160 = EDGE_CURVE ( 'NONE', #60, #80, #205, .T. ) ;
#161 = VECTOR ( 'NONE', #217, 1000.000000000000114 ) ;
#162 = DIRECTION ( 'NONE',  ( -2.468850131082272838E-15, 0.7071067811865453523, -0.7071067811865496822 ) ) ;
#163 = PERSON_AND_ORGANIZATION_ROLE ( 'creator' ) ;
#164 = DIRECTION ( 'NONE',  ( -3.491481338843133355E-15, 1.224646799147353207E-16, -1.000000000000000000 ) ) ;
#165 = PRODUCT_DEFINITION ( 'UNKNOWN', '', #99, #314 ) ;
#166 = CARTESIAN_POINT ( 'NONE',  ( 2.304377683636468267E-13, -8.082668874372532400E-15, 66.00000000000000000 ) ) ;
#167 = AXIS2_PLACEMENT_3D ( 'NONE', #337, #25, #72 ) ;
#168 = AXIS2_PLACEMENT_3D ( 'NONE', #143, #164, #244 ) ;
#169 = DIRECTION ( 'NONE',  ( -2.853229547240357375E-31, -1.000000000000000000, -1.606225440719270311E-16 ) ) ;
#170 = CARTESIAN_POINT ( 'NONE',  ( 5.664312824167288111E-15, -1.986773491329673325E-16, 1.622323671374426013 ) ) ;
#171 = CC_DESIGN_DATE_AND_TIME_ASSIGNMENT ( #146, #121, ( #165 ) ) ;
#172 = CIRCLE ( 'NONE', #319, 2.699999999999992628 ) ;
#173 = CARTESIAN_POINT ( 'NONE',  ( 0.0000000000000000000, 0.0000000000000000000, 0.0000000000000000000 ) ) ;
#174 = MANIFOLD_SOLID_BREP ( 'Corps-Déplacer/Copier1[1]', #214 ) ;
#175 = LINE ( 'NONE', #126, #56 ) ;
#176 = ADVANCED_FACE ( 'NONE', ( #250 ), #81, .T. ) ;
#177 = DIRECTION ( 'NONE',  ( -3.491481338843133355E-15, 1.224646799147353207E-16, -1.000000000000000000 ) ) ;
#178 = ORIENTED_EDGE ( 'NONE', *, *, #5, .T. ) ;
#179 = CONICAL_SURFACE ( 'NONE', #334, 2.699999999999992628, 1.029744258676649649 ) ;
#180 = CC_DESIGN_APPROVAL ( #49, ( #165 ) ) ;
#181 = PERSON_AND_ORGANIZATION_ROLE ( 'design_supplier' ) ;
#182 = ORIENTED_EDGE ( 'NONE', *, *, #271, .T. ) ;
#183 = APPROVAL_DATE_TIME ( #236, #266 ) ;
#184 = PERSON_AND_ORGANIZATION_ROLE ( 'design_owner' ) ;
#185 = ORIENTED_EDGE ( 'NONE', *, *, #294, .T. ) ;
#186 = ORIENTED_EDGE ( 'NONE', *, *, #274, .F. ) ;
#187 = CIRCLE ( 'NONE', #272, 2.699999999999995293 ) ;
#188 = DIRECTION ( 'NONE',  ( -4.275831445896958607E-31, -1.000000000000000000, -1.224646799147353207E-16 ) ) ;
#189 = EDGE_CURVE ( 'NONE', #53, #151, #300, .T. ) ;
#190 = AXIS2_PLACEMENT_3D ( 'NONE', #127, #48, #276 ) ;
#191 = APPROVAL_PERSON_ORGANIZATION ( #323, #49, #6 ) ;
#192 = PRODUCT_DEFINITION_SHAPE ( 'NONE', 'NONE',  #165 ) ;
#193 = APPROVAL_STATUS ( 'not_yet_approved' ) ;
#194 = LINE ( 'NONE', #270, #14 ) ;
#195 = EDGE_CURVE ( 'NONE', #110, #11, #41, .T. ) ;
#196 = DATE_AND_TIME ( #97, #243 ) ;
#197 = AXIS2_PLACEMENT_3D ( 'NONE', #262, #137, #139 ) ;
#198 = COORDINATED_UNIVERSAL_TIME_OFFSET ( 1, 0, .AHEAD. ) ;
#199 = CARTESIAN_POINT ( 'NONE',  ( 7.332110811570580046E-14, 2.699999999999992628, 21.00000000000000000 ) ) ;
#200 = ADVANCED_FACE ( 'NONE', ( #28 ), #131, .F. ) ;
#201 = APPROVAL ( #333, 'UNSPECIFIED' ) ;
#202 = CARTESIAN_POINT ( 'NONE',  ( 7.332110811570580046E-14, -2.571758278209441661E-15, 21.00000000000000000 ) ) ;
#203 = CARTESIAN_POINT ( 'NONE',  ( 1.511626484737929767E-13, -2.700000000000008171, 65.40000000000000568 ) ) ;
#204 = CIRCLE ( 'NONE', #223, 2.700000000000000622 ) ;
#205 = LINE ( 'NONE', #231, #251 ) ;
#206 = CARTESIAN_POINT ( 'NONE',  ( 5.664312824167288111E-15, -1.986773491329673325E-16, 1.622323671374426013 ) ) ;
#207 = ORIENTED_EDGE ( 'NONE', *, *, #306, .F. ) ;
#208 = VERTEX_POINT ( 'NONE', #326 ) ;
#209 = AXIS2_PLACEMENT_3D ( 'NONE', #206, #77, #313 ) ;
#210 = CC_DESIGN_APPROVAL ( #201, ( #99 ) ) ;
#211 = ORIENTED_EDGE ( 'NONE', *, *, #260, .F. ) ;
#212 = PRODUCT_RELATED_PRODUCT_CATEGORY ( 'detail', '', ( #37 ) ) ;
#213 = EDGE_LOOP ( 'NONE', ( #292, #84, #207, #259 ) ) ;
#214 = CLOSED_SHELL ( 'NONE', ( #176, #229, #249, #261, #98, #200 ) ) ;
#215 = PERSON_AND_ORGANIZATION ( #13, #218 ) ;
#216 = EDGE_CURVE ( 'NONE', #154, #132, #303, .T. ) ;
#217 = DIRECTION ( 'NONE',  ( -2.382254525458724175E-15, -0.7071067811865451302, -0.7071067811865499042 ) ) ;
#218 = ORGANIZATION ( 'UNSPECIFIED', 'UNSPECIFIED', '' ) ;
#219 = DIRECTION ( 'NONE',  ( -3.491481338843133355E-15, 1.224646799147353207E-16, -1.000000000000000000 ) ) ;
#220 = CARTESIAN_POINT ( 'NONE',  ( 2.304377683636468267E-13, 2.099999999999992983, 66.00000000000000000 ) ) ;
#221 = PERSON_AND_ORGANIZATION ( #13, #218 ) ;
#222 = AXIS2_PLACEMENT_3D ( 'NONE', #311, #147, #280 ) ;
#223 = AXIS2_PLACEMENT_3D ( 'NONE', #15, #92, #240 ) ;
#224 = EDGE_CURVE ( 'NONE', #11, #110, #204, .T. ) ;
#225 = CARTESIAN_POINT ( 'NONE',  ( 2.304377683636468267E-13, 1.574747771794938993E-32, 66.00000000000000000 ) ) ;
#226 = DIRECTION ( 'NONE',  ( 4.275831445896958607E-31, 1.000000000000000000, 1.224646799147353207E-16 ) ) ;
#227 = CARTESIAN_POINT ( 'NONE',  ( 7.332110811570580046E-14, -2.571758278209441661E-15, 21.00000000000000000 ) ) ;
#228 = CARTESIAN_POINT ( 'NONE',  ( 5.664312824167287322E-15, -2.699999999999992628, 1.622323671374425569 ) ) ;
#229 = ADVANCED_FACE ( 'NONE', ( #90 ), #114, .T. ) ;
#230 = UNCERTAINTY_MEASURE_WITH_UNIT (LENGTH_MEASURE( 1.000000000000000082E-05 ), #155, 'distance_accuracy_value', 'NONE');
#231 = CARTESIAN_POINT ( 'NONE',  ( 5.664312824167287322E-15, -2.699999999999992628, 1.622323671374425569 ) ) ;
#232 = ORIENTED_EDGE ( 'NONE', *, *, #271, .F. ) ;
#233 = DIRECTION ( 'NONE',  ( 3.491481338843133355E-15, -1.224646799147353207E-16, 1.000000000000000000 ) ) ;
#234 = ORIENTED_EDGE ( 'NONE', *, *, #195, .T. ) ;
#235 = EDGE_LOOP ( 'NONE', ( #158, #108, #62 ) ) ;
#236 = DATE_AND_TIME ( #141, #2 ) ;
#237 = APPROVAL_DATE_TIME ( #71, #201 ) ;
#238 = DIRECTION ( 'NONE',  ( -3.491481338843133355E-15, 1.224646799147353207E-16, -1.000000000000000000 ) ) ;
#239 = EDGE_LOOP ( 'NONE', ( #288, #178 ) ) ;
#240 = DIRECTION ( 'NONE',  ( 0.0000000000000000000, 1.000000000000000000, 0.0000000000000000000 ) ) ;
#241 = APPLICATION_PROTOCOL_DEFINITION ( 'international standard', 'config_control_design', 1994, #122 ) ;
#242 = ORIENTED_EDGE ( 'NONE', *, *, #65, .F. ) ;
#243 = LOCAL_TIME ( 9, 52, 3.000000000000000000, #21 ) ;
#244 = DIRECTION ( 'NONE',  ( 0.0000000000000000000, 1.000000000000000000, 0.0000000000000000000 ) ) ;
#245 =( NAMED_UNIT ( * ) SI_UNIT ( $, .STERADIAN. ) SOLID_ANGLE_UNIT ( ) );
#246 = DIRECTION ( 'NONE',  ( 2.853229547240357375E-31, 1.000000000000000000, 1.606225440719270311E-16 ) ) ;
#247 = SECURITY_CLASSIFICATION ( '', '', #58 ) ;
#248 = FACE_OUTER_BOUND ( 'NONE', #107, .T. ) ;
#249 = ADVANCED_FACE ( 'NONE', ( #35 ), #87, .F. ) ;
#250 = FACE_OUTER_BOUND ( 'NONE', #111, .T. ) ;
#251 = VECTOR ( 'NONE', #26, 1000.000000000000000 ) ;
#252 = VECTOR ( 'NONE', #162, 1000.000000000000000 ) ;
#253 = FACE_OUTER_BOUND ( 'NONE', #256, .T. ) ;
#254 = DIRECTION ( 'NONE',  ( -3.491481338843133355E-15, 1.224646799147353207E-16, -1.000000000000000000 ) ) ;
#255 = CYLINDRICAL_SURFACE ( 'NONE', #10, 2.699999999999993960 ) ;
#256 = EDGE_LOOP ( 'NONE', ( #8, #156, #283, #55 ) ) ;
#257 = DIRECTION ( 'NONE',  ( 0.0000000000000000000, 1.000000000000000000, 0.0000000000000000000 ) ) ;
#258 = ORIENTED_EDGE ( 'NONE', *, *, #76, .T. ) ;
#259 = ORIENTED_EDGE ( 'NONE', *, *, #216, .F. ) ;
#260 = EDGE_CURVE ( 'NONE', #208, #318, #101, .T. ) ;
#261 = ADVANCED_FACE ( 'NONE', ( #248 ), #69, .T. ) ;
#262 = CARTESIAN_POINT ( 'NONE',  ( 0.0000000000000000000, 0.0000000000000000000, 0.0000000000000000000 ) ) ;
#263 = EDGE_LOOP ( 'NONE', ( #232, #320, #9, #265 ) ) ;
#264 = AXIS2_PLACEMENT_3D ( 'NONE', #225, #32, #226 ) ;
#265 = ORIENTED_EDGE ( 'NONE', *, *, #195, .F. ) ;
#266 = APPROVAL ( #116, 'UNSPECIFIED' ) ;
#267 = CARTESIAN_POINT ( 'NONE',  ( 0.0000000000000000000, 0.0000000000000000000, 0.0000000000000000000 ) ) ;
#268 = PERSON_AND_ORGANIZATION_ROLE ( 'classification_officer' ) ;
#269 = AXIS2_PLACEMENT_3D ( 'NONE', #267, #140, #86 ) ;
#270 = CARTESIAN_POINT ( 'NONE',  ( 1.154474490392177895E-30, 2.699999999999997957, 3.306546357697851268E-16 ) ) ;
#271 = EDGE_CURVE ( 'NONE', #208, #110, #96, .T. ) ;
#272 = AXIS2_PLACEMENT_3D ( 'NONE', #227, #309, #148 ) ;
#273 = DIRECTION ( 'NONE',  ( -3.491481338843133355E-15, 1.224646799147353207E-16, -1.000000000000000000 ) ) ;
#274 = EDGE_CURVE ( 'NONE', #318, #11, #120, .T. ) ;
#275 = PERSON_AND_ORGANIZATION_ROLE ( 'creator' ) ;
#276 = DIRECTION ( 'NONE',  ( 4.275831445896958607E-31, 1.000000000000000000, 1.224646799147353207E-16 ) ) ;
#277 = DIRECTION ( 'NONE',  ( -3.491481338843133355E-15, 1.224646799147353207E-16, -1.000000000000000000 ) ) ;
#278 = EDGE_CURVE ( 'NONE', #11, #53, #194, .T. ) ;
#279 = AXIS2_PLACEMENT_3D ( 'NONE', #166, #273, #305 ) ;
#280 = DIRECTION ( 'NONE',  ( -4.275831445896958607E-31, -1.000000000000000000, -1.224646799147353207E-16 ) ) ;
#281 = CARTESIAN_POINT ( 'NONE',  ( 2.304377683636468267E-13, 2.099999999999992983, 66.00000000000000000 ) ) ;
#282 = CARTESIAN_POINT ( 'NONE',  ( 3.982336510570629574E-14, -2.699999999999997957, 21.00000000000000000 ) ) ;
#283 = ORIENTED_EDGE ( 'NONE', *, *, #216, .T. ) ;
#284 = PLANE ( 'NONE',  #222 ) ;
#285 = EDGE_LOOP ( 'NONE', ( #321, #153, #134, #59 ) ) ;
#286 = VECTOR ( 'NONE', #67, 1000.000000000000000 ) ;
#287 = EDGE_CURVE ( 'NONE', #154, #138, #312, .T. ) ;
#288 = ORIENTED_EDGE ( 'NONE', *, *, #189, .T. ) ;
#289 = ORIENTED_EDGE ( 'NONE', *, *, #224, .F. ) ;
#290 = SHAPE_DEFINITION_REPRESENTATION ( #192, #42 ) ;
#291 = MECHANICAL_CONTEXT ( 'NONE', #295, 'mechanical' ) ;
#292 = ORIENTED_EDGE ( 'NONE', *, *, #287, .T. ) ;
#293 = CARTESIAN_POINT ( 'NONE',  ( 7.332110811570580046E-14, 2.024675706593500655E-32, 21.00000000000000000 ) ) ;
#294 = EDGE_CURVE ( 'NONE', #80, #132, #124, .T. ) ;
#295 = APPLICATION_CONTEXT ( 'configuration controlled 3d designs of mechanical parts and assemblies' ) ;
#296 = AXIS2_PLACEMENT_3D ( 'NONE', #202, #7, #24 ) ;
#297 = LOCAL_TIME ( 9, 52, 3.000000000000000000, #44 ) ;
#298 =( NAMED_UNIT ( * ) PLANE_ANGLE_UNIT ( ) SI_UNIT ( $, .RADIAN. ) );
#299 = COORDINATED_UNIVERSAL_TIME_OFFSET ( 1, 0, .AHEAD. ) ;
#300 = CIRCLE ( 'NONE', #46, 2.699999999999995293 ) ;
#301 = CC_DESIGN_SECURITY_CLASSIFICATION ( #247, ( #99 ) ) ;
#302 = EDGE_CURVE ( 'NONE', #138, #80, #329, .T. ) ;
#303 = LINE ( 'NONE', #115, #18 ) ;
#304 = CARTESIAN_POINT ( 'NONE',  ( 2.306949441914677932E-13, -2.100000000000009415, 66.00000000000000000 ) ) ;
#305 = DIRECTION ( 'NONE',  ( 0.0000000000000000000, 1.000000000000000000, 0.0000000000000000000 ) ) ;
#306 = EDGE_CURVE ( 'NONE', #132, #80, #172, .T. ) ;
#307 = APPROVAL_DATE_TIME ( #196, #49 ) ;
#308 = CALENDAR_DATE ( 2021, 3, 9 ) ;
#309 = DIRECTION ( 'NONE',  ( -3.491481338843133355E-15, 1.224646799147353207E-16, -1.000000000000000000 ) ) ;
#310 = DIRECTION ( 'NONE',  ( 4.275831445896958607E-31, 1.000000000000000000, 1.224646799147353207E-16 ) ) ;
#311 = CARTESIAN_POINT ( 'NONE',  ( 7.332110811570580046E-14, 2.024675706593500655E-32, 21.00000000000000000 ) ) ;
#312 = CIRCLE ( 'NONE', #168, 2.699999999999995293 ) ;
#313 = DIRECTION ( 'NONE',  ( -2.853229547240357375E-31, -1.000000000000000000, -1.606225440719270311E-16 ) ) ;
#314 = DESIGN_CONTEXT ( 'detailed design', #122, 'design' ) ;
#315 = DIRECTION ( 'NONE',  ( -3.491481338843133355E-15, 1.224646799147353207E-16, -1.000000000000000000 ) ) ;
#316 = ORIENTED_EDGE ( 'NONE', *, *, #287, .F. ) ;
#317 = PERSON_AND_ORGANIZATION ( #13, #218 ) ;
#318 = VERTEX_POINT ( 'NONE', #281 ) ;
#319 = AXIS2_PLACEMENT_3D ( 'NONE', #95, #144, #246 ) ;
#320 = ORIENTED_EDGE ( 'NONE', *, *, #260, .T. ) ;
#321 = ORIENTED_EDGE ( 'NONE', *, *, #224, .T. ) ;
#322 = DATE_AND_TIME ( #335, #297 ) ;
#323 = PERSON_AND_ORGANIZATION ( #13, #218 ) ;
#324 = EDGE_CURVE ( 'NONE', #110, #151, #45, .T. ) ;
#325 = COORDINATED_UNIVERSAL_TIME_OFFSET ( 1, 0, .AHEAD. ) ;
#326 = CARTESIAN_POINT ( 'NONE',  ( 2.296842391937892346E-13, -2.100000000000009415, 66.00000000000000000 ) ) ;
#327 = CC_DESIGN_PERSON_AND_ORGANIZATION_ASSIGNMENT ( #70, #275, ( #165 ) ) ;
#328 = AXIS2_PLACEMENT_3D ( 'NONE', #293, #63, #188 ) ;
#329 = LINE ( 'NONE', #43, #286 ) ;
#330 = CC_DESIGN_PERSON_AND_ORGANIZATION_ASSIGNMENT ( #317, #181, ( #99 ) ) ;
#331 = DIRECTION ( 'NONE',  ( -3.491481338843133355E-15, 1.224646799147353207E-16, -1.000000000000000000 ) ) ;
#332 = PERSON_AND_ORGANIZATION ( #13, #218 ) ;
#333 = APPROVAL_STATUS ( 'not_yet_approved' ) ;
#334 = AXIS2_PLACEMENT_3D ( 'NONE', #170, #233, #169 ) ;
#335 = CALENDAR_DATE ( 2021, 3, 9 ) ;
#336 = CARTESIAN_POINT ( 'NONE',  ( 5.994967459937074273E-15, 2.699999999999992628, 1.622323671374426457 ) ) ;
#337 = CARTESIAN_POINT ( 'NONE',  ( 2.304377683636468267E-13, -8.082668874372532400E-15, 66.00000000000000000 ) ) ;
ENDSEC;
END-ISO-10303-21;
