ISO-10303-21;
HEADER;
FILE_DESCRIPTION (( 'STEP AP203' ),
    '1' );
FILE_NAME ('54593.step',
    '2021-09-03T07:51:59',
    ( '' ),
    ( '' ),
    'SwSTEP 2.0',
    'SolidWorks 2019',
    '' );
FILE_SCHEMA (( 'CONFIG_CONTROL_DESIGN' ));
ENDSEC;

DATA;
#1 = CARTESIAN_POINT ( 'NONE',  ( 0.0000000000000000000, 0.0000000000000000000, 0.0000000000000000000 ) ) ;
#2 = VECTOR ( 'NONE', #167, 1000.000000000000000 ) ;
#3 = EDGE_LOOP ( 'NONE', ( #211, #83, #39, #102 ) ) ;
#4 = PLANE ( 'NONE',  #135 ) ;
#5 = CARTESIAN_POINT ( 'NONE',  ( 5.559418142238265280E-15, -1.949981389638383283E-16, 1.592280640423047844 ) ) ;
#6 =( NAMED_UNIT ( * ) PLANE_ANGLE_UNIT ( ) SI_UNIT ( $, .RADIAN. ) );
#7 = CARTESIAN_POINT ( 'NONE',  ( 2.143769542049683754E-13, -7.519331346764748510E-15, 61.39999999999999858 ) ) ;
#8 = CIRCLE ( 'NONE', #17, 2.649999999999999911 ) ;
#9 = CYLINDRICAL_SURFACE ( 'NONE', #92, 2.649999999999994138 ) ;
#10 = LOCAL_TIME ( 9, 51, 59.00000000000000000, #332 ) ;
#11 = FACE_OUTER_BOUND ( 'NONE', #279, .T. ) ;
#12 = EDGE_CURVE ( 'NONE', #131, #174, #18, .T. ) ;
#13 = DIRECTION ( 'NONE',  ( 4.275831445896959482E-31, 1.000000000000000000, 1.224646799147353207E-16 ) ) ;
#14 = COORDINATED_UNIVERSAL_TIME_OFFSET ( 1, 0, .AHEAD. ) ;
#15 = AXIS2_PLACEMENT_3D ( 'NONE', #289, #265, #25 ) ;
#16 = EDGE_CURVE ( 'NONE', #233, #132, #331, .T. ) ;
#17 = AXIS2_PLACEMENT_3D ( 'NONE', #7, #31, #35 ) ;
#18 = LINE ( 'NONE', #189, #126 ) ;
#19 = DIRECTION ( 'NONE',  ( -4.275831445896958607E-31, -1.000000000000000000, -1.224646799147353207E-16 ) ) ;
#20 = ADVANCED_FACE ( 'NONE', ( #187 ), #155, .T. ) ;
#21 = ORIENTED_EDGE ( 'NONE', *, *, #252, .T. ) ;
#22 = CARTESIAN_POINT ( 'NONE',  ( 2.164718430082742680E-13, -7.592810154713590230E-15, 62.00000000000000000 ) ) ;
#23 = ORIENTED_EDGE ( 'NONE', *, *, #12, .F. ) ;
#24 = APPLICATION_PROTOCOL_DEFINITION ( 'international standard', 'config_control_design', 1994, #234 ) ;
#25 = DIRECTION ( 'NONE',  ( 0.0000000000000000000, 1.000000000000000000, 0.0000000000000000000 ) ) ;
#26 = CARTESIAN_POINT ( 'NONE',  ( 6.982962677686266711E-14, -2.449293598294706513E-15, 20.00000000000000000 ) ) ;
#27 = CC_DESIGN_APPROVAL ( #291, ( #70 ) ) ;
#28 = EDGE_LOOP ( 'NONE', ( #23, #280, #73, #257 ) ) ;
#29 = LINE ( 'NONE', #75, #47 ) ;
#30 = CC_DESIGN_PERSON_AND_ORGANIZATION_ASSIGNMENT ( #127, #40, ( #70 ) ) ;
#31 = DIRECTION ( 'NONE',  ( -3.491481338843133355E-15, 1.224646799147353207E-16, -1.000000000000000000 ) ) ;
#32 = DIRECTION ( 'NONE',  ( 2.907064066999609236E-31, 1.000000000000000000, 8.182657905550999233E-17 ) ) ;
#33 = CIRCLE ( 'NONE', #200, 2.649999999999995026 ) ;
#34 = CALENDAR_DATE ( 2021, 3, 9 ) ;
#35 = DIRECTION ( 'NONE',  ( 0.0000000000000000000, 1.000000000000000000, 0.0000000000000000000 ) ) ;
#36 = DIRECTION ( 'NONE',  ( 1.798245827342160317E-15, -0.8571673007021098911, 0.5150380749100582634 ) ) ;
#37 = ORIENTED_EDGE ( 'NONE', *, *, #50, .T. ) ;
#38 = LOCAL_TIME ( 9, 51, 59.00000000000000000, #255 ) ;
#39 = ORIENTED_EDGE ( 'NONE', *, *, #266, .T. ) ;
#40 = PERSON_AND_ORGANIZATION_ROLE ( 'creator' ) ;
#41 = AXIS2_PLACEMENT_3D ( 'NONE', #320, #198, #85 ) ;
#42 = CC_DESIGN_DATE_AND_TIME_ASSIGNMENT ( #229, #253, ( #70 ) ) ;
#43 = APPROVAL_STATUS ( 'not_yet_approved' ) ;
#44 = ORIENTED_EDGE ( 'NONE', *, *, #151, .T. ) ;
#45 = CARTESIAN_POINT ( 'NONE',  ( 1.133095333162693181E-30, 2.649999999999997691, 3.245314017740483497E-16 ) ) ;
#46 = ORIENTED_EDGE ( 'NONE', *, *, #235, .F. ) ;
#47 = VECTOR ( 'NONE', #188, 1000.000000000000000 ) ;
#48 = CARTESIAN_POINT ( 'NONE',  ( 5.559418142238265280E-15, -1.949981389638383283E-16, 1.592280640423047844 ) ) ;
#49 = ORIENTED_EDGE ( 'NONE', *, *, #192, .F. ) ;
#50 = EDGE_CURVE ( 'NONE', #132, #165, #106, .T. ) ;
#51 = CARTESIAN_POINT ( 'NONE',  ( 0.0000000000000000000, 0.0000000000000000000, 0.0000000000000000000 ) ) ;
#52 = ORIENTED_EDGE ( 'NONE', *, *, #16, .T. ) ;
#53 = CARTESIAN_POINT ( 'NONE',  ( 6.982962677686266711E-14, 1.987181712026953941E-32, 20.00000000000000000 ) ) ;
#54 = ORIENTED_EDGE ( 'NONE', *, *, #50, .F. ) ;
#55 = CC_DESIGN_DATE_AND_TIME_ASSIGNMENT ( #197, #143, ( #101 ) ) ;
#56 = CIRCLE ( 'NONE', #15, 2.649999999999995026 ) ;
#57 = AXIS2_PLACEMENT_3D ( 'NONE', #51, #77, #162 ) ;
#58 = DIRECTION ( 'NONE',  ( -3.491481338843133355E-15, 1.224646799147353207E-16, -1.000000000000000000 ) ) ;
#59 = CARTESIAN_POINT ( 'NONE',  ( 0.0000000000000000000, 0.0000000000000000000, 0.0000000000000000000 ) ) ;
#60 = EDGE_CURVE ( 'NONE', #174, #236, #56, .T. ) ;
#61 = CARTESIAN_POINT ( 'NONE',  ( 5.559418142238265280E-15, -1.949981389638383283E-16, 1.592280640423047844 ) ) ;
#62 = AXIS2_PLACEMENT_3D ( 'NONE', #5, #273, #32 ) ;
#63 = DIRECTION ( 'NONE',  ( -3.491481338843133355E-15, 1.224646799147353207E-16, -1.000000000000000000 ) ) ;
#64 = CC_DESIGN_APPROVAL ( #327, ( #328 ) ) ;
#65 = SECURITY_CLASSIFICATION_LEVEL ( 'unclassified' ) ;
#66 = VERTEX_POINT ( 'NONE', #134 ) ;
#67 = VECTOR ( 'NONE', #191, 1000.000000000000114 ) ;
#68 = MANIFOLD_SOLID_BREP ( 'Corps-Déplacer/Copier1[1]', #254 ) ;
#69 = MANIFOLD_SOLID_BREP ( 'Corps-Déplacer/Copier1[2]', #286 ) ;
#70 = PRODUCT_DEFINITION ( 'UNKNOWN', '', #328, #239 ) ;
#71 = PERSON_AND_ORGANIZATION ( #121, #270 ) ;
#72 = AXIS2_PLACEMENT_3D ( 'NONE', #53, #183, #19 ) ;
#73 = ORIENTED_EDGE ( 'NONE', *, *, #214, .T. ) ;
#74 = EDGE_CURVE ( 'NONE', #105, #165, #240, .T. ) ;
#75 = CARTESIAN_POINT ( 'NONE',  ( 1.133095333162691430E-30, 2.649999999999994138, 3.245314017740478566E-16 ) ) ;
#76 = ORIENTED_EDGE ( 'NONE', *, *, #252, .F. ) ;
#77 = DIRECTION ( 'NONE',  ( 0.0000000000000000000, 0.0000000000000000000, 1.000000000000000000 ) ) ;
#78 = ADVANCED_FACE ( 'NONE', ( #173 ), #276, .F. ) ;
#79 = ORIENTED_EDGE ( 'NONE', *, *, #151, .F. ) ;
#80 = AXIS2_PLACEMENT_3D ( 'NONE', #264, #179, #81 ) ;
#81 = DIRECTION ( 'NONE',  ( 0.0000000000000000000, 1.000000000000000000, 0.0000000000000000000 ) ) ;
#82 = LINE ( 'NONE', #294, #334 ) ;
#83 = ORIENTED_EDGE ( 'NONE', *, *, #329, .T. ) ;
#84 = FACE_OUTER_BOUND ( 'NONE', #333, .T. ) ;
#85 = DIRECTION ( 'NONE',  ( 0.0000000000000000000, 1.000000000000000000, 0.0000000000000000000 ) ) ;
#86 = LOCAL_TIME ( 9, 51, 59.00000000000000000, #241 ) ;
#87 = DIRECTION ( 'NONE',  ( 4.275831445896958607E-31, 1.000000000000000000, 1.224646799147353207E-16 ) ) ;
#88 = DIRECTION ( 'NONE',  ( 4.275831445896958607E-31, 1.000000000000000000, 1.224646799147353207E-16 ) ) ;
#89 = ADVANCED_FACE ( 'NONE', ( #272 ), #9, .T. ) ;
#90 = APPROVAL_DATE_TIME ( #245, #278 ) ;
#91 = FACE_OUTER_BOUND ( 'NONE', #98, .T. ) ;
#92 = AXIS2_PLACEMENT_3D ( 'NONE', #59, #63, #88 ) ;
#93 = CALENDAR_DATE ( 2021, 3, 9 ) ;
#94 = ORIENTED_EDGE ( 'NONE', *, *, #207, .T. ) ;
#95 = CIRCLE ( 'NONE', #62, 2.649999999999992806 ) ;
#96 = COORDINATED_UNIVERSAL_TIME_OFFSET ( 1, 0, .AHEAD. ) ;
#97 = ADVANCED_FACE ( 'NONE', ( #11 ), #196, .T. ) ;
#98 = EDGE_LOOP ( 'NONE', ( #44, #99, #226, #268 ) ) ;
#99 = ORIENTED_EDGE ( 'NONE', *, *, #133, .T. ) ;
#100 = CONICAL_SURFACE ( 'NONE', #296, 2.649999999999992806, 1.029744258676649649 ) ;
#101 = SECURITY_CLASSIFICATION ( '', '', #65 ) ;
#102 = ORIENTED_EDGE ( 'NONE', *, *, #113, .F. ) ;
#103 = MECHANICAL_CONTEXT ( 'NONE', #234, 'mechanical' ) ;
#104 = PERSON_AND_ORGANIZATION ( #121, #270 ) ;
#105 = VERTEX_POINT ( 'NONE', #300 ) ;
#106 = LINE ( 'NONE', #316, #185 ) ;
#107 = AXIS2_PLACEMENT_3D ( 'NONE', #238, #110, #215 ) ;
#108 = DIRECTION ( 'NONE',  ( -4.275831445896958607E-31, -1.000000000000000000, -1.224646799147353207E-16 ) ) ;
#109 = EDGE_CURVE ( 'NONE', #318, #165, #219, .T. ) ;
#110 = DIRECTION ( 'NONE',  ( -3.491481338843133355E-15, 1.224646799147353207E-16, -1.000000000000000000 ) ) ;
#111 = CARTESIAN_POINT ( 'NONE',  ( 2.164718430082742680E-13, 2.049999999999992717, 62.00000000000000000 ) ) ;
#112 = FACE_OUTER_BOUND ( 'NONE', #3, .T. ) ;
#113 = EDGE_CURVE ( 'NONE', #131, #66, #8, .T. ) ;
#114 = CARTESIAN_POINT ( 'NONE',  ( 2.164718430082742680E-13, -7.592810154713590230E-15, 62.00000000000000000 ) ) ;
#115 = AXIS2_PLACEMENT_3D ( 'NONE', #277, #324, #87 ) ;
#116 = CONICAL_SURFACE ( 'NONE', #303, 2.649999999999992806, 1.029744258676649649 ) ;
#117 = DIRECTION ( 'NONE',  ( -3.491481338843133355E-15, 1.224646799147353207E-16, -1.000000000000000000 ) ) ;
#118 = PRODUCT ( '54593', '54593', '', ( #103 ) ) ;
#119 = APPROVAL_ROLE ( '' ) ;
#120 = CARTESIAN_POINT ( 'NONE',  ( 1.424278218926895530E-13, -2.649999999999997691, 20.00000000000000000 ) ) ;
#121 = PERSON ( 'UNSPECIFIED', 'UNSPECIFIED', 'UNSPECIFIED', ('UNSPECIFIED'), ('UNSPECIFIED'), ('UNSPECIFIED') ) ;
#122 = PERSON_AND_ORGANIZATION ( #121, #270 ) ;
#123 = LOCAL_TIME ( 9, 51, 59.00000000000000000, #14 ) ;
#124 = CC_DESIGN_PERSON_AND_ORGANIZATION_ASSIGNMENT ( #202, #148, ( #101 ) ) ;
#125 = EDGE_LOOP ( 'NONE', ( #54, #308, #284, #206 ) ) ;
#126 = VECTOR ( 'NONE', #161, 1000.000000000000000 ) ;
#127 = PERSON_AND_ORGANIZATION ( #121, #270 ) ;
#128 = CARTESIAN_POINT ( 'NONE',  ( 0.0000000000000000000, 0.0000000000000000000, 0.0000000000000000000 ) ) ;
#129 = ADVANCED_FACE ( 'NONE', ( #146 ), #116, .T. ) ;
#130 =( LENGTH_UNIT ( ) NAMED_UNIT ( * ) SI_UNIT ( .MILLI., .METRE. ) );
#131 = VERTEX_POINT ( 'NONE', #248 ) ;
#132 = VERTEX_POINT ( 'NONE', #169 ) ;
#133 = EDGE_CURVE ( 'NONE', #184, #131, #242, .T. ) ;
#134 = CARTESIAN_POINT ( 'NONE',  ( 2.143769542049683754E-13, 2.649999999999992806, 61.39999999999999858 ) ) ;
#135 = AXIS2_PLACEMENT_3D ( 'NONE', #314, #263, #108 ) ;
#136 = DIRECTION ( 'NONE',  ( -3.491481338843133355E-15, 1.224646799147353207E-16, -1.000000000000000000 ) ) ;
#137 = ORIENTED_EDGE ( 'NONE', *, *, #329, .F. ) ;
#138 = CARTESIAN_POINT ( 'NONE',  ( 6.982962677686266711E-14, -2.449293598294706513E-15, 20.00000000000000000 ) ) ;
#139 = DIRECTION ( 'NONE',  ( 4.275831445896958607E-31, 1.000000000000000000, 1.224646799147353207E-16 ) ) ;
#140 = CYLINDRICAL_SURFACE ( 'NONE', #258, 2.649999999999997691 ) ;
#141 = EDGE_CURVE ( 'NONE', #165, #105, #95, .T. ) ;
#142 = CC_DESIGN_APPROVAL ( #278, ( #101 ) ) ;
#143 = DATE_TIME_ROLE ( 'classification_date' ) ;
#144 = DIRECTION ( 'NONE',  ( 3.491481338843133355E-15, -1.224646799147353207E-16, 1.000000000000000000 ) ) ;
#145 = APPROVAL_STATUS ( 'not_yet_approved' ) ;
#146 = FACE_OUTER_BOUND ( 'NONE', #177, .T. ) ;
#147 = ADVANCED_FACE ( 'NONE', ( #243 ), #140, .T. ) ;
#148 = PERSON_AND_ORGANIZATION_ROLE ( 'classification_officer' ) ;
#149 = AXIS2_PLACEMENT_3D ( 'NONE', #22, #136, #160 ) ;
#150 = ORIENTED_EDGE ( 'NONE', *, *, #109, .T. ) ;
#151 = EDGE_CURVE ( 'NONE', #287, #184, #307, .T. ) ;
#152 = VECTOR ( 'NONE', #208, 999.9999999999998863 ) ;
#153 = APPROVAL_ROLE ( '' ) ;
#154 = CALENDAR_DATE ( 2021, 3, 9 ) ;
#155 = CYLINDRICAL_SURFACE ( 'NONE', #259, 2.649999999999997691 ) ;
#156 = APPROVAL_ROLE ( '' ) ;
#157 = DIRECTION ( 'NONE',  ( -3.491481338843133355E-15, 1.224646799147353207E-16, -1.000000000000000000 ) ) ;
#158 = ORIENTED_EDGE ( 'NONE', *, *, #214, .F. ) ;
#159 = CONICAL_SURFACE ( 'NONE', #41, 2.050000000000000711, 0.7853981633974450594 ) ;
#160 = DIRECTION ( 'NONE',  ( 0.0000000000000000000, 1.000000000000000000, 0.0000000000000000000 ) ) ;
#161 = DIRECTION ( 'NONE',  ( -3.491481338843133355E-15, 1.224646799147353207E-16, -1.000000000000000000 ) ) ;
#162 = DIRECTION ( 'NONE',  ( 1.000000000000000000, 0.0000000000000000000, 0.0000000000000000000 ) ) ;
#163 = DIRECTION ( 'NONE',  ( -3.491481338843133355E-15, 1.224646799147353207E-16, -1.000000000000000000 ) ) ;
#164 = DIRECTION ( 'NONE',  ( -2.468850131082272838E-15, 0.7071067811865453523, -0.7071067811865496822 ) ) ;
#165 = VERTEX_POINT ( 'NONE', #246 ) ;
#166 = AXIS2_PLACEMENT_3D ( 'NONE', #244, #117, #220 ) ;
#167 = DIRECTION ( 'NONE',  ( -3.491481338843133355E-15, 1.224646799147353207E-16, -1.000000000000000000 ) ) ;
#168 = LINE ( 'NONE', #210, #152 ) ;
#169 = CARTESIAN_POINT ( 'NONE',  ( 3.801905386132448649E-14, -2.649999999999997247, 20.00000000000000000 ) ) ;
#170 = PERSON_AND_ORGANIZATION ( #121, #270 ) ;
#171 = CARTESIAN_POINT ( 'NONE',  ( 0.0000000000000000000, 0.0000000000000000000, 0.0000000000000000000 ) ) ;
#172 = CIRCLE ( 'NONE', #201, 2.649999999999999911 ) ;
#173 = FACE_OUTER_BOUND ( 'NONE', #293, .T. ) ;
#174 = VERTEX_POINT ( 'NONE', #120 ) ;
#175 = ADVANCED_FACE ( 'NONE', ( #112 ), #212, .T. ) ;
#176 = APPROVAL_PERSON_ORGANIZATION ( #71, #278, #153 ) ;
#177 = EDGE_LOOP ( 'NONE', ( #49, #150, #336 ) ) ;
#178 = CC_DESIGN_PERSON_AND_ORGANIZATION_ASSIGNMENT ( #222, #326, ( #328 ) ) ;
#179 = DIRECTION ( 'NONE',  ( -3.491481338843133355E-15, 1.224646799147353207E-16, -1.000000000000000000 ) ) ;
#180 =( NAMED_UNIT ( * ) SI_UNIT ( $, .STERADIAN. ) SOLID_ANGLE_UNIT ( ) );
#181 = ORIENTED_EDGE ( 'NONE', *, *, #12, .T. ) ;
#182 = ADVANCED_FACE ( 'NONE', ( #91 ), #159, .T. ) ;
#183 = DIRECTION ( 'NONE',  ( 3.491481338843133355E-15, -1.224646799147353207E-16, 1.000000000000000000 ) ) ;
#184 = VERTEX_POINT ( 'NONE', #302 ) ;
#185 = VECTOR ( 'NONE', #163, 1000.000000000000000 ) ;
#186 = DIRECTION ( 'NONE',  ( -2.907064066999609236E-31, -1.000000000000000000, -8.182657905550999233E-17 ) ) ;
#187 = FACE_OUTER_BOUND ( 'NONE', #28, .T. ) ;
#188 = DIRECTION ( 'NONE',  ( -3.491481338843133355E-15, 1.224646799147353207E-16, -1.000000000000000000 ) ) ;
#189 = CARTESIAN_POINT ( 'NONE',  ( 3.245314017740472650E-16, -2.649999999999997691, -3.245314017740494837E-16 ) ) ;
#190 = DIRECTION ( 'NONE',  ( 3.491481338843133355E-15, -1.224646799147353207E-16, 1.000000000000000000 ) ) ;
#191 = DIRECTION ( 'NONE',  ( -2.382254525458724175E-15, -0.7071067811865451302, -0.7071067811865499042 ) ) ;
#192 = EDGE_CURVE ( 'NONE', #318, #105, #168, .T. ) ;
#193 = DIRECTION ( 'NONE',  ( -2.907064066999609236E-31, -1.000000000000000000, -8.182657905550999233E-17 ) ) ;
#194 = UNCERTAINTY_MEASURE_WITH_UNIT (LENGTH_MEASURE( 1.000000000000000082E-05 ), #130, 'distance_accuracy_value', 'NONE');
#195 = DATE_AND_TIME ( #93, #10 ) ;
#196 = CYLINDRICAL_SURFACE ( 'NONE', #281, 2.649999999999994138 ) ;
#197 = DATE_AND_TIME ( #275, #123 ) ;
#198 = DIRECTION ( 'NONE',  ( -3.491481338843133355E-15, 1.224646799147353207E-16, -1.000000000000000000 ) ) ;
#199 = CC_DESIGN_PERSON_AND_ORGANIZATION_ASSIGNMENT ( #290, #203, ( #118 ) ) ;
#200 = AXIS2_PLACEMENT_3D ( 'NONE', #26, #216, #285 ) ;
#201 = AXIS2_PLACEMENT_3D ( 'NONE', #288, #267, #283 ) ;
#202 = PERSON_AND_ORGANIZATION ( #121, #270 ) ;
#203 = PERSON_AND_ORGANIZATION_ROLE ( 'design_owner' ) ;
#204 = ORIENTED_EDGE ( 'NONE', *, *, #74, .F. ) ;
#205 = EDGE_LOOP ( 'NONE', ( #335, #282, #330 ) ) ;
#206 = ORIENTED_EDGE ( 'NONE', *, *, #141, .F. ) ;
#207 = EDGE_CURVE ( 'NONE', #66, #131, #172, .T. ) ;
#208 = DIRECTION ( 'NONE',  ( 1.903218546456022717E-15, 0.8571673007021097801, 0.5150380749100585964 ) ) ;
#209 = ORIENTED_EDGE ( 'NONE', *, *, #224, .F. ) ;
#210 = CARTESIAN_POINT ( 'NONE',  ( 5.883949544012313580E-15, 2.649999999999992806, 1.592280640423048066 ) ) ;
#211 = ORIENTED_EDGE ( 'NONE', *, *, #133, .F. ) ;
#212 = CONICAL_SURFACE ( 'NONE', #315, 2.050000000000000711, 0.7853981633974450594 ) ;
#213 = CARTESIAN_POINT ( 'NONE',  ( 6.982962677686266711E-14, 2.649999999999992806, 20.00000000000000000 ) ) ;
#214 = EDGE_CURVE ( 'NONE', #66, #236, #292, .T. ) ;
#215 = DIRECTION ( 'NONE',  ( 2.907064066999609236E-31, 1.000000000000000000, 8.182657905550999233E-17 ) ) ;
#216 = DIRECTION ( 'NONE',  ( -3.491481338843133355E-15, 1.224646799147353207E-16, -1.000000000000000000 ) ) ;
#217 = DIRECTION ( 'NONE',  ( 0.0000000000000000000, 1.000000000000000000, 0.0000000000000000000 ) ) ;
#218 = PRODUCT_RELATED_PRODUCT_CATEGORY ( 'detail', '', ( #118 ) ) ;
#219 = LINE ( 'NONE', #322, #323 ) ;
#220 = DIRECTION ( 'NONE',  ( 0.0000000000000000000, 1.000000000000000000, 0.0000000000000000000 ) ) ;
#221 = DIRECTION ( 'NONE',  ( -3.491481338843133355E-15, 1.224646799147353207E-16, -1.000000000000000000 ) ) ;
#222 = PERSON_AND_ORGANIZATION ( #121, #270 ) ;
#223 = AXIS2_PLACEMENT_3D ( 'NONE', #138, #157, #319 ) ;
#224 = EDGE_CURVE ( 'NONE', #233, #105, #29, .T. ) ;
#225 = APPROVAL_DATE_TIME ( #262, #291 ) ;
#226 = ORIENTED_EDGE ( 'NONE', *, *, #207, .F. ) ;
#227 = CIRCLE ( 'NONE', #223, 2.649999999999995026 ) ;
#228 = APPROVAL_DATE_TIME ( #195, #327 ) ;
#229 = DATE_AND_TIME ( #305, #232 ) ;
#230 =( GEOMETRIC_REPRESENTATION_CONTEXT ( 3 ) GLOBAL_UNCERTAINTY_ASSIGNED_CONTEXT ( ( #194 ) ) GLOBAL_UNIT_ASSIGNED_CONTEXT ( ( #130, #6, #180 ) ) REPRESENTATION_CONTEXT ( 'NONE', 'WORKASPACE' ) );
#231 = ORIENTED_EDGE ( 'NONE', *, *, #60, .T. ) ;
#232 = LOCAL_TIME ( 9, 51, 59.00000000000000000, #96 ) ;
#233 = VERTEX_POINT ( 'NONE', #317 ) ;
#234 = APPLICATION_CONTEXT ( 'configuration controlled 3d designs of mechanical parts and assemblies' ) ;
#235 = EDGE_CURVE ( 'NONE', #132, #233, #33, .T. ) ;
#236 = VERTEX_POINT ( 'NONE', #213 ) ;
#237 = PLANE ( 'NONE',  #72 ) ;
#238 = CARTESIAN_POINT ( 'NONE',  ( 5.559418142238265280E-15, -1.949981389638383283E-16, 1.592280640423047844 ) ) ;
#239 = DESIGN_CONTEXT ( 'detailed design', #251, 'design' ) ;
#240 = CIRCLE ( 'NONE', #107, 2.649999999999992806 ) ;
#241 = COORDINATED_UNIVERSAL_TIME_OFFSET ( 1, 0, .AHEAD. ) ;
#242 = LINE ( 'NONE', #298, #67 ) ;
#243 = FACE_OUTER_BOUND ( 'NONE', #310, .T. ) ;
#244 = CARTESIAN_POINT ( 'NONE',  ( 2.164718430082742680E-13, -7.592810154713590230E-15, 62.00000000000000000 ) ) ;
#245 = DATE_AND_TIME ( #34, #38 ) ;
#246 = CARTESIAN_POINT ( 'NONE',  ( 5.559418142238264491E-15, -2.649999999999992806, 1.592280640423047622 ) ) ;
#247 = PERSON_AND_ORGANIZATION_ROLE ( 'creator' ) ;
#248 = CARTESIAN_POINT ( 'NONE',  ( 1.424278218926894520E-13, -2.650000000000007017, 61.39999999999999858 ) ) ;
#249 = APPROVAL_PERSON_ORGANIZATION ( #104, #291, #156 ) ;
#250 = ADVANCED_BREP_SHAPE_REPRESENTATION ( '54593', ( #68, #69, #57 ), #230 ) ;
#251 = APPLICATION_CONTEXT ( 'configuration controlled 3d designs of mechanical parts and assemblies' ) ;
#252 = EDGE_CURVE ( 'NONE', #236, #174, #227, .T. ) ;
#253 = DATE_TIME_ROLE ( 'creation_date' ) ;
#254 = CLOSED_SHELL ( 'NONE', ( #182, #147, #261, #20, #175, #78 ) ) ;
#255 = COORDINATED_UNIVERSAL_TIME_OFFSET ( 1, 0, .AHEAD. ) ;
#256 = ADVANCED_FACE ( 'NONE', ( #271 ), #4, .T. ) ;
#257 = ORIENTED_EDGE ( 'NONE', *, *, #60, .F. ) ;
#258 = AXIS2_PLACEMENT_3D ( 'NONE', #171, #295, #13 ) ;
#259 = AXIS2_PLACEMENT_3D ( 'NONE', #128, #312, #337 ) ;
#260 = EDGE_LOOP ( 'NONE', ( #313, #46 ) ) ;
#261 = ADVANCED_FACE ( 'NONE', ( #84 ), #237, .F. ) ;
#262 = DATE_AND_TIME ( #154, #86 ) ;
#263 = DIRECTION ( 'NONE',  ( 3.491481338843133355E-15, -1.224646799147353207E-16, 1.000000000000000000 ) ) ;
#264 = CARTESIAN_POINT ( 'NONE',  ( 6.982962677686266711E-14, -2.449293598294706513E-15, 20.00000000000000000 ) ) ;
#265 = DIRECTION ( 'NONE',  ( -3.491481338843133355E-15, 1.224646799147353207E-16, -1.000000000000000000 ) ) ;
#266 = EDGE_CURVE ( 'NONE', #287, #66, #82, .T. ) ;
#267 = DIRECTION ( 'NONE',  ( -3.491481338843133355E-15, 1.224646799147353207E-16, -1.000000000000000000 ) ) ;
#268 = ORIENTED_EDGE ( 'NONE', *, *, #266, .F. ) ;
#269 = CIRCLE ( 'NONE', #149, 2.050000000000000711 ) ;
#270 = ORGANIZATION ( 'UNSPECIFIED', 'UNSPECIFIED', '' ) ;
#271 = FACE_OUTER_BOUND ( 'NONE', #260, .T. ) ;
#272 = FACE_OUTER_BOUND ( 'NONE', #125, .T. ) ;
#273 = DIRECTION ( 'NONE',  ( -3.491481338843133355E-15, 1.224646799147353207E-16, -1.000000000000000000 ) ) ;
#274 = APPROVAL_STATUS ( 'not_yet_approved' ) ;
#275 = CALENDAR_DATE ( 2021, 3, 9 ) ;
#276 = PLANE ( 'NONE',  #115 ) ;
#277 = CARTESIAN_POINT ( 'NONE',  ( 2.164718430082742680E-13, 1.537253777228392827E-32, 62.00000000000000000 ) ) ;
#278 = APPROVAL ( #43, 'UNSPECIFIED' ) ;
#279 = EDGE_LOOP ( 'NONE', ( #52, #37, #204, #209 ) ) ;
#280 = ORIENTED_EDGE ( 'NONE', *, *, #113, .T. ) ;
#281 = AXIS2_PLACEMENT_3D ( 'NONE', #325, #58, #139 ) ;
#282 = ORIENTED_EDGE ( 'NONE', *, *, #192, .T. ) ;
#283 = DIRECTION ( 'NONE',  ( 0.0000000000000000000, 1.000000000000000000, 0.0000000000000000000 ) ) ;
#284 = ORIENTED_EDGE ( 'NONE', *, *, #224, .T. ) ;
#285 = DIRECTION ( 'NONE',  ( 0.0000000000000000000, 1.000000000000000000, 0.0000000000000000000 ) ) ;
#286 = CLOSED_SHELL ( 'NONE', ( #97, #299, #129, #89, #256 ) ) ;
#287 = VERTEX_POINT ( 'NONE', #111 ) ;
#288 = CARTESIAN_POINT ( 'NONE',  ( 2.143769542049683754E-13, -7.519331346764748510E-15, 61.39999999999999858 ) ) ;
#289 = CARTESIAN_POINT ( 'NONE',  ( 6.982962677686266711E-14, -2.449293598294706513E-15, 20.00000000000000000 ) ) ;
#290 = PERSON_AND_ORGANIZATION ( #121, #270 ) ;
#291 = APPROVAL ( #274, 'UNSPECIFIED' ) ;
#292 = LINE ( 'NONE', #45, #2 ) ;
#293 = EDGE_LOOP ( 'NONE', ( #79, #137 ) ) ;
#294 = CARTESIAN_POINT ( 'NONE',  ( 2.164718430082742680E-13, 2.049999999999992717, 62.00000000000000000 ) ) ;
#295 = DIRECTION ( 'NONE',  ( -3.491481338843133355E-15, 1.224646799147353207E-16, -1.000000000000000000 ) ) ;
#296 = AXIS2_PLACEMENT_3D ( 'NONE', #48, #190, #186 ) ;
#297 = CC_DESIGN_SECURITY_CLASSIFICATION ( #101, ( #328 ) ) ;
#298 = CARTESIAN_POINT ( 'NONE',  ( 2.167228956020994612E-13, -2.050000000000008260, 62.00000000000000000 ) ) ;
#299 = ADVANCED_FACE ( 'NONE', ( #311 ), #100, .T. ) ;
#300 = CARTESIAN_POINT ( 'NONE',  ( 5.883949544012313580E-15, 2.649999999999992806, 1.592280640423048066 ) ) ;
#301 = SHAPE_DEFINITION_REPRESENTATION ( #321, #250 ) ;
#302 = CARTESIAN_POINT ( 'NONE',  ( 2.157121906044209531E-13, -2.050000000000008260, 62.00000000000000000 ) ) ;
#303 = AXIS2_PLACEMENT_3D ( 'NONE', #61, #144, #193 ) ;
#304 = APPROVAL_PERSON_ORGANIZATION ( #170, #327, #119 ) ;
#305 = CALENDAR_DATE ( 2021, 3, 9 ) ;
#306 = CC_DESIGN_PERSON_AND_ORGANIZATION_ASSIGNMENT ( #122, #247, ( #328 ) ) ;
#307 = CIRCLE ( 'NONE', #166, 2.050000000000000711 ) ;
#308 = ORIENTED_EDGE ( 'NONE', *, *, #235, .T. ) ;
#309 = APPLICATION_PROTOCOL_DEFINITION ( 'international standard', 'config_control_design', 1994, #251 ) ;
#310 = EDGE_LOOP ( 'NONE', ( #94, #181, #76, #158 ) ) ;
#311 = FACE_OUTER_BOUND ( 'NONE', #205, .T. ) ;
#312 = DIRECTION ( 'NONE',  ( -3.491481338843133355E-15, 1.224646799147353207E-16, -1.000000000000000000 ) ) ;
#313 = ORIENTED_EDGE ( 'NONE', *, *, #16, .F. ) ;
#314 = CARTESIAN_POINT ( 'NONE',  ( 6.982962677686266711E-14, 1.987181712026953941E-32, 20.00000000000000000 ) ) ;
#315 = AXIS2_PLACEMENT_3D ( 'NONE', #114, #221, #217 ) ;
#316 = CARTESIAN_POINT ( 'NONE',  ( 3.245314017740467720E-16, -2.649999999999994138, -3.245314017740489906E-16 ) ) ;
#317 = CARTESIAN_POINT ( 'NONE',  ( 6.982962677686266711E-14, 2.649999999999992806, 20.00000000000000000 ) ) ;
#318 = VERTEX_POINT ( 'NONE', #1 ) ;
#319 = DIRECTION ( 'NONE',  ( 0.0000000000000000000, 1.000000000000000000, 0.0000000000000000000 ) ) ;
#320 = CARTESIAN_POINT ( 'NONE',  ( 2.164718430082742680E-13, -7.592810154713590230E-15, 62.00000000000000000 ) ) ;
#321 = PRODUCT_DEFINITION_SHAPE ( 'NONE', 'NONE',  #70 ) ;
#322 = CARTESIAN_POINT ( 'NONE',  ( 5.559418142238264491E-15, -2.649999999999992806, 1.592280640423047622 ) ) ;
#323 = VECTOR ( 'NONE', #36, 1000.000000000000000 ) ;
#324 = DIRECTION ( 'NONE',  ( -3.491481338843133355E-15, 1.224646799147353207E-16, -1.000000000000000000 ) ) ;
#325 = CARTESIAN_POINT ( 'NONE',  ( 0.0000000000000000000, 0.0000000000000000000, 0.0000000000000000000 ) ) ;
#326 = PERSON_AND_ORGANIZATION_ROLE ( 'design_supplier' ) ;
#327 = APPROVAL ( #145, 'UNSPECIFIED' ) ;
#328 = PRODUCT_DEFINITION_FORMATION_WITH_SPECIFIED_SOURCE ( 'ANY', '', #118, .NOT_KNOWN. ) ;
#329 = EDGE_CURVE ( 'NONE', #184, #287, #269, .T. ) ;
#330 = ORIENTED_EDGE ( 'NONE', *, *, #74, .T. ) ;
#331 = CIRCLE ( 'NONE', #80, 2.649999999999995026 ) ;
#332 = COORDINATED_UNIVERSAL_TIME_OFFSET ( 1, 0, .AHEAD. ) ;
#333 = EDGE_LOOP ( 'NONE', ( #21, #231 ) ) ;
#334 = VECTOR ( 'NONE', #164, 1000.000000000000000 ) ;
#335 = ORIENTED_EDGE ( 'NONE', *, *, #109, .F. ) ;
#336 = ORIENTED_EDGE ( 'NONE', *, *, #141, .T. ) ;
#337 = DIRECTION ( 'NONE',  ( 4.275831445896959482E-31, 1.000000000000000000, 1.224646799147353207E-16 ) ) ;
ENDSEC;
END-ISO-10303-21;
